  0
SECTION
  2
HEADER
  9
$ACADVER
  1
AC1015
  9
$ACADMAINTVER
 70
     6
  9
$DWGCODEPAGE
  3
ANSI_932
  9
$INSBASE
 10
0.0
 20
0.0
 30
0.0
  9
$EXTMIN
 10
0.0
 20
0.0
 30
0.0
  9
$EXTMAX
 10
8410.0
 20
5940.0
 30
0.0
  9
$LIMMIN
 10
0.0
 20
0.0
  9
$LIMMAX
 10
10092.0
 20
7128.0
  9
$ORTHOMODE
 70
     0
  9
$REGENMODE
 70
     1
  9
$FILLMODE
 70
     1
  9
$QTEXTMODE
 70
     0
  9
$MIRRTEXT
 70
     1
  9
$LTSCALE
 40
350.0
  9
$ATTMODE
 70
     1
  9
$TEXTSIZE
 40
0.2
  9
$TRACEWID
 40
0.05
  9
$TEXTSTYLE
  7
Standard
  9
$CLAYER
  8
0
  9
$CELTYPE
  6
ByLayer
  9
$CECOLOR
 62
   256
  9
$CELTSCALE
 40
1.0
  9
$DISPSILH
 70
     0
  9
$DIMSCALE
 40
10.0
  9
$DIMASZ
 40
0.18
  9
$DIMEXO
 40
0.0625
  9
$DIMDLI
 40
0.38
  9
$DIMRND
 40
0.0
  9
$DIMDLE
 40
0.0
  9
$DIMEXE
 40
0.18
  9
$DIMTP
 40
0.0
  9
$DIMTM
 40
0.0
  9
$DIMTXT
 40
0.18
  9
$DIMCEN
 40
0.09
  9
$DIMTSZ
 40
0.0
  9
$DIMTOL
 70
     0
  9
$DIMLIM
 70
     0
  9
$DIMTIH
 70
     1
  9
$DIMTOH
 70
     1
  9
$DIMSE1
 70
     0
  9
$DIMSE2
 70
     0
  9
$DIMTAD
 70
     0
  9
$DIMZIN
 70
     0
  9
$DIMBLK
  1

  9
$DIMASO
 70
     1
  9
$DIMSHO
 70
     1
  9
$DIMPOST
  1

  9
$DIMAPOST
  1

  9
$DIMALT
 70
     0
  9
$DIMALTD
 70
     2
  9
$DIMALTF
 40
25.4
  9
$DIMLFAC
 40
1.0
  9
$DIMTOFL
 70
     0
  9
$DIMTVP
 40
0.0
  9
$DIMTIX
 70
     0
  9
$DIMSOXD
 70
     0
  9
$DIMSAH
 70
     0
  9
$DIMBLK1
  1

  9
$DIMBLK2
  1

  9
$DIMSTYLE
  2
Standard
  9
$DIMCLRD
 70
     0
  9
$DIMCLRE
 70
     0
  9
$DIMCLRT
 70
     0
  9
$DIMTFAC
 40
1.0
  9
$DIMGAP
 40
0.09
  9
$DIMJUST
 70
     0
  9
$DIMSD1
 70
     0
  9
$DIMSD2
 70
     0
  9
$DIMTOLJ
 70
     1
  9
$DIMTZIN
 70
     0
  9
$DIMALTZ
 70
     0
  9
$DIMALTTZ
 70
     0
  9
$DIMUPT
 70
     0
  9
$DIMDEC
 70
     4
  9
$DIMTDEC
 70
     4
  9
$DIMALTU
 70
     2
  9
$DIMALTTD
 70
     2
  9
$DIMTXSTY
  7
Standard
  9
$DIMAUNIT
 70
     0
  9
$DIMADEC
 70
     0
  9
$DIMALTRND
 40
0.0
  9
$DIMAZIN
 70
     0
  9
$DIMDSEP
 70
    46
  9
$DIMATFIT
 70
     3
  9
$DIMFRAC
 70
     0
  9
$DIMLDRBLK
  1

  9
$DIMLUNIT
 70
     2
  9
$DIMLWD
 70
    -2
  9
$DIMLWE
 70
    -2
  9
$DIMTMOVE
 70
     0
  9
$LUNITS
 70
     2
  9
$LUPREC
 70
     4
  9
$SKETCHINC
 40
0.1
  9
$FILLETRAD
 40
0.5
  9
$AUNITS
 70
     0
  9
$AUPREC
 70
     0
  9
$MENU
  1
.
  9
$ELEVATION
 40
0.0
  9
$PELEVATION
 40
0.0
  9
$THICKNESS
 40
0.0
  9
$LIMCHECK
 70
     0
  9
$CHAMFERA
 40
0.0
  9
$CHAMFERB
 40
0.0
  9
$CHAMFERC
 40
0.0
  9
$CHAMFERD
 40
0.0
  9
$SKPOLY
 70
     0
  9
$TDCREATE
 40
2460342.098240741
  9
$TDUCREATE
 40
2460341.723240741
  9
$TDUPDATE
 40
2460341.723251771
  9
$TDUUPDATE
 40
2460341.348251771
  9
$TDINDWG
 40
0.0000000116
  9
$TDUSRTIMER
 40
0.0000000116
  9
$USRTIMER
 70
     1
  9
$ANGBASE
 50
0.0
  9
$ANGDIR
 70
     0
  9
$PDMODE
 70
     0
  9
$PDSIZE
 40
0.0
  9
$PLINEWID
 40
0.0
  9
$SPLFRAME
 70
     0
  9
$SPLINETYPE
 70
     6
  9
$SPLINESEGS
 70
     8
  9
$HANDSEED
  5
516
  9
$SURFTAB1
 70
     6
  9
$SURFTAB2
 70
     6
  9
$SURFTYPE
 70
     6
  9
$SURFU
 70
     6
  9
$SURFV
 70
     6
  9
$UCSBASE
  2

  9
$UCSNAME
  2

  9
$UCSORG
 10
0.0
 20
0.0
 30
0.0
  9
$UCSXDIR
 10
1.0
 20
0.0
 30
0.0
  9
$UCSYDIR
 10
0.0
 20
1.0
 30
0.0
  9
$UCSORTHOREF
  2

  9
$UCSORTHOVIEW
 70
     0
  9
$UCSORGTOP
 10
0.0
 20
0.0
 30
0.0
  9
$UCSORGBOTTOM
 10
0.0
 20
0.0
 30
0.0
  9
$UCSORGLEFT
 10
0.0
 20
0.0
 30
0.0
  9
$UCSORGRIGHT
 10
0.0
 20
0.0
 30
0.0
  9
$UCSORGFRONT
 10
0.0
 20
0.0
 30
0.0
  9
$UCSORGBACK
 10
0.0
 20
0.0
 30
0.0
  9
$PUCSBASE
  2

  9
$PUCSNAME
  2

  9
$PUCSORG
 10
0.0
 20
0.0
 30
0.0
  9
$PUCSXDIR
 10
1.0
 20
0.0
 30
0.0
  9
$PUCSYDIR
 10
0.0
 20
1.0
 30
0.0
  9
$PUCSORTHOREF
  2

  9
$PUCSORTHOVIEW
 70
     0
  9
$PUCSORGTOP
 10
0.0
 20
0.0
 30
0.0
  9
$PUCSORGBOTTOM
 10
0.0
 20
0.0
 30
0.0
  9
$PUCSORGLEFT
 10
0.0
 20
0.0
 30
0.0
  9
$PUCSORGRIGHT
 10
0.0
 20
0.0
 30
0.0
  9
$PUCSORGFRONT
 10
0.0
 20
0.0
 30
0.0
  9
$PUCSORGBACK
 10
0.0
 20
0.0
 30
0.0
  9
$USERI1
 70
     0
  9
$USERI2
 70
     0
  9
$USERI3
 70
     0
  9
$USERI4
 70
     0
  9
$USERI5
 70
     0
  9
$USERR1
 40
0.0
  9
$USERR2
 40
0.0
  9
$USERR3
 40
0.0
  9
$USERR4
 40
0.0
  9
$USERR5
 40
0.0
  9
$WORLDVIEW
 70
     1
  9
$SHADEDGE
 70
     3
  9
$SHADEDIF
 70
    70
  9
$TILEMODE
 70
     1
  9
$MAXACTVP
 70
    64
  9
$PINSBASE
 10
0.0
 20
0.0
 30
0.0
  9
$PLIMCHECK
 70
     0
  9
$PEXTMIN
 10
0.0
 20
0.0
 30
0.0
  9
$PEXTMAX
 10
12.0
 20
9.0
 30
0.0
  9
$PLIMMIN
 10
0.0
 20
0.0
  9
$PLIMMAX
 10
12.0
 20
9.0
  9
$UNITMODE
 70
     0
  9
$VISRETAIN
 70
     1
  9
$PLINEGEN
 70
     0
  9
$PSLTSCALE
 70
     1
  9
$TREEDEPTH
 70
  3020
  9
$CMLSTYLE
  2
Standard
  9
$CMLJUST
 70
     0
  9
$CMLSCALE
 40
1.0
  9
$PROXYGRAPHICS
 70
     1
  9
$MEASUREMENT
 70
     1
  9
$CELWEIGHT
370
    -1
  9
$ENDCAPS
280
     0
  9
$JOINSTYLE
280
     0
  9
$LWDISPLAY
290
     0
  9
$INSUNITS
 70
     4
  9
$HYPERLINKBASE
  1

  9
$STYLESHEET
  1

  9
$XEDIT
290
     1
  9
$CEPSNTYPE
380
     0
  9
$PSTYLEMODE
290
     1
  9
$FINGERPRINTGUID
  2
{2ed308b7-93d0-4de8-b20e-7cfc611248d1}
  9
$VERSIONGUID
  2
{FAEB1C32-E019-11D5-929B-00C0DF256EC4}
  9
$EXTNAMES
290
     1
  9
$PSVPSCALE
 40
0.0
  9
$OLESTARTUP
290
     0
  0
ENDSEC
  0
SECTION
  2
CLASSES
  0
CLASS
  1
ACDBDICTIONARYWDFLT
  2
AcDbDictionaryWithDefault
  3
ObjectDBX Classes
 90
        0
280
     0
281
     0
  0
CLASS
  1
VISUALSTYLE
  2
AcDbVisualStyle
  3
ObjectDBX Classes
 90
     4095
280
     0
281
     0
  0
CLASS
  1
MATERIAL
  2
AcDbMaterial
  3
ObjectDBX Classes
 90
     1153
280
     0
281
     0
  0
CLASS
  1
SCALE
  2
AcDbScale
  3
ObjectDBX Classes
 90
     1153
280
     0
281
     0
  0
CLASS
  1
TABLESTYLE
  2
AcDbTableStyle
  3
ObjectDBX Classes
 90
     4095
280
     0
281
     0
  0
CLASS
  1
MLEADERSTYLE
  2
AcDbMLeaderStyle
  3
ACDB_MLEADERSTYLE_CLASS
 90
     4095
280
     0
281
     0
  0
CLASS
  1
SUN
  2
AcDbSun
  3
SCENEOE
 90
     1153
280
     0
281
     0
  0
CLASS
  1
DICTIONARYVAR
  2
AcDbDictionaryVar
  3
ObjectDBX Classes
 90
        0
280
     0
281
     0
  0
CLASS
  1
ACDBPLACEHOLDER
  2
AcDbPlaceHolder
  3
ObjectDBX Classes
 90
        0
280
     0
281
     0
  0
CLASS
  1
LAYOUT
  2
AcDbLayout
  3
ObjectDBX Classes
 90
        0
280
     0
281
     0
  0
ENDSEC
  0
SECTION
  2
TABLES
  0
TABLE
  2
VPORT
  5
8
102
{ACAD_XDICTIONARY
360
4D9
102
}
330
0
100
AcDbSymbolTable
 70
     1
  0
VPORT
  5
29
330
8
100
AcDbSymbolTableRecord
100
AcDbViewportTableRecord
  2
*Active
 70
     0
 10
0.0
 20
0.0
 11
1.0
 21
1.0
 12
2803.333333333333
 22
2970.0
 13
0.0
 23
0.0
 14
1.0
 24
1.0
 15
0.0
 25
0.0
 16
0.0
 26
0.0
 36
1.0
 17
0.0
 27
0.0
 37
0.0
 40
5940.0
 41
0.688564
 42
50.0
 43
0.0
 44
0.0
 50
0.0
 51
0.0
 71
     0
 72
   100
 73
     1
 74
     3
 75
     0
 76
     0
 77
     0
 78
     0
281
     0
 65
     0
110
0.0
120
0.0
130
0.0
111
1.0
121
0.0
131
0.0
112
0.0
122
1.0
132
0.0
 79
     0
146
0.0
  0
ENDTAB
  0
TABLE
  2
LTYPE
  5
5
330
0
100
AcDbSymbolTable
 70
     3
  0
LTYPE
  5
14
330
5
100
AcDbSymbolTableRecord
100
AcDbLinetypeTableRecord
  2
ByBlock
 70
     0
  3

 72
    65
 73
     0
 40
0.0
  0
LTYPE
  5
15
330
5
100
AcDbSymbolTableRecord
100
AcDbLinetypeTableRecord
  2
ByLayer
 70
     0
  3

 72
    65
 73
     0
 40
0.0
  0
LTYPE
  5
16
330
5
100
AcDbSymbolTableRecord
100
AcDbLinetypeTableRecord
  2
Continuous
 70
     0
  3
Solid line
 72
    65
 73
     0
 40
0.0
  0
LTYPE
  5
B1
330
5
100
AcDbSymbolTableRecord
100
AcDbLinetypeTableRecord
  2
DASHED2
 70
     0
  3
_ _ _ _ _ _ _ _ _ _ _ _ _ _ _ _ _ _ _
 72
    65
 73
     2
 40
0.375
 49
0.25
 74
     0
 49
-0.125
 74
     0
  0
LTYPE
  5
B3
330
5
100
AcDbSymbolTableRecord
100
AcDbLinetypeTableRecord
  2
CENTER2
 70
     0
  3
___ _ ___ _ ___ _ ___ _ ___ _ ___ _ _
 72
    65
 73
     4
 40
1.125
 49
0.75
 74
     0
 49
-0.125
 74
     0
 49
0.125
 74
     0
 49
-0.125
 74
     0
  0
ENDTAB
  0
TABLE
  2
LAYER
  5
2
330
0
100
AcDbSymbolTable
 70
     8
  0
LAYER
  5
10
330
2
100
AcDbSymbolTableRecord
100
AcDbLayerTableRecord
  2
0
 70
     0
 62
     7
  6
Continuous
370
    -3
390
F
  0
LAYER
  5
B0
330
2
100
AcDbSymbolTableRecord
100
AcDbLayerTableRecord
  2
寸法
 70
     0
 62
     2
  6
Continuous
370
     5
390
F
  0
LAYER
  5
B2
330
2
100
AcDbSymbolTableRecord
100
AcDbLayerTableRecord
  2
06-ダクト内線
 70
     0
 62
     6
  6
DASHED2
370
     9
390
F
  0
LAYER
  5
B4
330
2
100
AcDbSymbolTableRecord
100
AcDbLayerTableRecord
  2
04-ダクトセンター
 70
     0
 62
     1
  6
CENTER2
370
     5
390
F
  0
LAYER
  5
B5
330
2
100
AcDbSymbolTableRecord
100
AcDbLayerTableRecord
  2
05-ダクト外線
 70
     0
 62
     4
  6
Continuous
370
    13
390
F
  0
LAYER
  5
B6
330
2
100
AcDbSymbolTableRecord
100
AcDbLayerTableRecord
  2
03-文字-2
 70
     0
 62
     7
  6
Continuous
370
     5
390
F
  0
LAYER
  5
B7
330
2
100
AcDbSymbolTableRecord
100
AcDbLayerTableRecord
  2
Defpoints
 70
     0
 62
    98
  6
Continuous
290
     0
370
    -3
390
F
  0
LAYER
  5
B8
330
2
100
AcDbSymbolTableRecord
100
AcDbLayerTableRecord
  2
シンボル
 70
     0
 62
     7
  6
Continuous
370
     5
390
F
  0
ENDTAB
  0
TABLE
  2
STYLE
  5
3
330
0
100
AcDbSymbolTable
 70
     4
  0
STYLE
  5
11
330
3
100
AcDbSymbolTableRecord
100
AcDbTextStyleTableRecord
  2
Standard
 70
     0
 40
0.0
 41
1.0
 50
0.0
 71
     0
 42
0.2
  3
txt
  4
extfont2
  0
STYLE
  5
6E
330
3
100
AcDbSymbolTableRecord
100
AcDbTextStyleTableRecord
  2
MONOSTYLE-H
 70
     0
 40
0.0
 41
1.0
 50
0.0
 71
     0
 42
0.2
  3
monotxt
  4
extfont2
  0
STYLE
  5
6F
330
3
100
AcDbSymbolTableRecord
100
AcDbTextStyleTableRecord
  2
TATEGAKI
 70
     4
 40
0.0
 41
1.0
 50
0.0
 71
     0
 42
0.2
  3
txt
  4
@extfont2
  0
STYLE
  5
70
330
3
100
AcDbSymbolTableRecord
100
AcDbTextStyleTableRecord
  2
MONOSTYLE-V
 70
     4
 40
0.0
 41
1.0
 50
0.0
 71
     0
 42
0.2
  3
monotxt
  4
@extfont2
  0
ENDTAB
  0
TABLE
  2
VIEW
  5
6
330
0
100
AcDbSymbolTable
 70
     0
  0
ENDTAB
  0
TABLE
  2
UCS
  5
7
330
0
100
AcDbSymbolTable
 70
     0
  0
ENDTAB
  0
TABLE
  2
APPID
  5
9
330
0
100
AcDbSymbolTable
 70
     2
  0
APPID
  5
12
330
9
100
AcDbSymbolTableRecord
100
AcDbRegAppTableRecord
  2
ACAD
 70
     0
  0
APPID
  5
513
330
9
100
AcDbSymbolTableRecord
100
AcDbRegAppTableRecord
  2
ACAD_MLEADERVER
 70
     0
  0
ENDTAB
  0
TABLE
  2
DIMSTYLE
  5
A
330
0
100
AcDbSymbolTable
 70
     1
100
AcDbDimStyleTable
  0
DIMSTYLE
105
27
330
A
100
AcDbSymbolTableRecord
100
AcDbDimStyleTableRecord
  2
Standard
 70
     0
178
     0
340
11
  0
ENDTAB
  0
TABLE
  2
BLOCK_RECORD
  5
1
330
0
100
AcDbSymbolTable
 70
    70
  0
BLOCK_RECORD
  5
1F
330
1
100
AcDbSymbolTableRecord
100
AcDbBlockTableRecord
  2
*Model_Space
340
22
  0
BLOCK_RECORD
  5
1B
330
1
100
AcDbSymbolTableRecord
100
AcDbBlockTableRecord
  2
*Paper_Space
340
1E
  0
BLOCK_RECORD
  5
CC
330
1
100
AcDbSymbolTableRecord
100
AcDbBlockTableRecord
  2
INS-D5G59
340
0
102
{BLKREFS
331
CF
102
}
  0
BLOCK_RECORD
  5
D6
330
1
100
AcDbSymbolTableRecord
100
AcDbBlockTableRecord
  2
INS-D6PUB
340
0
102
{BLKREFS
331
D9
102
}
  0
BLOCK_RECORD
  5
E0
330
1
100
AcDbSymbolTableRecord
100
AcDbBlockTableRecord
  2
INS-D6KVG
340
0
102
{BLKREFS
331
E3
102
}
  0
BLOCK_RECORD
  5
F6
330
1
100
AcDbSymbolTableRecord
100
AcDbBlockTableRecord
  2
INS-G83HA
340
0
102
{BLKREFS
331
F9
102
}
  0
BLOCK_RECORD
  5
10C
330
1
100
AcDbSymbolTableRecord
100
AcDbBlockTableRecord
  2
INS-DM41L
340
0
102
{BLKREFS
331
10F
102
}
  0
BLOCK_RECORD
  5
116
330
1
100
AcDbSymbolTableRecord
100
AcDbBlockTableRecord
  2
INS-D45Z7
340
0
102
{BLKREFS
331
119
102
}
  0
BLOCK_RECORD
  5
11E
330
1
100
AcDbSymbolTableRecord
100
AcDbBlockTableRecord
  2
INS-D7D65
340
0
102
{BLKREFS
331
121
102
}
  0
BLOCK_RECORD
  5
141
330
1
100
AcDbSymbolTableRecord
100
AcDbBlockTableRecord
  2
INS-D713U
340
0
102
{BLKREFS
331
144
102
}
  0
BLOCK_RECORD
  5
14B
330
1
100
AcDbSymbolTableRecord
100
AcDbBlockTableRecord
  2
INS-D67XZ
340
0
102
{BLKREFS
331
14E
102
}
  0
BLOCK_RECORD
  5
155
330
1
100
AcDbSymbolTableRecord
100
AcDbBlockTableRecord
  2
INS-D76W5
340
0
102
{BLKREFS
331
158
102
}
  0
BLOCK_RECORD
  5
16B
330
1
100
AcDbSymbolTableRecord
100
AcDbBlockTableRecord
  2
INS-G47QF
340
0
102
{BLKREFS
331
16E
102
}
  0
BLOCK_RECORD
  5
181
330
1
100
AcDbSymbolTableRecord
100
AcDbBlockTableRecord
  2
INS-D5GZW
340
0
102
{BLKREFS
331
184
102
}
  0
BLOCK_RECORD
  5
18B
330
1
100
AcDbSymbolTableRecord
100
AcDbBlockTableRecord
  2
INS-D6PSQ
340
0
102
{BLKREFS
331
18E
102
}
  0
BLOCK_RECORD
  5
193
330
1
100
AcDbSymbolTableRecord
100
AcDbBlockTableRecord
  2
INS-DQJKC
340
0
102
{BLKREFS
331
196
102
}
  0
BLOCK_RECORD
  5
1A7
330
1
100
AcDbSymbolTableRecord
100
AcDbBlockTableRecord
  2
INS-D7N0K
340
0
102
{BLKREFS
331
1AA
102
}
  0
BLOCK_RECORD
  5
1B1
330
1
100
AcDbSymbolTableRecord
100
AcDbBlockTableRecord
  2
INS-DXLYO
340
0
102
{BLKREFS
331
1B4
102
}
  0
BLOCK_RECORD
  5
1BB
330
1
100
AcDbSymbolTableRecord
100
AcDbBlockTableRecord
  2
INS-D8VOX
340
0
102
{BLKREFS
331
1BE
102
}
  0
BLOCK_RECORD
  5
1D1
330
1
100
AcDbSymbolTableRecord
100
AcDbBlockTableRecord
  2
INS-G47QH
340
0
102
{BLKREFS
331
1D4
102
}
  0
BLOCK_RECORD
  5
1E7
330
1
100
AcDbSymbolTableRecord
100
AcDbBlockTableRecord
  2
INS-DHRNJ
340
0
102
{BLKREFS
331
1EA
102
}
  0
BLOCK_RECORD
  5
1F1
330
1
100
AcDbSymbolTableRecord
100
AcDbBlockTableRecord
  2
INS-DC1GQ
340
0
102
{BLKREFS
331
1F4
102
}
  0
BLOCK_RECORD
  5
1F9
330
1
100
AcDbSymbolTableRecord
100
AcDbBlockTableRecord
  2
INS-D7R8S
340
0
102
{BLKREFS
331
1FC
102
}
  0
BLOCK_RECORD
  5
20D
330
1
100
AcDbSymbolTableRecord
100
AcDbBlockTableRecord
  2
INS-D88PR
340
0
102
{BLKREFS
331
210
102
}
  0
BLOCK_RECORD
  5
217
330
1
100
AcDbSymbolTableRecord
100
AcDbBlockTableRecord
  2
INS-D530E
340
0
102
{BLKREFS
331
21A
102
}
  0
BLOCK_RECORD
  5
221
330
1
100
AcDbSymbolTableRecord
100
AcDbBlockTableRecord
  2
INS-DXCRW
340
0
102
{BLKREFS
331
224
102
}
  0
BLOCK_RECORD
  5
237
330
1
100
AcDbSymbolTableRecord
100
AcDbBlockTableRecord
  2
INS-G956X
340
0
102
{BLKREFS
331
23A
102
}
  0
BLOCK_RECORD
  5
24D
330
1
100
AcDbSymbolTableRecord
100
AcDbBlockTableRecord
  2
INS-D8FZP
340
0
102
{BLKREFS
331
250
102
}
  0
BLOCK_RECORD
  5
257
330
1
100
AcDbSymbolTableRecord
100
AcDbBlockTableRecord
  2
INS-D970K
340
0
102
{BLKREFS
331
25A
102
}
  0
BLOCK_RECORD
  5
25F
330
1
100
AcDbSymbolTableRecord
100
AcDbBlockTableRecord
  2
INS-DCYLF
340
0
102
{BLKREFS
331
262
102
}
  0
BLOCK_RECORD
  5
273
330
1
100
AcDbSymbolTableRecord
100
AcDbBlockTableRecord
  2
INS-D5RKR
340
0
102
{BLKREFS
331
276
102
}
  0
BLOCK_RECORD
  5
27D
330
1
100
AcDbSymbolTableRecord
100
AcDbBlockTableRecord
  2
INS-D61U9
340
0
102
{BLKREFS
331
280
102
}
  0
BLOCK_RECORD
  5
287
330
1
100
AcDbSymbolTableRecord
100
AcDbBlockTableRecord
  2
INS-D8DUV
340
0
102
{BLKREFS
331
28A
102
}
  0
BLOCK_RECORD
  5
29D
330
1
100
AcDbSymbolTableRecord
100
AcDbBlockTableRecord
  2
INS-G3TA2
340
0
102
{BLKREFS
331
2A0
102
}
  0
BLOCK_RECORD
  5
2B3
330
1
100
AcDbSymbolTableRecord
100
AcDbBlockTableRecord
  2
INS-D43D4
340
0
102
{BLKREFS
331
2B6
102
}
  0
BLOCK_RECORD
  5
2BD
330
1
100
AcDbSymbolTableRecord
100
AcDbBlockTableRecord
  2
INS-DCS30
340
0
102
{BLKREFS
331
2C0
102
}
  0
BLOCK_RECORD
  5
2C5
330
1
100
AcDbSymbolTableRecord
100
AcDbBlockTableRecord
  2
INS-DKRZA
340
0
102
{BLKREFS
331
2C8
102
}
  0
BLOCK_RECORD
  5
2D9
330
1
100
AcDbSymbolTableRecord
100
AcDbBlockTableRecord
  2
INS-DVU33
340
0
102
{BLKREFS
331
2DC
102
}
  0
BLOCK_RECORD
  5
2E3
330
1
100
AcDbSymbolTableRecord
100
AcDbBlockTableRecord
  2
INS-D4ROY
340
0
102
{BLKREFS
331
2E6
102
}
  0
BLOCK_RECORD
  5
2ED
330
1
100
AcDbSymbolTableRecord
100
AcDbBlockTableRecord
  2
INS-DHOSL
340
0
102
{BLKREFS
331
2F0
102
}
  0
BLOCK_RECORD
  5
303
330
1
100
AcDbSymbolTableRecord
100
AcDbBlockTableRecord
  2
INS-GXC2Y
340
0
102
{BLKREFS
331
306
102
}
  0
BLOCK_RECORD
  5
319
330
1
100
AcDbSymbolTableRecord
100
AcDbBlockTableRecord
  2
INS-D3Q5A
340
0
102
{BLKREFS
331
31C
102
}
  0
BLOCK_RECORD
  5
323
330
1
100
AcDbSymbolTableRecord
100
AcDbBlockTableRecord
  2
INS-D5745
340
0
102
{BLKREFS
331
326
102
}
  0
BLOCK_RECORD
  5
32B
330
1
100
AcDbSymbolTableRecord
100
AcDbBlockTableRecord
  2
INS-D73KK
340
0
102
{BLKREFS
331
32E
102
}
  0
BLOCK_RECORD
  5
33F
330
1
100
AcDbSymbolTableRecord
100
AcDbBlockTableRecord
  2
INS-DWBA8
340
0
102
{BLKREFS
331
342
102
}
  0
BLOCK_RECORD
  5
349
330
1
100
AcDbSymbolTableRecord
100
AcDbBlockTableRecord
  2
INS-DDIEZ
340
0
102
{BLKREFS
331
34C
102
}
  0
BLOCK_RECORD
  5
353
330
1
100
AcDbSymbolTableRecord
100
AcDbBlockTableRecord
  2
INS-DOD2E
340
0
102
{BLKREFS
331
356
102
}
  0
BLOCK_RECORD
  5
369
330
1
100
AcDbSymbolTableRecord
100
AcDbBlockTableRecord
  2
INS-G553P
340
0
102
{BLKREFS
331
36C
102
}
  0
BLOCK_RECORD
  5
37F
330
1
100
AcDbSymbolTableRecord
100
AcDbBlockTableRecord
  2
INS-D7KY4
340
0
102
{BLKREFS
331
382
102
}
  0
BLOCK_RECORD
  5
389
330
1
100
AcDbSymbolTableRecord
100
AcDbBlockTableRecord
  2
INS-D4E7W
340
0
102
{BLKREFS
331
38C
102
}
  0
BLOCK_RECORD
  5
391
330
1
100
AcDbSymbolTableRecord
100
AcDbBlockTableRecord
  2
INS-DLCF3
340
0
102
{BLKREFS
331
394
102
}
  0
BLOCK_RECORD
  5
3A5
330
1
100
AcDbSymbolTableRecord
100
AcDbBlockTableRecord
  2
INS-D43IU
340
0
102
{BLKREFS
331
3A8
102
}
  0
BLOCK_RECORD
  5
3AF
330
1
100
AcDbSymbolTableRecord
100
AcDbBlockTableRecord
  2
INS-DROZ5
340
0
102
{BLKREFS
331
3B2
102
}
  0
BLOCK_RECORD
  5
3B9
330
1
100
AcDbSymbolTableRecord
100
AcDbBlockTableRecord
  2
INS-D78A4
340
0
102
{BLKREFS
331
3BC
102
}
  0
BLOCK_RECORD
  5
3CF
330
1
100
AcDbSymbolTableRecord
100
AcDbBlockTableRecord
  2
INS-GJXR8
340
0
102
{BLKREFS
331
3D2
102
}
  0
BLOCK_RECORD
  5
3D7
330
1
100
AcDbSymbolTableRecord
100
AcDbBlockTableRecord
  2
INS-DUSWA
340
0
102
{BLKREFS
331
3DA
102
}
  0
BLOCK_RECORD
  5
3E1
330
1
100
AcDbSymbolTableRecord
100
AcDbBlockTableRecord
  2
INS-D4DI9
340
0
102
{BLKREFS
331
3E4
102
}
  0
BLOCK_RECORD
  5
3E9
330
1
100
AcDbSymbolTableRecord
100
AcDbBlockTableRecord
  2
INS-D7IBB
340
0
102
{BLKREFS
331
3EC
102
}
  0
BLOCK_RECORD
  5
40D
330
1
100
AcDbSymbolTableRecord
100
AcDbBlockTableRecord
  2
INS-D3TO9
340
0
102
{BLKREFS
331
410
102
}
  0
BLOCK_RECORD
  5
417
330
1
100
AcDbSymbolTableRecord
100
AcDbBlockTableRecord
  2
INS-D6W3S
340
0
102
{BLKREFS
331
41A
102
}
  0
BLOCK_RECORD
  5
421
330
1
100
AcDbSymbolTableRecord
100
AcDbBlockTableRecord
  2
INS-D57KE
340
0
102
{BLKREFS
331
424
102
}
  0
BLOCK_RECORD
  5
437
330
1
100
AcDbSymbolTableRecord
100
AcDbBlockTableRecord
  2
INS-G50OH
340
0
102
{BLKREFS
331
43A
102
}
  0
BLOCK_RECORD
  5
43F
330
1
100
AcDbSymbolTableRecord
100
AcDbBlockTableRecord
  2
INS-D80J8
340
0
102
{BLKREFS
331
442
102
}
  0
BLOCK_RECORD
  5
449
330
1
100
AcDbSymbolTableRecord
100
AcDbBlockTableRecord
  2
INS-D6GJN
340
0
102
{BLKREFS
331
44C
102
}
  0
BLOCK_RECORD
  5
451
330
1
100
AcDbSymbolTableRecord
100
AcDbBlockTableRecord
  2
INS-DP6ND
340
0
102
{BLKREFS
331
454
102
}
  0
BLOCK_RECORD
  5
473
330
1
100
AcDbSymbolTableRecord
100
AcDbBlockTableRecord
  2
INS-D55W7
340
0
102
{BLKREFS
331
476
102
}
  0
BLOCK_RECORD
  5
47D
330
1
100
AcDbSymbolTableRecord
100
AcDbBlockTableRecord
  2
INS-DQNSV
340
0
102
{BLKREFS
331
480
102
}
  0
BLOCK_RECORD
  5
487
330
1
100
AcDbSymbolTableRecord
100
AcDbBlockTableRecord
  2
INS-D3OLQ
340
0
102
{BLKREFS
331
48A
102
}
  0
BLOCK_RECORD
  5
49D
330
1
100
AcDbSymbolTableRecord
100
AcDbBlockTableRecord
  2
INS-G4ZE4
340
0
102
{BLKREFS
331
4A0
102
}
  0
BLOCK_RECORD
  5
4A5
330
1
100
AcDbSymbolTableRecord
100
AcDbBlockTableRecord
  2
INS-DFV3Y
340
0
102
{BLKREFS
331
4A8
102
}
  0
BLOCK_RECORD
  5
4AF
330
1
100
AcDbSymbolTableRecord
100
AcDbBlockTableRecord
  2
INS-D3MEX
340
0
102
{BLKREFS
331
4B2
102
}
  0
BLOCK_RECORD
  5
4B7
330
1
100
AcDbSymbolTableRecord
100
AcDbBlockTableRecord
  2
INS-DJLHW
340
0
102
{BLKREFS
331
4BA
102
}
  0
ENDTAB
  0
ENDSEC
  0
SECTION
  2
BLOCKS
  0
BLOCK
  5
20
330
1F
100
AcDbEntity
  8
0
100
AcDbBlockBegin
  2
*Model_Space
 70
     0
 10
0.0
 20
0.0
 30
0.0
  3
*Model_Space
  1

  0
ENDBLK
  5
21
330
1F
100
AcDbEntity
  8
0
100
AcDbBlockEnd
  0
BLOCK
  5
1C
330
1B
100
AcDbEntity
 67
     1
  8
0
100
AcDbBlockBegin
  2
*Paper_Space
 70
     0
 10
0.0
 20
0.0
 30
0.0
  3
*Paper_Space
  1

  0
ENDBLK
  5
1D
330
1B
100
AcDbEntity
 67
     1
  8
0
100
AcDbBlockEnd
  0
BLOCK
  5
CD
330
CC
100
AcDbEntity
  8
0
100
AcDbBlockBegin
  2
INS-D5G59
 70
     0
 10
0.0
 20
0.0
 30
0.0
  3
INS-D5G59
  1

  0
TEXT
  5
D0
330
CC
100
AcDbEntity
  8
寸法
  6
Continuous
100
AcDbText
 10
-23.4017165153491
 20
-59.70000000000363
 30
0.0
 40
19.982
  1
内径φ116
 50
90.0
 41
1.025966251272801
 72
     1
 11
-23.4017165153491
 21
-0.000000000003638
 31
0.0
100
AcDbText
  0
LINE
  5
D1
330
CC
100
AcDbEntity
  8
寸法
  6
Continuous
100
AcDbLine
 10
45.00201850356825
 20
-58.00000000000364
 30
0.0
 11
-13.40171651534911
 21
-58.00000000000364
 31
0.0
  0
LINE
  5
D2
330
CC
100
AcDbEntity
  8
寸法
  6
Continuous
100
AcDbLine
 10
45.00201850356825
 20
57.99999999999636
 30
0.0
 11
-13.40171651534911
 21
57.99999999999636
 31
0.0
  0
LINE
  5
D3
330
CC
100
AcDbEntity
  8
寸法
  6
Continuous
100
AcDbLine
 10
-13.40171651534911
 20
57.99999999999636
 30
0.0
 11
-13.40171651534911
 21
-58.00000000000364
 31
0.0
  0
LWPOLYLINE
  5
D4
330
CC
100
AcDbEntity
  8
寸法
  6
Continuous
100
AcDbPolyline
 90
        3
 70
     0
 43
0.0
 10
-15.98990696637338
 20
48.34074173710542
 10
-13.40171651534911
 20
57.99999999999636
 10
-10.81352606432483
 20
48.34074173710542
  0
LWPOLYLINE
  5
D5
330
CC
100
AcDbEntity
  8
寸法
  6
Continuous
100
AcDbPolyline
 90
        3
 70
     0
 43
0.0
 10
-10.81352606432483
 20
-48.34074173711269
 10
-13.40171651534911
 20
-58.00000000000364
 10
-15.98990696637338
 20
-48.34074173711269
  0
ENDBLK
  5
CE
330
CC
100
AcDbEntity
  8
0
100
AcDbBlockEnd
  0
BLOCK
  5
D7
330
D6
100
AcDbEntity
  8
0
100
AcDbBlockBegin
  2
INS-D6PUB
 70
     0
 10
0.0
 20
0.0
 30
0.0
  3
INS-D6PUB
  1

  0
TEXT
  5
DA
330
D6
100
AcDbEntity
  8
寸法
  6
Continuous
100
AcDbText
 10
23.02206164231756
 20
-60.14000000000422
 30
0.0
 40
19.982
  1
外径φ98
 50
90.0
 41
1.031984686839273
 72
     1
 11
23.02206164231756
 21
-3.86000000000422
 31
0.0
100
AcDbText
  0
LINE
  5
DB
330
D6
100
AcDbEntity
  8
寸法
  6
Continuous
100
AcDbLine
 10
-36.3099814964371
 20
-37.86000000000422
 30
0.0
 11
32.72206164231466
 21
-37.86000000000422
 31
0.0
  0
LINE
  5
DC
330
D6
100
AcDbEntity
  8
寸法
  6
Continuous
100
AcDbLine
 10
-36.3099814964371
 20
60.13999999999578
 30
0.0
 11
32.72206164231466
 21
60.13999999999578
 31
0.0
  0
LINE
  5
DD
330
D6
100
AcDbEntity
  8
寸法
  6
Continuous
100
AcDbLine
 10
32.72206164231466
 20
60.13999999999578
 30
0.0
 11
32.72206164231466
 21
-37.86000000000422
 31
0.0
  0
LWPOLYLINE
  5
DE
330
D6
100
AcDbEntity
  8
寸法
  6
Continuous
100
AcDbPolyline
 90
        3
 70
     0
 43
0.0
 10
30.13387119129038
 20
50.48074173710484
 10
32.72206164231466
 20
60.13999999999578
 10
35.31025209333893
 20
50.48074173710484
  0
LWPOLYLINE
  5
DF
330
D6
100
AcDbEntity
  8
寸法
  6
Continuous
100
AcDbPolyline
 90
        3
 70
     0
 43
0.0
 10
35.31025209333893
 20
-28.20074173711328
 10
32.72206164231466
 20
-37.86000000000422
 10
30.13387119129038
 20
-28.20074173711328
  0
ENDBLK
  5
D8
330
D6
100
AcDbEntity
  8
0
100
AcDbBlockEnd
  0
BLOCK
  5
E1
330
E0
100
AcDbEntity
  8
0
100
AcDbBlockBegin
  2
INS-D6KVG
 70
     0
 10
0.0
 20
0.0
 30
0.0
  3
INS-D6KVG
  1

  0
TEXT
  5
E4
330
E0
100
AcDbEntity
  8
寸法
  6
Continuous
100
AcDbText
 10
-23.69998149643216
 20
-80.09443858889063
 30
0.0
 40
19.982
  1
115
 41
1.056781492035411
 72
     1
 11
0.0000185035678442
 21
-80.09443858889063
 31
0.0
100
AcDbText
  0
LINE
  5
E5
330
E0
100
AcDbEntity
  8
寸法
  6
Continuous
100
AcDbLine
 10
57.50001850356784
 20
93.39749999999549
 30
0.0
 11
57.50001850356784
 21
-89.80832747778186
 31
0.0
  0
LINE
  5
E6
330
E0
100
AcDbEntity
  8
寸法
  6
Continuous
100
AcDbLine
 10
-57.49998149643216
 20
83.59749999999622
 30
0.0
 11
-57.49998149643216
 21
-89.80832747778186
 31
0.0
  0
LINE
  5
E7
330
E0
100
AcDbEntity
  8
寸法
  6
Continuous
100
AcDbLine
 10
-57.49998149643216
 20
-89.80832747778186
 30
0.0
 11
57.50001850356784
 21
-89.80832747778186
 31
0.0
  0
LWPOLYLINE
  5
E8
330
E0
100
AcDbEntity
  8
寸法
  6
Continuous
100
AcDbPolyline
 90
        3
 70
     0
 43
0.0
 10
-47.84072323354485
 20
-92.39651792880613
 10
-57.49998149643216
 20
-89.80832747778186
 10
-47.84072323354485
 20
-87.22013702675758
  0
LWPOLYLINE
  5
E9
330
E0
100
AcDbEntity
  8
寸法
  6
Continuous
100
AcDbPolyline
 90
        3
 70
     0
 43
0.0
 10
47.84076024068054
 20
-87.22013702675758
 10
57.50001850356784
 20
-89.80832747778186
 10
47.84076024068054
 20
-92.39651792880613
  0
ENDBLK
  5
E2
330
E0
100
AcDbEntity
  8
0
100
AcDbBlockEnd
  0
BLOCK
  5
F7
330
F6
100
AcDbEntity
  8
0
100
AcDbBlockBegin
  2
INS-G83HA
 70
     0
 10
0.0
 20
0.0
 30
0.0
  3
INS-G83HA
  1

  0
TEXT
  5
FA
330
F6
100
AcDbEntity
  8
03-文字-2
100
AcDbText
 10
-42.49955734812102
 20
3.863235289813893
 30
0.0
 40
24.9775
  1
ＶＰ管
 41
0.998071409144555
 11
-42.49955734812102
 21
28.84073528981389
 31
0.0
100
AcDbText
 73
     3
  0
TEXT
  5
FB
330
F6
100
AcDbEntity
  8
03-文字-2
100
AcDbText
 10
-42.49955734812102
 20
-28.0667647101864
 30
0.0
 40
24.9775
  1
ＶＵ管
 41
0.998071409144555
 11
-42.49955734812102
 21
-3.089264710186399
 31
0.0
100
AcDbText
 73
     3
  0
ENDBLK
  5
F8
330
F6
100
AcDbEntity
  8
0
100
AcDbBlockEnd
  0
BLOCK
  5
10D
330
10C
100
AcDbEntity
  8
0
100
AcDbBlockBegin
  2
INS-DM41L
 70
     0
 10
0.0
 20
0.0
 30
0.0
  3
INS-DM41L
  1

  0
TEXT
  5
110
330
10C
100
AcDbEntity
  8
寸法
  6
Continuous
100
AcDbText
 10
-18.53998149643215
 20
-31.99161111111243
 30
0.0
 40
19.982
  1
50
 41
1.089505144794249
 72
     1
 11
0.0000185035678442
 21
-31.99161111111243
 31
0.0
100
AcDbText
  0
LINE
  5
111
330
10C
100
AcDbEntity
  8
寸法
  6
Continuous
100
AcDbLine
 10
25.00001850356784
 20
45.29449999999633
 30
0.0
 11
25.00001850356784
 21
-41.70550000000367
 31
0.0
  0
LINE
  5
112
330
10C
100
AcDbEntity
  8
寸法
  6
Continuous
100
AcDbLine
 10
-24.99998149643216
 20
45.29449999999633
 30
0.0
 11
-24.99998149643216
 21
-41.70550000000367
 31
0.0
  0
LINE
  5
113
330
10C
100
AcDbEntity
  8
寸法
  6
Continuous
100
AcDbLine
 10
-24.99998149643216
 20
-41.70550000000367
 30
0.0
 11
25.00001850356784
 21
-41.70550000000367
 31
0.0
  0
LWPOLYLINE
  5
114
330
10C
100
AcDbEntity
  8
寸法
  6
Continuous
100
AcDbPolyline
 90
        3
 70
     0
 43
0.0
 10
-15.34072323354485
 20
-44.29369045102794
 10
-24.99998149643216
 20
-41.70550000000367
 10
-15.34072323354485
 20
-39.11730954897939
  0
LWPOLYLINE
  5
115
330
10C
100
AcDbEntity
  8
寸法
  6
Continuous
100
AcDbPolyline
 90
        3
 70
     0
 43
0.0
 10
15.34076024068054
 20
-39.11730954897939
 10
25.00001850356784
 20
-41.70550000000367
 10
15.34076024068054
 20
-44.29369045102794
  0
ENDBLK
  5
10E
330
10C
100
AcDbEntity
  8
0
100
AcDbBlockEnd
  0
BLOCK
  5
117
330
116
100
AcDbEntity
  8
0
100
AcDbBlockBegin
  2
INS-D45Z7
 70
     0
 10
0.0
 20
0.0
 30
0.0
  3
INS-D45Z7
  1

  0
TEXT
  5
11A
330
116
100
AcDbEntity
  8
寸法
  6
Continuous
100
AcDbText
 10
-15.17998149643215
 20
-63.25000000000364
 30
0.0
 40
19.982
  1
10
 41
1.089505144794249
 72
     1
 11
0.0000185035678442
 21
-63.25000000000364
 31
0.0
100
AcDbText
  0
LINE
  5
11B
330
116
100
AcDbEntity
  8
寸法
  6
Continuous
100
AcDbLine
 10
5.000018503567844
 20
64.24999999999636
 30
0.0
 11
5.000018503567844
 21
-32.55000000000291
 31
0.0
  0
LINE
  5
11C
330
116
100
AcDbEntity
  8
寸法
  6
Continuous
100
AcDbLine
 10
-4.999981496432156
 20
54.44999999999709
 30
0.0
 11
-4.999981496432156
 21
-32.55000000000291
 31
0.0
  0
LINE
  5
11D
330
116
100
AcDbEntity
  8
寸法
  6
Continuous
100
AcDbLine
 10
-4.999981496432156
 20
-32.55000000000291
 30
0.0
 11
5.000018503567844
 21
-32.55000000000291
 31
0.0
  0
ENDBLK
  5
118
330
116
100
AcDbEntity
  8
0
100
AcDbBlockEnd
  0
BLOCK
  5
11F
330
11E
100
AcDbEntity
  8
0
100
AcDbBlockBegin
  2
INS-D7D65
 70
     0
 10
0.0
 20
0.0
 30
0.0
  3
INS-D7D65
  1

  0
TEXT
  5
122
330
11E
100
AcDbEntity
  8
寸法
  6
Continuous
100
AcDbText
 10
-20.27998149643216
 20
-36.87772222222702
 30
0.0
 40
19.982
  1
55
 41
1.089505144794249
 72
     1
 11
0.0000185035678442
 21
-36.87772222222702
 31
0.0
100
AcDbText
  0
LINE
  5
123
330
11E
100
AcDbEntity
  8
寸法
  6
Continuous
100
AcDbLine
 10
27.50001850356784
 20
50.19449999999415
 30
0.0
 11
27.50001850356784
 21
-46.60550000000512
 31
0.0
  0
LINE
  5
124
330
11E
100
AcDbEntity
  8
寸法
  6
Continuous
100
AcDbLine
 10
-27.49998149643216
 20
50.19449999999415
 30
0.0
 11
-27.49998149643216
 21
-46.60550000000512
 31
0.0
  0
LINE
  5
125
330
11E
100
AcDbEntity
  8
寸法
  6
Continuous
100
AcDbLine
 10
-27.49998149643216
 20
-46.60550000000512
 30
0.0
 11
27.50001850356784
 21
-46.60550000000512
 31
0.0
  0
LWPOLYLINE
  5
126
330
11E
100
AcDbEntity
  8
寸法
  6
Continuous
100
AcDbPolyline
 90
        3
 70
     0
 43
0.0
 10
-17.84072323354485
 20
-49.1936904510294
 10
-27.49998149643216
 20
-46.60550000000512
 10
-17.84072323354485
 20
-44.01730954898085
  0
LWPOLYLINE
  5
127
330
11E
100
AcDbEntity
  8
寸法
  6
Continuous
100
AcDbPolyline
 90
        3
 70
     0
 43
0.0
 10
17.84076024068054
 20
-44.01730954898085
 10
27.50001850356784
 20
-46.60550000000512
 10
17.84076024068054
 20
-49.1936904510294
  0
ENDBLK
  5
120
330
11E
100
AcDbEntity
  8
0
100
AcDbBlockEnd
  0
BLOCK
  5
142
330
141
100
AcDbEntity
  8
0
100
AcDbBlockBegin
  2
INS-D713U
 70
     0
 10
0.0
 20
0.0
 30
0.0
  3
INS-D713U
  1

  0
TEXT
  5
145
330
141
100
AcDbEntity
  8
寸法
  6
Continuous
100
AcDbText
 10
-23.4017165153491
 20
-59.70000000000363
 30
0.0
 40
19.982
  1
内径φ141
 50
90.0
 41
1.025966251272801
 72
     1
 11
-23.4017165153491
 21
-0.000000000003638
 31
0.0
100
AcDbText
  0
LINE
  5
146
330
141
100
AcDbEntity
  8
寸法
  6
Continuous
100
AcDbLine
 10
45.00201850356825
 20
-70.50000000000364
 30
0.0
 11
-13.40171651534911
 21
-70.50000000000364
 31
0.0
  0
LINE
  5
147
330
141
100
AcDbEntity
  8
寸法
  6
Continuous
100
AcDbLine
 10
45.00201850356825
 20
70.49999999999636
 30
0.0
 11
-13.40171651534911
 21
70.49999999999636
 31
0.0
  0
LINE
  5
148
330
141
100
AcDbEntity
  8
寸法
  6
Continuous
100
AcDbLine
 10
-13.40171651534911
 20
70.49999999999636
 30
0.0
 11
-13.40171651534911
 21
-70.50000000000364
 31
0.0
  0
LWPOLYLINE
  5
149
330
141
100
AcDbEntity
  8
寸法
  6
Continuous
100
AcDbPolyline
 90
        3
 70
     0
 43
0.0
 10
-15.98990696637338
 20
60.84074173710542
 10
-13.40171651534911
 20
70.49999999999636
 10
-10.81352606432483
 20
60.84074173710542
  0
LWPOLYLINE
  5
14A
330
141
100
AcDbEntity
  8
寸法
  6
Continuous
100
AcDbPolyline
 90
        3
 70
     0
 43
0.0
 10
-10.81352606432483
 20
-60.84074173711269
 10
-13.40171651534911
 20
-70.50000000000364
 10
-15.98990696637338
 20
-60.84074173711269
  0
ENDBLK
  5
143
330
141
100
AcDbEntity
  8
0
100
AcDbBlockEnd
  0
BLOCK
  5
14C
330
14B
100
AcDbEntity
  8
0
100
AcDbBlockBegin
  2
INS-D67XZ
 70
     0
 10
0.0
 20
0.0
 30
0.0
  3
INS-D67XZ
  1

  0
TEXT
  5
14F
330
14B
100
AcDbEntity
  8
寸法
  6
Continuous
100
AcDbText
 10
23.02206164231756
 20
-75.79000000000568
 30
0.0
 40
19.982
  1
外径φ99.6
 50
90.0
 41
1.021710168727257
 72
     1
 11
23.02206164231756
 21
-6.010000000005675
 31
0.0
100
AcDbText
  0
LINE
  5
150
330
14B
100
AcDbEntity
  8
寸法
  6
Continuous
100
AcDbLine
 10
-36.3099814964371
 20
-23.81000000000495
 30
0.0
 11
32.72206164231466
 21
-23.81000000000495
 31
0.0
  0
LINE
  5
151
330
14B
100
AcDbEntity
  8
寸法
  6
Continuous
100
AcDbLine
 10
-36.3099814964371
 20
75.7899999999936
 30
0.0
 11
32.72206164231466
 21
75.7899999999936
 31
0.0
  0
LINE
  5
152
330
14B
100
AcDbEntity
  8
寸法
  6
Continuous
100
AcDbLine
 10
32.72206164231466
 20
75.7899999999936
 30
0.0
 11
32.72206164231466
 21
-23.81000000000495
 31
0.0
  0
LWPOLYLINE
  5
153
330
14B
100
AcDbEntity
  8
寸法
  6
Continuous
100
AcDbPolyline
 90
        3
 70
     0
 43
0.0
 10
30.13387119129038
 20
66.13074173710265
 10
32.72206164231466
 20
75.7899999999936
 10
35.31025209333893
 20
66.13074173710265
  0
LWPOLYLINE
  5
154
330
14B
100
AcDbEntity
  8
寸法
  6
Continuous
100
AcDbPolyline
 90
        3
 70
     0
 43
0.0
 10
35.31025209333893
 20
-14.150741737114
 10
32.72206164231466
 20
-23.81000000000495
 10
30.13387119129038
 20
-14.150741737114
  0
ENDBLK
  5
14D
330
14B
100
AcDbEntity
  8
0
100
AcDbBlockEnd
  0
BLOCK
  5
156
330
155
100
AcDbEntity
  8
0
100
AcDbBlockBegin
  2
INS-D76W5
 70
     0
 10
0.0
 20
0.0
 30
0.0
  3
INS-D76W5
  1

  0
TEXT
  5
159
330
155
100
AcDbEntity
  8
寸法
  6
Continuous
100
AcDbText
 10
-27.05998149643216
 20
-79.69443858888917
 30
0.0
 40
19.982
  1
135
 41
1.056781492035411
 72
     1
 11
0.0000185035678442
 21
-79.69443858888917
 31
0.0
100
AcDbText
  0
LINE
  5
15A
330
155
100
AcDbEntity
  8
寸法
  6
Continuous
100
AcDbLine
 10
67.50001850356784
 20
92.99749999999767
 30
0.0
 11
67.50001850356784
 21
-89.4083274777804
 31
0.0
  0
LINE
  5
15B
330
155
100
AcDbEntity
  8
寸法
  6
Continuous
100
AcDbLine
 10
-67.49998149643216
 20
71.49749999999767
 30
0.0
 11
-67.49998149643216
 21
-89.4083274777804
 31
0.0
  0
LINE
  5
15C
330
155
100
AcDbEntity
  8
寸法
  6
Continuous
100
AcDbLine
 10
-67.49998149643216
 20
-89.4083274777804
 30
0.0
 11
67.50001850356784
 21
-89.4083274777804
 31
0.0
  0
LWPOLYLINE
  5
15D
330
155
100
AcDbEntity
  8
寸法
  6
Continuous
100
AcDbPolyline
 90
        3
 70
     0
 43
0.0
 10
-57.84072323354485
 20
-91.99651792880468
 10
-67.49998149643216
 20
-89.4083274777804
 10
-57.84072323354485
 20
-86.82013702675613
  0
LWPOLYLINE
  5
15E
330
155
100
AcDbEntity
  8
寸法
  6
Continuous
100
AcDbPolyline
 90
        3
 70
     0
 43
0.0
 10
57.84076024068054
 20
-86.82013702675613
 10
67.50001850356784
 20
-89.4083274777804
 10
57.84076024068054
 20
-91.99651792880468
  0
ENDBLK
  5
157
330
155
100
AcDbEntity
  8
0
100
AcDbBlockEnd
  0
BLOCK
  5
16C
330
16B
100
AcDbEntity
  8
0
100
AcDbBlockBegin
  2
INS-G47QF
 70
     0
 10
0.0
 20
0.0
 30
0.0
  3
INS-G47QF
  1

  0
TEXT
  5
16F
330
16B
100
AcDbEntity
  8
03-文字-2
100
AcDbText
 10
-42.49955734812102
 20
3.863235289813893
 30
0.0
 40
24.9775
  1
ＶＰ管
 41
0.998071409144555
 11
-42.49955734812102
 21
28.84073528981389
 31
0.0
100
AcDbText
 73
     3
  0
TEXT
  5
170
330
16B
100
AcDbEntity
  8
03-文字-2
100
AcDbText
 10
-42.49955734812102
 20
-28.0667647101864
 30
0.0
 40
24.9775
  1
ＶＵ管
 41
0.998071409144555
 11
-42.49955734812102
 21
-3.089264710186399
 31
0.0
100
AcDbText
 73
     3
  0
ENDBLK
  5
16D
330
16B
100
AcDbEntity
  8
0
100
AcDbBlockEnd
  0
BLOCK
  5
182
330
181
100
AcDbEntity
  8
0
100
AcDbBlockBegin
  2
INS-D5GZW
 70
     0
 10
0.0
 20
0.0
 30
0.0
  3
INS-D5GZW
  1

  0
TEXT
  5
185
330
181
100
AcDbEntity
  8
寸法
  6
Continuous
100
AcDbText
 10
-18.53998149643215
 20
-25.74161111111243
 30
0.0
 40
19.982
  1
50
 41
1.089505144794249
 72
     1
 11
0.0000185035678442
 21
-25.74161111111243
 31
0.0
100
AcDbText
  0
LINE
  5
186
330
181
100
AcDbEntity
  8
寸法
  6
Continuous
100
AcDbLine
 10
25.00001850356784
 20
39.04449999999633
 30
0.0
 11
25.00001850356784
 21
-35.45550000000367
 31
0.0
  0
LINE
  5
187
330
181
100
AcDbEntity
  8
寸法
  6
Continuous
100
AcDbLine
 10
-24.99998149643216
 20
39.04449999999633
 30
0.0
 11
-24.99998149643216
 21
-35.45550000000367
 31
0.0
  0
LINE
  5
188
330
181
100
AcDbEntity
  8
寸法
  6
Continuous
100
AcDbLine
 10
-24.99998149643216
 20
-35.45550000000367
 30
0.0
 11
25.00001850356784
 21
-35.45550000000367
 31
0.0
  0
LWPOLYLINE
  5
189
330
181
100
AcDbEntity
  8
寸法
  6
Continuous
100
AcDbPolyline
 90
        3
 70
     0
 43
0.0
 10
-15.34072323354485
 20
-38.04369045102794
 10
-24.99998149643216
 20
-35.45550000000367
 10
-15.34072323354485
 20
-32.86730954897939
  0
LWPOLYLINE
  5
18A
330
181
100
AcDbEntity
  8
寸法
  6
Continuous
100
AcDbPolyline
 90
        3
 70
     0
 43
0.0
 10
15.34076024068054
 20
-32.86730954897939
 10
25.00001850356784
 20
-35.45550000000367
 10
15.34076024068054
 20
-38.04369045102794
  0
ENDBLK
  5
183
330
181
100
AcDbEntity
  8
0
100
AcDbBlockEnd
  0
BLOCK
  5
18C
330
18B
100
AcDbEntity
  8
0
100
AcDbBlockBegin
  2
INS-D6PSQ
 70
     0
 10
0.0
 20
0.0
 30
0.0
  3
INS-D6PSQ
  1

  0
TEXT
  5
18F
330
18B
100
AcDbEntity
  8
寸法
  6
Continuous
100
AcDbText
 10
-15.17998149643215
 20
-62.85000000000218
 30
0.0
 40
19.982
  1
10
 41
1.089505144794249
 72
     1
 11
0.0000185035678442
 21
-62.85000000000218
 31
0.0
100
AcDbText
  0
LINE
  5
190
330
18B
100
AcDbEntity
  8
寸法
  6
Continuous
100
AcDbLine
 10
5.000018503567844
 20
63.84999999999854
 30
0.0
 11
5.000018503567844
 21
-32.15000000000146
 31
0.0
  0
LINE
  5
191
330
18B
100
AcDbEntity
  8
寸法
  6
Continuous
100
AcDbLine
 10
-4.999981496432156
 20
42.34999999999854
 30
0.0
 11
-4.999981496432156
 21
-32.15000000000146
 31
0.0
  0
LINE
  5
192
330
18B
100
AcDbEntity
  8
寸法
  6
Continuous
100
AcDbLine
 10
-4.999981496432156
 20
-32.15000000000146
 30
0.0
 11
5.000018503567844
 21
-32.15000000000146
 31
0.0
  0
ENDBLK
  5
18D
330
18B
100
AcDbEntity
  8
0
100
AcDbBlockEnd
  0
BLOCK
  5
194
330
193
100
AcDbEntity
  8
0
100
AcDbBlockBegin
  2
INS-DQJKC
 70
     0
 10
0.0
 20
0.0
 30
0.0
  3
INS-DQJKC
  1

  0
TEXT
  5
197
330
193
100
AcDbEntity
  8
寸法
  6
Continuous
100
AcDbText
 10
-20.27998149643216
 20
-36.49161111111243
 30
0.0
 40
19.982
  1
75
 41
1.089505144794249
 72
     1
 11
0.0000185035678442
 21
-36.49161111111243
 31
0.0
100
AcDbText
  0
LINE
  5
198
330
193
100
AcDbEntity
  8
寸法
  6
Continuous
100
AcDbLine
 10
37.50001850356784
 20
49.79449999999633
 30
0.0
 11
37.50001850356784
 21
-46.20550000000367
 31
0.0
  0
LINE
  5
199
330
193
100
AcDbEntity
  8
寸法
  6
Continuous
100
AcDbLine
 10
-37.49998149643216
 20
49.79449999999633
 30
0.0
 11
-37.49998149643216
 21
-46.20550000000367
 31
0.0
  0
LINE
  5
19A
330
193
100
AcDbEntity
  8
寸法
  6
Continuous
100
AcDbLine
 10
-37.49998149643216
 20
-46.20550000000367
 30
0.0
 11
37.50001850356784
 21
-46.20550000000367
 31
0.0
  0
LWPOLYLINE
  5
19B
330
193
100
AcDbEntity
  8
寸法
  6
Continuous
100
AcDbPolyline
 90
        3
 70
     0
 43
0.0
 10
-27.84072323354485
 20
-48.79369045102794
 10
-37.49998149643216
 20
-46.20550000000367
 10
-27.84072323354485
 20
-43.61730954897939
  0
LWPOLYLINE
  5
19C
330
193
100
AcDbEntity
  8
寸法
  6
Continuous
100
AcDbPolyline
 90
        3
 70
     0
 43
0.0
 10
27.84076024068054
 20
-43.61730954897939
 10
37.50001850356784
 20
-46.20550000000367
 10
27.84076024068054
 20
-48.79369045102794
  0
ENDBLK
  5
195
330
193
100
AcDbEntity
  8
0
100
AcDbBlockEnd
  0
BLOCK
  5
1A8
330
1A7
100
AcDbEntity
  8
0
100
AcDbBlockBegin
  2
INS-D7N0K
 70
     0
 10
0.0
 20
0.0
 30
0.0
  3
INS-D7N0K
  1

  0
TEXT
  5
1AB
330
1A7
100
AcDbEntity
  8
寸法
  6
Continuous
100
AcDbText
 10
-23.4017165153491
 20
-59.70000000000363
 30
0.0
 40
19.982
  1
内径φ141
 50
90.0
 41
1.025966251272801
 72
     1
 11
-23.4017165153491
 21
-0.000000000003638
 31
0.0
100
AcDbText
  0
LINE
  5
1AC
330
1A7
100
AcDbEntity
  8
寸法
  6
Continuous
100
AcDbLine
 10
45.00201850356825
 20
-70.50000000000364
 30
0.0
 11
-13.40171651534911
 21
-70.50000000000364
 31
0.0
  0
LINE
  5
1AD
330
1A7
100
AcDbEntity
  8
寸法
  6
Continuous
100
AcDbLine
 10
45.00201850356825
 20
70.49999999999636
 30
0.0
 11
-13.40171651534911
 21
70.49999999999636
 31
0.0
  0
LINE
  5
1AE
330
1A7
100
AcDbEntity
  8
寸法
  6
Continuous
100
AcDbLine
 10
-13.40171651534911
 20
70.49999999999636
 30
0.0
 11
-13.40171651534911
 21
-70.50000000000364
 31
0.0
  0
LWPOLYLINE
  5
1AF
330
1A7
100
AcDbEntity
  8
寸法
  6
Continuous
100
AcDbPolyline
 90
        3
 70
     0
 43
0.0
 10
-15.98990696637338
 20
60.84074173710542
 10
-13.40171651534911
 20
70.49999999999636
 10
-10.81352606432483
 20
60.84074173710542
  0
LWPOLYLINE
  5
1B0
330
1A7
100
AcDbEntity
  8
寸法
  6
Continuous
100
AcDbPolyline
 90
        3
 70
     0
 43
0.0
 10
-10.81352606432483
 20
-60.84074173711269
 10
-13.40171651534911
 20
-70.50000000000364
 10
-15.98990696637338
 20
-60.84074173711269
  0
ENDBLK
  5
1A9
330
1A7
100
AcDbEntity
  8
0
100
AcDbBlockEnd
  0
BLOCK
  5
1B2
330
1B1
100
AcDbEntity
  8
0
100
AcDbBlockBegin
  2
INS-DXLYO
 70
     0
 10
0.0
 20
0.0
 30
0.0
  3
INS-DXLYO
  1

  0
TEXT
  5
1B5
330
1B1
100
AcDbEntity
  8
寸法
  6
Continuous
100
AcDbText
 10
23.02206164231756
 20
-63.06000000000363
 30
0.0
 40
19.982
  1
外径φ123
 50
90.0
 41
1.025966251272801
 72
     1
 11
23.02206164231756
 21
-0.0000000000036309
 31
0.0
100
AcDbText
  0
LINE
  5
1B6
330
1B1
100
AcDbEntity
  8
寸法
  6
Continuous
100
AcDbLine
 10
-36.3099814964371
 20
-61.50000000000364
 30
0.0
 11
32.72206164231466
 21
-61.50000000000364
 31
0.0
  0
LINE
  5
1B7
330
1B1
100
AcDbEntity
  8
寸法
  6
Continuous
100
AcDbLine
 10
-36.3099814964371
 20
61.49999999999636
 30
0.0
 11
32.72206164231466
 21
61.49999999999636
 31
0.0
  0
LINE
  5
1B8
330
1B1
100
AcDbEntity
  8
寸法
  6
Continuous
100
AcDbLine
 10
32.72206164231466
 20
61.49999999999636
 30
0.0
 11
32.72206164231466
 21
-61.50000000000364
 31
0.0
  0
LWPOLYLINE
  5
1B9
330
1B1
100
AcDbEntity
  8
寸法
  6
Continuous
100
AcDbPolyline
 90
        3
 70
     0
 43
0.0
 10
30.13387119129038
 20
51.84074173710542
 10
32.72206164231466
 20
61.49999999999636
 10
35.31025209333893
 20
51.84074173710542
  0
LWPOLYLINE
  5
1BA
330
1B1
100
AcDbEntity
  8
寸法
  6
Continuous
100
AcDbPolyline
 90
        3
 70
     0
 43
0.0
 10
35.31025209333893
 20
-51.84074173711269
 10
32.72206164231466
 20
-61.50000000000364
 10
30.13387119129038
 20
-51.84074173711269
  0
ENDBLK
  5
1B3
330
1B1
100
AcDbEntity
  8
0
100
AcDbBlockEnd
  0
BLOCK
  5
1BC
330
1BB
100
AcDbEntity
  8
0
100
AcDbBlockBegin
  2
INS-D8VOX
 70
     0
 10
0.0
 20
0.0
 30
0.0
  3
INS-D8VOX
  1

  0
TEXT
  5
1BF
330
1BB
100
AcDbEntity
  8
寸法
  6
Continuous
100
AcDbText
 10
-23.69998149643216
 20
-73.84443858889063
 30
0.0
 40
19.982
  1
115
 41
1.056781492035411
 72
     1
 11
0.0000185035678442
 21
-73.84443858889063
 31
0.0
100
AcDbText
  0
LINE
  5
1C0
330
1BB
100
AcDbEntity
  8
寸法
  6
Continuous
100
AcDbLine
 10
57.50001850356784
 20
87.14749999999549
 30
0.0
 11
57.50001850356784
 21
-83.55832747778186
 31
0.0
  0
LINE
  5
1C1
330
1BB
100
AcDbEntity
  8
寸法
  6
Continuous
100
AcDbLine
 10
-57.49998149643216
 20
77.34749999999622
 30
0.0
 11
-57.49998149643216
 21
-83.55832747778186
 31
0.0
  0
LINE
  5
1C2
330
1BB
100
AcDbEntity
  8
寸法
  6
Continuous
100
AcDbLine
 10
-57.49998149643216
 20
-83.55832747778186
 30
0.0
 11
57.50001850356784
 21
-83.55832747778186
 31
0.0
  0
LWPOLYLINE
  5
1C3
330
1BB
100
AcDbEntity
  8
寸法
  6
Continuous
100
AcDbPolyline
 90
        3
 70
     0
 43
0.0
 10
-47.84072323354485
 20
-86.14651792880613
 10
-57.49998149643216
 20
-83.55832747778186
 10
-47.84072323354485
 20
-80.97013702675758
  0
LWPOLYLINE
  5
1C4
330
1BB
100
AcDbEntity
  8
寸法
  6
Continuous
100
AcDbPolyline
 90
        3
 70
     0
 43
0.0
 10
47.84076024068054
 20
-80.97013702675758
 10
57.50001850356784
 20
-83.55832747778186
 10
47.84076024068054
 20
-86.14651792880613
  0
ENDBLK
  5
1BD
330
1BB
100
AcDbEntity
  8
0
100
AcDbBlockEnd
  0
BLOCK
  5
1D2
330
1D1
100
AcDbEntity
  8
0
100
AcDbBlockBegin
  2
INS-G47QH
 70
     0
 10
0.0
 20
0.0
 30
0.0
  3
INS-G47QH
  1

  0
TEXT
  5
1D5
330
1D1
100
AcDbEntity
  8
03-文字-2
100
AcDbText
 10
-42.49955734812102
 20
3.863235289813893
 30
0.0
 40
24.9775
  1
ＶＰ管
 41
0.998071409144555
 11
-42.49955734812102
 21
28.84073528981389
 31
0.0
100
AcDbText
 73
     3
  0
TEXT
  5
1D6
330
1D1
100
AcDbEntity
  8
03-文字-2
100
AcDbText
 10
-42.49955734812102
 20
-28.0667647101864
 30
0.0
 40
24.9775
  1
ＶＵ管
 41
0.998071409144555
 11
-42.49955734812102
 21
-3.089264710186399
 31
0.0
100
AcDbText
 73
     3
  0
ENDBLK
  5
1D3
330
1D1
100
AcDbEntity
  8
0
100
AcDbBlockEnd
  0
BLOCK
  5
1E8
330
1E7
100
AcDbEntity
  8
0
100
AcDbBlockBegin
  2
INS-DHRNJ
 70
     0
 10
0.0
 20
0.0
 30
0.0
  3
INS-DHRNJ
  1

  0
TEXT
  5
1EB
330
1E7
100
AcDbEntity
  8
寸法
  6
Continuous
100
AcDbText
 10
-18.53998149643215
 20
-25.74161111111243
 30
0.0
 40
19.982
  1
50
 41
1.089505144794249
 72
     1
 11
0.0000185035678442
 21
-25.74161111111243
 31
0.0
100
AcDbText
  0
LINE
  5
1EC
330
1E7
100
AcDbEntity
  8
寸法
  6
Continuous
100
AcDbLine
 10
25.00001850356784
 20
39.04449999999633
 30
0.0
 11
25.00001850356784
 21
-35.45550000000367
 31
0.0
  0
LINE
  5
1ED
330
1E7
100
AcDbEntity
  8
寸法
  6
Continuous
100
AcDbLine
 10
-24.99998149643216
 20
39.04449999999633
 30
0.0
 11
-24.99998149643216
 21
-35.45550000000367
 31
0.0
  0
LINE
  5
1EE
330
1E7
100
AcDbEntity
  8
寸法
  6
Continuous
100
AcDbLine
 10
-24.99998149643216
 20
-35.45550000000367
 30
0.0
 11
25.00001850356784
 21
-35.45550000000367
 31
0.0
  0
LWPOLYLINE
  5
1EF
330
1E7
100
AcDbEntity
  8
寸法
  6
Continuous
100
AcDbPolyline
 90
        3
 70
     0
 43
0.0
 10
-15.34072323354485
 20
-38.04369045102794
 10
-24.99998149643216
 20
-35.45550000000367
 10
-15.34072323354485
 20
-32.86730954897939
  0
LWPOLYLINE
  5
1F0
330
1E7
100
AcDbEntity
  8
寸法
  6
Continuous
100
AcDbPolyline
 90
        3
 70
     0
 43
0.0
 10
15.34076024068054
 20
-32.86730954897939
 10
25.00001850356784
 20
-35.45550000000367
 10
15.34076024068054
 20
-38.04369045102794
  0
ENDBLK
  5
1E9
330
1E7
100
AcDbEntity
  8
0
100
AcDbBlockEnd
  0
BLOCK
  5
1F2
330
1F1
100
AcDbEntity
  8
0
100
AcDbBlockBegin
  2
INS-DC1GQ
 70
     0
 10
0.0
 20
0.0
 30
0.0
  3
INS-DC1GQ
  1

  0
TEXT
  5
1F5
330
1F1
100
AcDbEntity
  8
寸法
  6
Continuous
100
AcDbText
 10
-15.17998149643215
 20
-57.00000000000364
 30
0.0
 40
19.982
  1
10
 41
1.089505144794249
 72
     1
 11
0.0000185035678442
 21
-57.00000000000364
 31
0.0
100
AcDbText
  0
LINE
  5
1F6
330
1F1
100
AcDbEntity
  8
寸法
  6
Continuous
100
AcDbLine
 10
5.000018503567844
 20
57.99999999999636
 30
0.0
 11
5.000018503567844
 21
-26.30000000000291
 31
0.0
  0
LINE
  5
1F7
330
1F1
100
AcDbEntity
  8
寸法
  6
Continuous
100
AcDbLine
 10
-4.999981496432156
 20
48.19999999999709
 30
0.0
 11
-4.999981496432156
 21
-26.30000000000291
 31
0.0
  0
LINE
  5
1F8
330
1F1
100
AcDbEntity
  8
寸法
  6
Continuous
100
AcDbLine
 10
-4.999981496432156
 20
-26.30000000000291
 30
0.0
 11
5.000018503567844
 21
-26.30000000000291
 31
0.0
  0
ENDBLK
  5
1F3
330
1F1
100
AcDbEntity
  8
0
100
AcDbBlockEnd
  0
BLOCK
  5
1FA
330
1F9
100
AcDbEntity
  8
0
100
AcDbBlockBegin
  2
INS-D7R8S
 70
     0
 10
0.0
 20
0.0
 30
0.0
  3
INS-D7R8S
  1

  0
TEXT
  5
1FD
330
1F9
100
AcDbEntity
  8
寸法
  6
Continuous
100
AcDbText
 10
-20.27998149643216
 20
-30.62772222222702
 30
0.0
 40
19.982
  1
55
 41
1.089505144794249
 72
     1
 11
0.0000185035678442
 21
-30.62772222222702
 31
0.0
100
AcDbText
  0
LINE
  5
1FE
330
1F9
100
AcDbEntity
  8
寸法
  6
Continuous
100
AcDbLine
 10
27.50001850356784
 20
43.94449999999415
 30
0.0
 11
27.50001850356784
 21
-40.35550000000512
 31
0.0
  0
LINE
  5
1FF
330
1F9
100
AcDbEntity
  8
寸法
  6
Continuous
100
AcDbLine
 10
-27.49998149643216
 20
43.94449999999415
 30
0.0
 11
-27.49998149643216
 21
-40.35550000000512
 31
0.0
  0
LINE
  5
200
330
1F9
100
AcDbEntity
  8
寸法
  6
Continuous
100
AcDbLine
 10
-27.49998149643216
 20
-40.35550000000512
 30
0.0
 11
27.50001850356784
 21
-40.35550000000512
 31
0.0
  0
LWPOLYLINE
  5
201
330
1F9
100
AcDbEntity
  8
寸法
  6
Continuous
100
AcDbPolyline
 90
        3
 70
     0
 43
0.0
 10
-17.84072323354485
 20
-42.9436904510294
 10
-27.49998149643216
 20
-40.35550000000512
 10
-17.84072323354485
 20
-37.76730954898085
  0
LWPOLYLINE
  5
202
330
1F9
100
AcDbEntity
  8
寸法
  6
Continuous
100
AcDbPolyline
 90
        3
 70
     0
 43
0.0
 10
17.84076024068054
 20
-37.76730954898085
 10
27.50001850356784
 20
-40.35550000000512
 10
17.84076024068054
 20
-42.9436904510294
  0
ENDBLK
  5
1FB
330
1F9
100
AcDbEntity
  8
0
100
AcDbBlockEnd
  0
BLOCK
  5
20E
330
20D
100
AcDbEntity
  8
0
100
AcDbBlockBegin
  2
INS-D88PR
 70
     0
 10
0.0
 20
0.0
 30
0.0
  3
INS-D88PR
  1

  0
TEXT
  5
211
330
20D
100
AcDbEntity
  8
寸法
  6
Continuous
100
AcDbText
 10
-23.40171651534911
 20
-63.06000000000363
 30
0.0
 40
19.982
  1
内径φ166
 50
90.0
 41
1.025966251272801
 72
     1
 11
-23.40171651534911
 21
-0.000000000003638
 31
0.0
100
AcDbText
  0
LINE
  5
212
330
20D
100
AcDbEntity
  8
寸法
  6
Continuous
100
AcDbLine
 10
45.00201850356825
 20
-83.00000000000364
 30
0.0
 11
-13.40171651534911
 21
-83.00000000000364
 31
0.0
  0
LINE
  5
213
330
20D
100
AcDbEntity
  8
寸法
  6
Continuous
100
AcDbLine
 10
45.00201850356825
 20
82.99999999999636
 30
0.0
 11
-13.40171651534911
 21
82.99999999999636
 31
0.0
  0
LINE
  5
214
330
20D
100
AcDbEntity
  8
寸法
  6
Continuous
100
AcDbLine
 10
-13.40171651534911
 20
82.99999999999636
 30
0.0
 11
-13.40171651534911
 21
-83.00000000000364
 31
0.0
  0
LWPOLYLINE
  5
215
330
20D
100
AcDbEntity
  8
寸法
  6
Continuous
100
AcDbPolyline
 90
        3
 70
     0
 43
0.0
 10
-15.98990696637338
 20
73.34074173710542
 10
-13.40171651534911
 20
82.99999999999636
 10
-10.81352606432483
 20
73.34074173710542
  0
LWPOLYLINE
  5
216
330
20D
100
AcDbEntity
  8
寸法
  6
Continuous
100
AcDbPolyline
 90
        3
 70
     0
 43
0.0
 10
-10.81352606432483
 20
-73.3407417371127
 10
-13.40171651534911
 20
-83.00000000000364
 10
-15.98990696637338
 20
-73.3407417371127
  0
ENDBLK
  5
20F
330
20D
100
AcDbEntity
  8
0
100
AcDbBlockEnd
  0
BLOCK
  5
218
330
217
100
AcDbEntity
  8
0
100
AcDbBlockBegin
  2
INS-D530E
 70
     0
 10
0.0
 20
0.0
 30
0.0
  3
INS-D530E
  1

  0
TEXT
  5
21B
330
217
100
AcDbEntity
  8
寸法
  6
Continuous
100
AcDbText
 10
23.02206164231756
 20
-63.06000000000363
 30
0.0
 40
19.982
  1
外径φ148
 50
90.0
 41
1.025966251272801
 72
     1
 11
23.02206164231756
 21
-0.0000000000036309
 31
0.0
100
AcDbText
  0
LINE
  5
21C
330
217
100
AcDbEntity
  8
寸法
  6
Continuous
100
AcDbLine
 10
-36.3099814964371
 20
-74.00000000000364
 30
0.0
 11
32.72206164231466
 21
-74.00000000000364
 31
0.0
  0
LINE
  5
21D
330
217
100
AcDbEntity
  8
寸法
  6
Continuous
100
AcDbLine
 10
-36.3099814964371
 20
73.99999999999636
 30
0.0
 11
32.72206164231466
 21
73.99999999999636
 31
0.0
  0
LINE
  5
21E
330
217
100
AcDbEntity
  8
寸法
  6
Continuous
100
AcDbLine
 10
32.72206164231466
 20
73.99999999999636
 30
0.0
 11
32.72206164231466
 21
-74.00000000000364
 31
0.0
  0
LWPOLYLINE
  5
21F
330
217
100
AcDbEntity
  8
寸法
  6
Continuous
100
AcDbPolyline
 90
        3
 70
     0
 43
0.0
 10
30.13387119129038
 20
64.34074173710542
 10
32.72206164231466
 20
73.99999999999636
 10
35.31025209333893
 20
64.34074173710542
  0
LWPOLYLINE
  5
220
330
217
100
AcDbEntity
  8
寸法
  6
Continuous
100
AcDbPolyline
 90
        3
 70
     0
 43
0.0
 10
35.31025209333893
 20
-64.3407417371127
 10
32.72206164231466
 20
-74.00000000000364
 10
30.13387119129038
 20
-64.3407417371127
  0
ENDBLK
  5
219
330
217
100
AcDbEntity
  8
0
100
AcDbBlockEnd
  0
BLOCK
  5
222
330
221
100
AcDbEntity
  8
0
100
AcDbBlockBegin
  2
INS-DXCRW
 70
     0
 10
0.0
 20
0.0
 30
0.0
  3
INS-DXCRW
  1

  0
TEXT
  5
225
330
221
100
AcDbEntity
  8
寸法
  6
Continuous
100
AcDbText
 10
-23.69998149643216
 20
-67.59443858889063
 30
0.0
 40
19.982
  1
115
 41
1.056781492035411
 72
     1
 11
0.0000185035678442
 21
-67.59443858889063
 31
0.0
100
AcDbText
  0
LINE
  5
226
330
221
100
AcDbEntity
  8
寸法
  6
Continuous
100
AcDbLine
 10
57.50001850356784
 20
80.89749999999549
 30
0.0
 11
57.50001850356784
 21
-77.30832747778186
 31
0.0
  0
LINE
  5
227
330
221
100
AcDbEntity
  8
寸法
  6
Continuous
100
AcDbLine
 10
-57.49998149643216
 20
71.09749999999622
 30
0.0
 11
-57.49998149643216
 21
-77.30832747778186
 31
0.0
  0
LINE
  5
228
330
221
100
AcDbEntity
  8
寸法
  6
Continuous
100
AcDbLine
 10
-57.49998149643216
 20
-77.30832747778186
 30
0.0
 11
57.50001850356784
 21
-77.30832747778186
 31
0.0
  0
LWPOLYLINE
  5
229
330
221
100
AcDbEntity
  8
寸法
  6
Continuous
100
AcDbPolyline
 90
        3
 70
     0
 43
0.0
 10
-47.84072323354485
 20
-79.89651792880613
 10
-57.49998149643216
 20
-77.30832747778186
 10
-47.84072323354485
 20
-74.72013702675758
  0
LWPOLYLINE
  5
22A
330
221
100
AcDbEntity
  8
寸法
  6
Continuous
100
AcDbPolyline
 90
        3
 70
     0
 43
0.0
 10
47.84076024068054
 20
-74.72013702675758
 10
57.50001850356784
 20
-77.30832747778186
 10
47.84076024068054
 20
-79.89651792880613
  0
ENDBLK
  5
223
330
221
100
AcDbEntity
  8
0
100
AcDbBlockEnd
  0
BLOCK
  5
238
330
237
100
AcDbEntity
  8
0
100
AcDbBlockBegin
  2
INS-G956X
 70
     0
 10
0.0
 20
0.0
 30
0.0
  3
INS-G956X
  1

  0
TEXT
  5
23B
330
237
100
AcDbEntity
  8
03-文字-2
100
AcDbText
 10
-42.49955734812102
 20
3.863235289813893
 30
0.0
 40
24.9775
  1
ＶＰ管
 41
0.998071409144555
 11
-42.49955734812102
 21
28.84073528981389
 31
0.0
100
AcDbText
 73
     3
  0
TEXT
  5
23C
330
237
100
AcDbEntity
  8
03-文字-2
100
AcDbText
 10
-42.49955734812102
 20
-28.0667647101864
 30
0.0
 40
24.9775
  1
ＶＵ管
 41
0.998071409144555
 11
-42.49955734812102
 21
-3.089264710186399
 31
0.0
100
AcDbText
 73
     3
  0
ENDBLK
  5
239
330
237
100
AcDbEntity
  8
0
100
AcDbBlockEnd
  0
BLOCK
  5
24E
330
24D
100
AcDbEntity
  8
0
100
AcDbBlockBegin
  2
INS-D8FZP
 70
     0
 10
0.0
 20
0.0
 30
0.0
  3
INS-D8FZP
  1

  0
TEXT
  5
251
330
24D
100
AcDbEntity
  8
寸法
  6
Continuous
100
AcDbText
 10
-18.53998149643215
 20
-19.49161111111243
 30
0.0
 40
19.982
  1
50
 41
1.089505144794249
 72
     1
 11
0.0000185035678442
 21
-19.49161111111243
 31
0.0
100
AcDbText
  0
LINE
  5
252
330
24D
100
AcDbEntity
  8
寸法
  6
Continuous
100
AcDbLine
 10
25.00001850356784
 20
32.79449999999633
 30
0.0
 11
25.00001850356784
 21
-29.20550000000367
 31
0.0
  0
LINE
  5
253
330
24D
100
AcDbEntity
  8
寸法
  6
Continuous
100
AcDbLine
 10
-24.99998149643216
 20
32.79449999999633
 30
0.0
 11
-24.99998149643216
 21
-29.20550000000367
 31
0.0
  0
LINE
  5
254
330
24D
100
AcDbEntity
  8
寸法
  6
Continuous
100
AcDbLine
 10
-24.99998149643216
 20
-29.20550000000367
 30
0.0
 11
25.00001850356784
 21
-29.20550000000367
 31
0.0
  0
LWPOLYLINE
  5
255
330
24D
100
AcDbEntity
  8
寸法
  6
Continuous
100
AcDbPolyline
 90
        3
 70
     0
 43
0.0
 10
-15.34072323354485
 20
-31.79369045102794
 10
-24.99998149643216
 20
-29.20550000000367
 10
-15.34072323354485
 20
-26.61730954897939
  0
LWPOLYLINE
  5
256
330
24D
100
AcDbEntity
  8
寸法
  6
Continuous
100
AcDbPolyline
 90
        3
 70
     0
 43
0.0
 10
15.34076024068054
 20
-26.61730954897939
 10
25.00001850356784
 20
-29.20550000000367
 10
15.34076024068054
 20
-31.79369045102794
  0
ENDBLK
  5
24F
330
24D
100
AcDbEntity
  8
0
100
AcDbBlockEnd
  0
BLOCK
  5
258
330
257
100
AcDbEntity
  8
0
100
AcDbBlockBegin
  2
INS-D970K
 70
     0
 10
0.0
 20
0.0
 30
0.0
  3
INS-D970K
  1

  0
TEXT
  5
25B
330
257
100
AcDbEntity
  8
寸法
  6
Continuous
100
AcDbText
 10
-15.17998149643215
 20
-50.75000000000364
 30
0.0
 40
19.982
  1
10
 41
1.089505144794249
 72
     1
 11
0.0000185035678442
 21
-50.75000000000364
 31
0.0
100
AcDbText
  0
LINE
  5
25C
330
257
100
AcDbEntity
  8
寸法
  6
Continuous
100
AcDbLine
 10
5.000018503567844
 20
51.74999999999636
 30
0.0
 11
5.000018503567844
 21
-20.05000000000291
 31
0.0
  0
LINE
  5
25D
330
257
100
AcDbEntity
  8
寸法
  6
Continuous
100
AcDbLine
 10
-4.999981496432156
 20
41.94999999999709
 30
0.0
 11
-4.999981496432156
 21
-20.05000000000291
 31
0.0
  0
LINE
  5
25E
330
257
100
AcDbEntity
  8
寸法
  6
Continuous
100
AcDbLine
 10
-4.999981496432156
 20
-20.05000000000291
 30
0.0
 11
5.000018503567844
 21
-20.05000000000291
 31
0.0
  0
ENDBLK
  5
259
330
257
100
AcDbEntity
  8
0
100
AcDbBlockEnd
  0
BLOCK
  5
260
330
25F
100
AcDbEntity
  8
0
100
AcDbBlockBegin
  2
INS-DCYLF
 70
     0
 10
0.0
 20
0.0
 30
0.0
  3
INS-DCYLF
  1

  0
TEXT
  5
263
330
25F
100
AcDbEntity
  8
寸法
  6
Continuous
100
AcDbText
 10
-20.27998149643216
 20
-24.37772222222702
 30
0.0
 40
19.982
  1
55
 41
1.089505144794249
 72
     1
 11
0.0000185035678442
 21
-24.37772222222702
 31
0.0
100
AcDbText
  0
LINE
  5
264
330
25F
100
AcDbEntity
  8
寸法
  6
Continuous
100
AcDbLine
 10
27.50001850356784
 20
37.69449999999415
 30
0.0
 11
27.50001850356784
 21
-34.10550000000512
 31
0.0
  0
LINE
  5
265
330
25F
100
AcDbEntity
  8
寸法
  6
Continuous
100
AcDbLine
 10
-27.49998149643216
 20
37.69449999999415
 30
0.0
 11
-27.49998149643216
 21
-34.10550000000512
 31
0.0
  0
LINE
  5
266
330
25F
100
AcDbEntity
  8
寸法
  6
Continuous
100
AcDbLine
 10
-27.49998149643216
 20
-34.10550000000512
 30
0.0
 11
27.50001850356784
 21
-34.10550000000512
 31
0.0
  0
LWPOLYLINE
  5
267
330
25F
100
AcDbEntity
  8
寸法
  6
Continuous
100
AcDbPolyline
 90
        3
 70
     0
 43
0.0
 10
-17.84072323354485
 20
-36.6936904510294
 10
-27.49998149643216
 20
-34.10550000000512
 10
-17.84072323354485
 20
-31.51730954898085
  0
LWPOLYLINE
  5
268
330
25F
100
AcDbEntity
  8
寸法
  6
Continuous
100
AcDbPolyline
 90
        3
 70
     0
 43
0.0
 10
17.84076024068054
 20
-31.51730954898085
 10
27.50001850356784
 20
-34.10550000000512
 10
17.84076024068054
 20
-36.6936904510294
  0
ENDBLK
  5
261
330
25F
100
AcDbEntity
  8
0
100
AcDbBlockEnd
  0
BLOCK
  5
274
330
273
100
AcDbEntity
  8
0
100
AcDbBlockBegin
  2
INS-D5RKR
 70
     0
 10
0.0
 20
0.0
 30
0.0
  3
INS-D5RKR
  1

  0
TEXT
  5
277
330
273
100
AcDbEntity
  8
寸法
  6
Continuous
100
AcDbText
 10
-23.40171651534911
 20
-63.06000000000363
 30
0.0
 40
19.982
  1
内径φ192
 50
90.0
 41
1.025966251272801
 72
     1
 11
-23.40171651534911
 21
-0.000000000003638
 31
0.0
100
AcDbText
  0
LINE
  5
278
330
273
100
AcDbEntity
  8
寸法
  6
Continuous
100
AcDbLine
 10
45.00201850356825
 20
-96.00000000000364
 30
0.0
 11
-13.40171651534911
 21
-96.00000000000364
 31
0.0
  0
LINE
  5
279
330
273
100
AcDbEntity
  8
寸法
  6
Continuous
100
AcDbLine
 10
45.00201850356825
 20
95.99999999999636
 30
0.0
 11
-13.40171651534911
 21
95.99999999999636
 31
0.0
  0
LINE
  5
27A
330
273
100
AcDbEntity
  8
寸法
  6
Continuous
100
AcDbLine
 10
-13.40171651534911
 20
95.99999999999636
 30
0.0
 11
-13.40171651534911
 21
-96.00000000000364
 31
0.0
  0
LWPOLYLINE
  5
27B
330
273
100
AcDbEntity
  8
寸法
  6
Continuous
100
AcDbPolyline
 90
        3
 70
     0
 43
0.0
 10
-15.98990696637338
 20
86.34074173710542
 10
-13.40171651534911
 20
95.99999999999636
 10
-10.81352606432483
 20
86.34074173710542
  0
LWPOLYLINE
  5
27C
330
273
100
AcDbEntity
  8
寸法
  6
Continuous
100
AcDbPolyline
 90
        3
 70
     0
 43
0.0
 10
-10.81352606432483
 20
-86.3407417371127
 10
-13.40171651534911
 20
-96.00000000000364
 10
-15.98990696637338
 20
-86.3407417371127
  0
ENDBLK
  5
275
330
273
100
AcDbEntity
  8
0
100
AcDbBlockEnd
  0
BLOCK
  5
27E
330
27D
100
AcDbEntity
  8
0
100
AcDbBlockBegin
  2
INS-D61U9
 70
     0
 10
0.0
 20
0.0
 30
0.0
  3
INS-D61U9
  1

  0
TEXT
  5
281
330
27D
100
AcDbEntity
  8
寸法
  6
Continuous
100
AcDbText
 10
23.02206164231756
 20
-63.06000000000363
 30
0.0
 40
19.982
  1
外径φ173
 50
90.0
 41
1.025966251272801
 72
     1
 11
23.02206164231756
 21
-0.0000000000036309
 31
0.0
100
AcDbText
  0
LINE
  5
282
330
27D
100
AcDbEntity
  8
寸法
  6
Continuous
100
AcDbLine
 10
-36.3099814964371
 20
-86.50000000000364
 30
0.0
 11
32.72206164231466
 21
-86.50000000000364
 31
0.0
  0
LINE
  5
283
330
27D
100
AcDbEntity
  8
寸法
  6
Continuous
100
AcDbLine
 10
-36.3099814964371
 20
86.49999999999636
 30
0.0
 11
32.72206164231466
 21
86.49999999999636
 31
0.0
  0
LINE
  5
284
330
27D
100
AcDbEntity
  8
寸法
  6
Continuous
100
AcDbLine
 10
32.72206164231466
 20
86.49999999999636
 30
0.0
 11
32.72206164231466
 21
-86.50000000000364
 31
0.0
  0
LWPOLYLINE
  5
285
330
27D
100
AcDbEntity
  8
寸法
  6
Continuous
100
AcDbPolyline
 90
        3
 70
     0
 43
0.0
 10
30.13387119129038
 20
76.84074173710542
 10
32.72206164231466
 20
86.49999999999636
 10
35.31025209333893
 20
76.84074173710542
  0
LWPOLYLINE
  5
286
330
27D
100
AcDbEntity
  8
寸法
  6
Continuous
100
AcDbPolyline
 90
        3
 70
     0
 43
0.0
 10
35.31025209333893
 20
-76.8407417371127
 10
32.72206164231466
 20
-86.50000000000364
 10
30.13387119129038
 20
-76.8407417371127
  0
ENDBLK
  5
27F
330
27D
100
AcDbEntity
  8
0
100
AcDbBlockEnd
  0
BLOCK
  5
288
330
287
100
AcDbEntity
  8
0
100
AcDbBlockBegin
  2
INS-D8DUV
 70
     0
 10
0.0
 20
0.0
 30
0.0
  3
INS-D8DUV
  1

  0
TEXT
  5
28B
330
287
100
AcDbEntity
  8
寸法
  6
Continuous
100
AcDbText
 10
-23.69998149643216
 20
-86.34443858889063
 30
0.0
 40
19.982
  1
115
 41
1.056781492035411
 72
     1
 11
0.0000185035678442
 21
-86.34443858889063
 31
0.0
100
AcDbText
  0
LINE
  5
28C
330
287
100
AcDbEntity
  8
寸法
  6
Continuous
100
AcDbLine
 10
57.50001850356784
 20
99.64749999999549
 30
0.0
 11
57.50001850356784
 21
-96.05832747778186
 31
0.0
  0
LINE
  5
28D
330
287
100
AcDbEntity
  8
寸法
  6
Continuous
100
AcDbLine
 10
-57.49998149643216
 20
89.34749999999622
 30
0.0
 11
-57.49998149643216
 21
-96.05832747778186
 31
0.0
  0
LINE
  5
28E
330
287
100
AcDbEntity
  8
寸法
  6
Continuous
100
AcDbLine
 10
-57.49998149643216
 20
-96.05832747778186
 30
0.0
 11
57.50001850356784
 21
-96.05832747778186
 31
0.0
  0
LWPOLYLINE
  5
28F
330
287
100
AcDbEntity
  8
寸法
  6
Continuous
100
AcDbPolyline
 90
        3
 70
     0
 43
0.0
 10
-47.84072323354485
 20
-98.64651792880613
 10
-57.49998149643216
 20
-96.05832747778186
 10
-47.84072323354485
 20
-93.47013702675758
  0
LWPOLYLINE
  5
290
330
287
100
AcDbEntity
  8
寸法
  6
Continuous
100
AcDbPolyline
 90
        3
 70
     0
 43
0.0
 10
47.84076024068054
 20
-93.47013702675758
 10
57.50001850356784
 20
-96.05832747778186
 10
47.84076024068054
 20
-98.64651792880613
  0
ENDBLK
  5
289
330
287
100
AcDbEntity
  8
0
100
AcDbBlockEnd
  0
BLOCK
  5
29E
330
29D
100
AcDbEntity
  8
0
100
AcDbBlockBegin
  2
INS-G3TA2
 70
     0
 10
0.0
 20
0.0
 30
0.0
  3
INS-G3TA2
  1

  0
TEXT
  5
2A1
330
29D
100
AcDbEntity
  8
03-文字-2
100
AcDbText
 10
-42.49955734812102
 20
3.863235289813893
 30
0.0
 40
24.9775
  1
ＶＰ管
 41
0.998071409144555
 11
-42.49955734812102
 21
28.84073528981389
 31
0.0
100
AcDbText
 73
     3
  0
TEXT
  5
2A2
330
29D
100
AcDbEntity
  8
03-文字-2
100
AcDbText
 10
-42.49955734812102
 20
-28.0667647101864
 30
0.0
 40
24.9775
  1
ＶＵ管
 41
0.998071409144555
 11
-42.49955734812102
 21
-3.089264710186399
 31
0.0
100
AcDbText
 73
     3
  0
ENDBLK
  5
29F
330
29D
100
AcDbEntity
  8
0
100
AcDbBlockEnd
  0
BLOCK
  5
2B4
330
2B3
100
AcDbEntity
  8
0
100
AcDbBlockBegin
  2
INS-D43D4
 70
     0
 10
0.0
 20
0.0
 30
0.0
  3
INS-D43D4
  1

  0
TEXT
  5
2B7
330
2B3
100
AcDbEntity
  8
寸法
  6
Continuous
100
AcDbText
 10
-18.53998149643215
 20
-37.99161111111243
 30
0.0
 40
19.982
  1
50
 41
1.089505144794249
 72
     1
 11
0.0000185035678442
 21
-37.99161111111243
 31
0.0
100
AcDbText
  0
LINE
  5
2B8
330
2B3
100
AcDbEntity
  8
寸法
  6
Continuous
100
AcDbLine
 10
25.00001850356784
 20
51.29449999999633
 30
0.0
 11
25.00001850356784
 21
-47.70550000000367
 31
0.0
  0
LINE
  5
2B9
330
2B3
100
AcDbEntity
  8
寸法
  6
Continuous
100
AcDbLine
 10
-24.99998149643216
 20
51.29449999999633
 30
0.0
 11
-24.99998149643216
 21
-47.70550000000367
 31
0.0
  0
LINE
  5
2BA
330
2B3
100
AcDbEntity
  8
寸法
  6
Continuous
100
AcDbLine
 10
-24.99998149643216
 20
-47.70550000000367
 30
0.0
 11
25.00001850356784
 21
-47.70550000000367
 31
0.0
  0
LWPOLYLINE
  5
2BB
330
2B3
100
AcDbEntity
  8
寸法
  6
Continuous
100
AcDbPolyline
 90
        3
 70
     0
 43
0.0
 10
-15.34072323354485
 20
-50.29369045102794
 10
-24.99998149643216
 20
-47.70550000000367
 10
-15.34072323354485
 20
-45.11730954897939
  0
LWPOLYLINE
  5
2BC
330
2B3
100
AcDbEntity
  8
寸法
  6
Continuous
100
AcDbPolyline
 90
        3
 70
     0
 43
0.0
 10
15.34076024068054
 20
-45.11730954897939
 10
25.00001850356784
 20
-47.70550000000367
 10
15.34076024068054
 20
-50.29369045102794
  0
ENDBLK
  5
2B5
330
2B3
100
AcDbEntity
  8
0
100
AcDbBlockEnd
  0
BLOCK
  5
2BE
330
2BD
100
AcDbEntity
  8
0
100
AcDbBlockBegin
  2
INS-DCS30
 70
     0
 10
0.0
 20
0.0
 30
0.0
  3
INS-DCS30
  1

  0
TEXT
  5
2C1
330
2BD
100
AcDbEntity
  8
寸法
  6
Continuous
100
AcDbText
 10
-15.17998149643215
 20
-69.50000000000364
 30
0.0
 40
19.982
  1
10
 41
1.089505144794249
 72
     1
 11
0.0000185035678442
 21
-69.50000000000364
 31
0.0
100
AcDbText
  0
LINE
  5
2C2
330
2BD
100
AcDbEntity
  8
寸法
  6
Continuous
100
AcDbLine
 10
5.000018503567844
 20
70.49999999999636
 30
0.0
 11
5.000018503567844
 21
-38.80000000000291
 31
0.0
  0
LINE
  5
2C3
330
2BD
100
AcDbEntity
  8
寸法
  6
Continuous
100
AcDbLine
 10
-4.999981496432156
 20
60.19999999999709
 30
0.0
 11
-4.999981496432156
 21
-38.80000000000291
 31
0.0
  0
LINE
  5
2C4
330
2BD
100
AcDbEntity
  8
寸法
  6
Continuous
100
AcDbLine
 10
-4.999981496432156
 20
-38.80000000000291
 30
0.0
 11
5.000018503567844
 21
-38.80000000000291
 31
0.0
  0
ENDBLK
  5
2BF
330
2BD
100
AcDbEntity
  8
0
100
AcDbBlockEnd
  0
BLOCK
  5
2C6
330
2C5
100
AcDbEntity
  8
0
100
AcDbBlockBegin
  2
INS-DKRZA
 70
     0
 10
0.0
 20
0.0
 30
0.0
  3
INS-DKRZA
  1

  0
TEXT
  5
2C9
330
2C5
100
AcDbEntity
  8
寸法
  6
Continuous
100
AcDbText
 10
-20.27998149643216
 20
-43.12772222222702
 30
0.0
 40
19.982
  1
55
 41
1.089505144794249
 72
     1
 11
0.0000185035678442
 21
-43.12772222222702
 31
0.0
100
AcDbText
  0
LINE
  5
2CA
330
2C5
100
AcDbEntity
  8
寸法
  6
Continuous
100
AcDbLine
 10
27.50001850356784
 20
56.44449999999415
 30
0.0
 11
27.50001850356784
 21
-52.85550000000512
 31
0.0
  0
LINE
  5
2CB
330
2C5
100
AcDbEntity
  8
寸法
  6
Continuous
100
AcDbLine
 10
-27.49998149643216
 20
56.44449999999415
 30
0.0
 11
-27.49998149643216
 21
-52.85550000000512
 31
0.0
  0
LINE
  5
2CC
330
2C5
100
AcDbEntity
  8
寸法
  6
Continuous
100
AcDbLine
 10
-27.49998149643216
 20
-52.85550000000512
 30
0.0
 11
27.50001850356784
 21
-52.85550000000512
 31
0.0
  0
LWPOLYLINE
  5
2CD
330
2C5
100
AcDbEntity
  8
寸法
  6
Continuous
100
AcDbPolyline
 90
        3
 70
     0
 43
0.0
 10
-17.84072323354485
 20
-55.4436904510294
 10
-27.49998149643216
 20
-52.85550000000512
 10
-17.84072323354485
 20
-50.26730954898085
  0
LWPOLYLINE
  5
2CE
330
2C5
100
AcDbEntity
  8
寸法
  6
Continuous
100
AcDbPolyline
 90
        3
 70
     0
 43
0.0
 10
17.84076024068054
 20
-50.26730954898085
 10
27.50001850356784
 20
-52.85550000000512
 10
17.84076024068054
 20
-55.4436904510294
  0
ENDBLK
  5
2C7
330
2C5
100
AcDbEntity
  8
0
100
AcDbBlockEnd
  0
BLOCK
  5
2DA
330
2D9
100
AcDbEntity
  8
0
100
AcDbBlockBegin
  2
INS-DVU33
 70
     0
 10
0.0
 20
0.0
 30
0.0
  3
INS-DVU33
  1

  0
TEXT
  5
2DD
330
2D9
100
AcDbEntity
  8
寸法
  6
Continuous
100
AcDbText
 10
-23.40171651534911
 20
-63.06000000000363
 30
0.0
 40
19.982
  1
内径φ217
 50
90.0
 41
1.025966251272801
 72
     1
 11
-23.40171651534911
 21
-0.000000000003638
 31
0.0
100
AcDbText
  0
LINE
  5
2DE
330
2D9
100
AcDbEntity
  8
寸法
  6
Continuous
100
AcDbLine
 10
45.00201850356825
 20
-108.5000000000036
 30
0.0
 11
-13.40171651534911
 21
-108.5000000000036
 31
0.0
  0
LINE
  5
2DF
330
2D9
100
AcDbEntity
  8
寸法
  6
Continuous
100
AcDbLine
 10
45.00201850356825
 20
108.4999999999964
 30
0.0
 11
-13.40171651534911
 21
108.4999999999964
 31
0.0
  0
LINE
  5
2E0
330
2D9
100
AcDbEntity
  8
寸法
  6
Continuous
100
AcDbLine
 10
-13.40171651534911
 20
108.4999999999964
 30
0.0
 11
-13.40171651534911
 21
-108.5000000000036
 31
0.0
  0
LWPOLYLINE
  5
2E1
330
2D9
100
AcDbEntity
  8
寸法
  6
Continuous
100
AcDbPolyline
 90
        3
 70
     0
 43
0.0
 10
-15.98990696637338
 20
98.84074173710542
 10
-13.40171651534911
 20
108.4999999999964
 10
-10.81352606432483
 20
98.84074173710542
  0
LWPOLYLINE
  5
2E2
330
2D9
100
AcDbEntity
  8
寸法
  6
Continuous
100
AcDbPolyline
 90
        3
 70
     0
 43
0.0
 10
-10.81352606432483
 20
-98.8407417371127
 10
-13.40171651534911
 20
-108.5000000000036
 10
-15.98990696637338
 20
-98.8407417371127
  0
ENDBLK
  5
2DB
330
2D9
100
AcDbEntity
  8
0
100
AcDbBlockEnd
  0
BLOCK
  5
2E4
330
2E3
100
AcDbEntity
  8
0
100
AcDbBlockBegin
  2
INS-D4ROY
 70
     0
 10
0.0
 20
0.0
 30
0.0
  3
INS-D4ROY
  1

  0
TEXT
  5
2E7
330
2E3
100
AcDbEntity
  8
寸法
  6
Continuous
100
AcDbText
 10
23.02206164231756
 20
-63.06000000000363
 30
0.0
 40
19.982
  1
外径φ173
 50
90.0
 41
1.025966251272801
 72
     1
 11
23.02206164231756
 21
-0.0000000000036309
 31
0.0
100
AcDbText
  0
LINE
  5
2E8
330
2E3
100
AcDbEntity
  8
寸法
  6
Continuous
100
AcDbLine
 10
-36.3099814964371
 20
-86.50000000000364
 30
0.0
 11
32.72206164231466
 21
-86.50000000000364
 31
0.0
  0
LINE
  5
2E9
330
2E3
100
AcDbEntity
  8
寸法
  6
Continuous
100
AcDbLine
 10
-36.3099814964371
 20
86.49999999999636
 30
0.0
 11
32.72206164231466
 21
86.49999999999636
 31
0.0
  0
LINE
  5
2EA
330
2E3
100
AcDbEntity
  8
寸法
  6
Continuous
100
AcDbLine
 10
32.72206164231466
 20
86.49999999999636
 30
0.0
 11
32.72206164231466
 21
-86.50000000000364
 31
0.0
  0
LWPOLYLINE
  5
2EB
330
2E3
100
AcDbEntity
  8
寸法
  6
Continuous
100
AcDbPolyline
 90
        3
 70
     0
 43
0.0
 10
30.13387119129038
 20
76.84074173710542
 10
32.72206164231466
 20
86.49999999999636
 10
35.31025209333893
 20
76.84074173710542
  0
LWPOLYLINE
  5
2EC
330
2E3
100
AcDbEntity
  8
寸法
  6
Continuous
100
AcDbPolyline
 90
        3
 70
     0
 43
0.0
 10
35.31025209333893
 20
-76.8407417371127
 10
32.72206164231466
 20
-86.50000000000364
 10
30.13387119129038
 20
-76.8407417371127
  0
ENDBLK
  5
2E5
330
2E3
100
AcDbEntity
  8
0
100
AcDbBlockEnd
  0
BLOCK
  5
2EE
330
2ED
100
AcDbEntity
  8
0
100
AcDbBlockBegin
  2
INS-DHOSL
 70
     0
 10
0.0
 20
0.0
 30
0.0
  3
INS-DHOSL
  1

  0
TEXT
  5
2F1
330
2ED
100
AcDbEntity
  8
寸法
  6
Continuous
100
AcDbText
 10
-27.05998149643216
 20
-86.34443858889063
 30
0.0
 40
19.982
  1
135
 41
1.056781492035411
 72
     1
 11
0.0000185035678442
 21
-86.34443858889063
 31
0.0
100
AcDbText
  0
LINE
  5
2F2
330
2ED
100
AcDbEntity
  8
寸法
  6
Continuous
100
AcDbLine
 10
67.50001850356784
 20
99.64749999999549
 30
0.0
 11
67.50001850356784
 21
-96.05832747778186
 31
0.0
  0
LINE
  5
2F3
330
2ED
100
AcDbEntity
  8
寸法
  6
Continuous
100
AcDbLine
 10
-67.49998149643216
 20
76.84749999999622
 30
0.0
 11
-67.49998149643216
 21
-96.05832747778186
 31
0.0
  0
LINE
  5
2F4
330
2ED
100
AcDbEntity
  8
寸法
  6
Continuous
100
AcDbLine
 10
-67.49998149643216
 20
-96.05832747778186
 30
0.0
 11
67.50001850356784
 21
-96.05832747778186
 31
0.0
  0
LWPOLYLINE
  5
2F5
330
2ED
100
AcDbEntity
  8
寸法
  6
Continuous
100
AcDbPolyline
 90
        3
 70
     0
 43
0.0
 10
-57.84072323354485
 20
-98.64651792880613
 10
-67.49998149643216
 20
-96.05832747778186
 10
-57.84072323354485
 20
-93.47013702675758
  0
LWPOLYLINE
  5
2F6
330
2ED
100
AcDbEntity
  8
寸法
  6
Continuous
100
AcDbPolyline
 90
        3
 70
     0
 43
0.0
 10
57.84076024068054
 20
-93.47013702675758
 10
67.50001850356784
 20
-96.05832747778186
 10
57.84076024068054
 20
-98.64651792880613
  0
ENDBLK
  5
2EF
330
2ED
100
AcDbEntity
  8
0
100
AcDbBlockEnd
  0
BLOCK
  5
304
330
303
100
AcDbEntity
  8
0
100
AcDbBlockBegin
  2
INS-GXC2Y
 70
     0
 10
0.0
 20
0.0
 30
0.0
  3
INS-GXC2Y
  1

  0
TEXT
  5
307
330
303
100
AcDbEntity
  8
03-文字-2
100
AcDbText
 10
-42.49955734812102
 20
3.863235289813893
 30
0.0
 40
24.9775
  1
ＶＰ管
 41
0.998071409144555
 11
-42.49955734812102
 21
28.84073528981389
 31
0.0
100
AcDbText
 73
     3
  0
TEXT
  5
308
330
303
100
AcDbEntity
  8
03-文字-2
100
AcDbText
 10
-42.49955734812102
 20
-28.0667647101864
 30
0.0
 40
24.9775
  1
ＶＵ管
 41
0.998071409144555
 11
-42.49955734812102
 21
-3.089264710186399
 31
0.0
100
AcDbText
 73
     3
  0
ENDBLK
  5
305
330
303
100
AcDbEntity
  8
0
100
AcDbBlockEnd
  0
BLOCK
  5
31A
330
319
100
AcDbEntity
  8
0
100
AcDbBlockBegin
  2
INS-D3Q5A
 70
     0
 10
0.0
 20
0.0
 30
0.0
  3
INS-D3Q5A
  1

  0
TEXT
  5
31D
330
319
100
AcDbEntity
  8
寸法
  6
Continuous
100
AcDbText
 10
-18.53998149643215
 20
-31.74161111111243
 30
0.0
 40
19.982
  1
50
 41
1.089505144794249
 72
     1
 11
0.0000185035678442
 21
-31.74161111111243
 31
0.0
100
AcDbText
  0
LINE
  5
31E
330
319
100
AcDbEntity
  8
寸法
  6
Continuous
100
AcDbLine
 10
25.00001850356784
 20
45.04449999999633
 30
0.0
 11
25.00001850356784
 21
-41.45550000000367
 31
0.0
  0
LINE
  5
31F
330
319
100
AcDbEntity
  8
寸法
  6
Continuous
100
AcDbLine
 10
-24.99998149643216
 20
45.04449999999633
 30
0.0
 11
-24.99998149643216
 21
-41.45550000000367
 31
0.0
  0
LINE
  5
320
330
319
100
AcDbEntity
  8
寸法
  6
Continuous
100
AcDbLine
 10
-24.99998149643216
 20
-41.45550000000367
 30
0.0
 11
25.00001850356784
 21
-41.45550000000367
 31
0.0
  0
LWPOLYLINE
  5
321
330
319
100
AcDbEntity
  8
寸法
  6
Continuous
100
AcDbPolyline
 90
        3
 70
     0
 43
0.0
 10
-15.34072323354485
 20
-44.04369045102794
 10
-24.99998149643216
 20
-41.45550000000367
 10
-15.34072323354485
 20
-38.86730954897939
  0
LWPOLYLINE
  5
322
330
319
100
AcDbEntity
  8
寸法
  6
Continuous
100
AcDbPolyline
 90
        3
 70
     0
 43
0.0
 10
15.34076024068054
 20
-38.86730954897939
 10
25.00001850356784
 20
-41.45550000000367
 10
15.34076024068054
 20
-44.04369045102794
  0
ENDBLK
  5
31B
330
319
100
AcDbEntity
  8
0
100
AcDbBlockEnd
  0
BLOCK
  5
324
330
323
100
AcDbEntity
  8
0
100
AcDbBlockBegin
  2
INS-D5745
 70
     0
 10
0.0
 20
0.0
 30
0.0
  3
INS-D5745
  1

  0
TEXT
  5
327
330
323
100
AcDbEntity
  8
寸法
  6
Continuous
100
AcDbText
 10
-15.17998149643215
 20
-69.50000000000364
 30
0.0
 40
19.982
  1
10
 41
1.089505144794249
 72
     1
 11
0.0000185035678442
 21
-69.50000000000364
 31
0.0
100
AcDbText
  0
LINE
  5
328
330
323
100
AcDbEntity
  8
寸法
  6
Continuous
100
AcDbLine
 10
5.000018503567844
 20
70.49999999999636
 30
0.0
 11
5.000018503567844
 21
-38.80000000000291
 31
0.0
  0
LINE
  5
329
330
323
100
AcDbEntity
  8
寸法
  6
Continuous
100
AcDbLine
 10
-4.999981496432156
 20
47.69999999999709
 30
0.0
 11
-4.999981496432156
 21
-38.80000000000291
 31
0.0
  0
LINE
  5
32A
330
323
100
AcDbEntity
  8
寸法
  6
Continuous
100
AcDbLine
 10
-4.999981496432156
 20
-38.80000000000291
 30
0.0
 11
5.000018503567844
 21
-38.80000000000291
 31
0.0
  0
ENDBLK
  5
325
330
323
100
AcDbEntity
  8
0
100
AcDbBlockEnd
  0
BLOCK
  5
32C
330
32B
100
AcDbEntity
  8
0
100
AcDbBlockBegin
  2
INS-D73KK
 70
     0
 10
0.0
 20
0.0
 30
0.0
  3
INS-D73KK
  1

  0
TEXT
  5
32F
330
32B
100
AcDbEntity
  8
寸法
  6
Continuous
100
AcDbText
 10
-20.27998149643216
 20
-43.14161111111389
 30
0.0
 40
19.982
  1
75
 41
1.089505144794249
 72
     1
 11
0.0000185035678442
 21
-43.14161111111389
 31
0.0
100
AcDbText
  0
LINE
  5
330
330
32B
100
AcDbEntity
  8
寸法
  6
Continuous
100
AcDbLine
 10
37.50001850356784
 20
56.44449999999415
 30
0.0
 11
37.50001850356784
 21
-52.85550000000512
 31
0.0
  0
LINE
  5
331
330
32B
100
AcDbEntity
  8
寸法
  6
Continuous
100
AcDbLine
 10
-37.49998149643216
 20
56.44449999999415
 30
0.0
 11
-37.49998149643216
 21
-52.85550000000512
 31
0.0
  0
LINE
  5
332
330
32B
100
AcDbEntity
  8
寸法
  6
Continuous
100
AcDbLine
 10
-37.49998149643216
 20
-52.85550000000512
 30
0.0
 11
37.50001850356784
 21
-52.85550000000512
 31
0.0
  0
LWPOLYLINE
  5
333
330
32B
100
AcDbEntity
  8
寸法
  6
Continuous
100
AcDbPolyline
 90
        3
 70
     0
 43
0.0
 10
-27.84072323354485
 20
-55.4436904510294
 10
-37.49998149643216
 20
-52.85550000000512
 10
-27.84072323354485
 20
-50.26730954898085
  0
LWPOLYLINE
  5
334
330
32B
100
AcDbEntity
  8
寸法
  6
Continuous
100
AcDbPolyline
 90
        3
 70
     0
 43
0.0
 10
27.84076024068054
 20
-50.26730954898085
 10
37.50001850356784
 20
-52.85550000000512
 10
27.84076024068054
 20
-55.4436904510294
  0
ENDBLK
  5
32D
330
32B
100
AcDbEntity
  8
0
100
AcDbBlockEnd
  0
BLOCK
  5
340
330
33F
100
AcDbEntity
  8
0
100
AcDbBlockBegin
  2
INS-DWBA8
 70
     0
 10
0.0
 20
0.0
 30
0.0
  3
INS-DWBA8
  1

  0
TEXT
  5
343
330
33F
100
AcDbEntity
  8
寸法
  6
Continuous
100
AcDbText
 10
-23.40171651534911
 20
-63.06000000000363
 30
0.0
 40
19.982
  1
内径φ217
 50
90.0
 41
1.025966251272801
 72
     1
 11
-23.40171651534911
 21
-0.000000000003638
 31
0.0
100
AcDbText
  0
LINE
  5
344
330
33F
100
AcDbEntity
  8
寸法
  6
Continuous
100
AcDbLine
 10
45.00201850356825
 20
-108.5000000000036
 30
0.0
 11
-13.40171651534911
 21
-108.5000000000036
 31
0.0
  0
LINE
  5
345
330
33F
100
AcDbEntity
  8
寸法
  6
Continuous
100
AcDbLine
 10
45.00201850356825
 20
108.4999999999964
 30
0.0
 11
-13.40171651534911
 21
108.4999999999964
 31
0.0
  0
LINE
  5
346
330
33F
100
AcDbEntity
  8
寸法
  6
Continuous
100
AcDbLine
 10
-13.40171651534911
 20
108.4999999999964
 30
0.0
 11
-13.40171651534911
 21
-108.5000000000036
 31
0.0
  0
LWPOLYLINE
  5
347
330
33F
100
AcDbEntity
  8
寸法
  6
Continuous
100
AcDbPolyline
 90
        3
 70
     0
 43
0.0
 10
-15.98990696637338
 20
98.84074173710542
 10
-13.40171651534911
 20
108.4999999999964
 10
-10.81352606432483
 20
98.84074173710542
  0
LWPOLYLINE
  5
348
330
33F
100
AcDbEntity
  8
寸法
  6
Continuous
100
AcDbPolyline
 90
        3
 70
     0
 43
0.0
 10
-10.81352606432483
 20
-98.8407417371127
 10
-13.40171651534911
 20
-108.5000000000036
 10
-15.98990696637338
 20
-98.8407417371127
  0
ENDBLK
  5
341
330
33F
100
AcDbEntity
  8
0
100
AcDbBlockEnd
  0
BLOCK
  5
34A
330
349
100
AcDbEntity
  8
0
100
AcDbBlockBegin
  2
INS-DDIEZ
 70
     0
 10
0.0
 20
0.0
 30
0.0
  3
INS-DDIEZ
  1

  0
TEXT
  5
34D
330
349
100
AcDbEntity
  8
寸法
  6
Continuous
100
AcDbText
 10
23.02206164231756
 20
-63.06000000000363
 30
0.0
 40
19.982
  1
外径φ198
 50
90.0
 41
1.025966251272801
 72
     1
 11
23.02206164231756
 21
-0.0000000000036309
 31
0.0
100
AcDbText
  0
LINE
  5
34E
330
349
100
AcDbEntity
  8
寸法
  6
Continuous
100
AcDbLine
 10
-36.3099814964371
 20
-99.00000000000364
 30
0.0
 11
32.72206164231466
 21
-99.00000000000364
 31
0.0
  0
LINE
  5
34F
330
349
100
AcDbEntity
  8
寸法
  6
Continuous
100
AcDbLine
 10
-36.3099814964371
 20
98.99999999999636
 30
0.0
 11
32.72206164231466
 21
98.99999999999636
 31
0.0
  0
LINE
  5
350
330
349
100
AcDbEntity
  8
寸法
  6
Continuous
100
AcDbLine
 10
32.72206164231466
 20
98.99999999999636
 30
0.0
 11
32.72206164231466
 21
-99.00000000000364
 31
0.0
  0
LWPOLYLINE
  5
351
330
349
100
AcDbEntity
  8
寸法
  6
Continuous
100
AcDbPolyline
 90
        3
 70
     0
 43
0.0
 10
30.13387119129038
 20
89.34074173710542
 10
32.72206164231466
 20
98.99999999999636
 10
35.31025209333893
 20
89.34074173710542
  0
LWPOLYLINE
  5
352
330
349
100
AcDbEntity
  8
寸法
  6
Continuous
100
AcDbPolyline
 90
        3
 70
     0
 43
0.0
 10
35.31025209333893
 20
-89.3407417371127
 10
32.72206164231466
 20
-99.00000000000364
 10
30.13387119129038
 20
-89.3407417371127
  0
ENDBLK
  5
34B
330
349
100
AcDbEntity
  8
0
100
AcDbBlockEnd
  0
BLOCK
  5
354
330
353
100
AcDbEntity
  8
0
100
AcDbBlockBegin
  2
INS-DOD2E
 70
     0
 10
0.0
 20
0.0
 30
0.0
  3
INS-DOD2E
  1

  0
TEXT
  5
357
330
353
100
AcDbEntity
  8
寸法
  6
Continuous
100
AcDbText
 10
-23.69998149643216
 20
-80.09443858889063
 30
0.0
 40
19.982
  1
115
 41
1.056781492035411
 72
     1
 11
0.0000185035678442
 21
-80.09443858889063
 31
0.0
100
AcDbText
  0
LINE
  5
358
330
353
100
AcDbEntity
  8
寸法
  6
Continuous
100
AcDbLine
 10
57.50001850356784
 20
93.39749999999549
 30
0.0
 11
57.50001850356784
 21
-89.80832747778186
 31
0.0
  0
LINE
  5
359
330
353
100
AcDbEntity
  8
寸法
  6
Continuous
100
AcDbLine
 10
-57.49998149643216
 20
83.09749999999622
 30
0.0
 11
-57.49998149643216
 21
-89.80832747778186
 31
0.0
  0
LINE
  5
35A
330
353
100
AcDbEntity
  8
寸法
  6
Continuous
100
AcDbLine
 10
-57.49998149643216
 20
-89.80832747778186
 30
0.0
 11
57.50001850356784
 21
-89.80832747778186
 31
0.0
  0
LWPOLYLINE
  5
35B
330
353
100
AcDbEntity
  8
寸法
  6
Continuous
100
AcDbPolyline
 90
        3
 70
     0
 43
0.0
 10
-47.84072323354485
 20
-92.39651792880613
 10
-57.49998149643216
 20
-89.80832747778186
 10
-47.84072323354485
 20
-87.22013702675758
  0
LWPOLYLINE
  5
35C
330
353
100
AcDbEntity
  8
寸法
  6
Continuous
100
AcDbPolyline
 90
        3
 70
     0
 43
0.0
 10
47.84076024068054
 20
-87.22013702675758
 10
57.50001850356784
 20
-89.80832747778186
 10
47.84076024068054
 20
-92.39651792880613
  0
ENDBLK
  5
355
330
353
100
AcDbEntity
  8
0
100
AcDbBlockEnd
  0
BLOCK
  5
36A
330
369
100
AcDbEntity
  8
0
100
AcDbBlockBegin
  2
INS-G553P
 70
     0
 10
0.0
 20
0.0
 30
0.0
  3
INS-G553P
  1

  0
TEXT
  5
36D
330
369
100
AcDbEntity
  8
03-文字-2
100
AcDbText
 10
-42.49955734812102
 20
3.863235289813893
 30
0.0
 40
24.9775
  1
ＶＰ管
 41
0.998071409144555
 11
-42.49955734812102
 21
28.84073528981389
 31
0.0
100
AcDbText
 73
     3
  0
TEXT
  5
36E
330
369
100
AcDbEntity
  8
03-文字-2
100
AcDbText
 10
-42.49955734812102
 20
-28.0667647101864
 30
0.0
 40
24.9775
  1
ＶＵ管
 41
0.998071409144555
 11
-42.49955734812102
 21
-3.089264710186399
 31
0.0
100
AcDbText
 73
     3
  0
ENDBLK
  5
36B
330
369
100
AcDbEntity
  8
0
100
AcDbBlockEnd
  0
BLOCK
  5
380
330
37F
100
AcDbEntity
  8
0
100
AcDbBlockBegin
  2
INS-D7KY4
 70
     0
 10
0.0
 20
0.0
 30
0.0
  3
INS-D7KY4
  1

  0
TEXT
  5
383
330
37F
100
AcDbEntity
  8
寸法
  6
Continuous
100
AcDbText
 10
-18.53998149643215
 20
-31.74161111111243
 30
0.0
 40
19.982
  1
50
 41
1.089505144794249
 72
     1
 11
0.0000185035678442
 21
-31.74161111111243
 31
0.0
100
AcDbText
  0
LINE
  5
384
330
37F
100
AcDbEntity
  8
寸法
  6
Continuous
100
AcDbLine
 10
25.00001850356784
 20
45.04449999999633
 30
0.0
 11
25.00001850356784
 21
-41.45550000000367
 31
0.0
  0
LINE
  5
385
330
37F
100
AcDbEntity
  8
寸法
  6
Continuous
100
AcDbLine
 10
-24.99998149643216
 20
45.04449999999633
 30
0.0
 11
-24.99998149643216
 21
-41.45550000000367
 31
0.0
  0
LINE
  5
386
330
37F
100
AcDbEntity
  8
寸法
  6
Continuous
100
AcDbLine
 10
-24.99998149643216
 20
-41.45550000000367
 30
0.0
 11
25.00001850356784
 21
-41.45550000000367
 31
0.0
  0
LWPOLYLINE
  5
387
330
37F
100
AcDbEntity
  8
寸法
  6
Continuous
100
AcDbPolyline
 90
        3
 70
     0
 43
0.0
 10
-15.34072323354485
 20
-44.04369045102794
 10
-24.99998149643216
 20
-41.45550000000367
 10
-15.34072323354485
 20
-38.86730954897939
  0
LWPOLYLINE
  5
388
330
37F
100
AcDbEntity
  8
寸法
  6
Continuous
100
AcDbPolyline
 90
        3
 70
     0
 43
0.0
 10
15.34076024068054
 20
-38.86730954897939
 10
25.00001850356784
 20
-41.45550000000367
 10
15.34076024068054
 20
-44.04369045102794
  0
ENDBLK
  5
381
330
37F
100
AcDbEntity
  8
0
100
AcDbBlockEnd
  0
BLOCK
  5
38A
330
389
100
AcDbEntity
  8
0
100
AcDbBlockBegin
  2
INS-D4E7W
 70
     0
 10
0.0
 20
0.0
 30
0.0
  3
INS-D4E7W
  1

  0
TEXT
  5
38D
330
389
100
AcDbEntity
  8
寸法
  6
Continuous
100
AcDbText
 10
-15.17998149643215
 20
-63.25000000000364
 30
0.0
 40
19.982
  1
10
 41
1.089505144794249
 72
     1
 11
0.0000185035678442
 21
-63.25000000000364
 31
0.0
100
AcDbText
  0
LINE
  5
38E
330
389
100
AcDbEntity
  8
寸法
  6
Continuous
100
AcDbLine
 10
5.000018503567844
 20
64.24999999999636
 30
0.0
 11
5.000018503567844
 21
-32.55000000000291
 31
0.0
  0
LINE
  5
38F
330
389
100
AcDbEntity
  8
寸法
  6
Continuous
100
AcDbLine
 10
-4.999981496432156
 20
53.94999999999709
 30
0.0
 11
-4.999981496432156
 21
-32.55000000000291
 31
0.0
  0
LINE
  5
390
330
389
100
AcDbEntity
  8
寸法
  6
Continuous
100
AcDbLine
 10
-4.999981496432156
 20
-32.55000000000291
 30
0.0
 11
5.000018503567844
 21
-32.55000000000291
 31
0.0
  0
ENDBLK
  5
38B
330
389
100
AcDbEntity
  8
0
100
AcDbBlockEnd
  0
BLOCK
  5
392
330
391
100
AcDbEntity
  8
0
100
AcDbBlockBegin
  2
INS-DLCF3
 70
     0
 10
0.0
 20
0.0
 30
0.0
  3
INS-DLCF3
  1

  0
TEXT
  5
395
330
391
100
AcDbEntity
  8
寸法
  6
Continuous
100
AcDbText
 10
-20.27998149643216
 20
-36.87772222222702
 30
0.0
 40
19.982
  1
55
 41
1.089505144794249
 72
     1
 11
0.0000185035678442
 21
-36.87772222222702
 31
0.0
100
AcDbText
  0
LINE
  5
396
330
391
100
AcDbEntity
  8
寸法
  6
Continuous
100
AcDbLine
 10
27.50001850356784
 20
50.19449999999415
 30
0.0
 11
27.50001850356784
 21
-46.60550000000512
 31
0.0
  0
LINE
  5
397
330
391
100
AcDbEntity
  8
寸法
  6
Continuous
100
AcDbLine
 10
-27.49998149643216
 20
50.19449999999415
 30
0.0
 11
-27.49998149643216
 21
-46.60550000000512
 31
0.0
  0
LINE
  5
398
330
391
100
AcDbEntity
  8
寸法
  6
Continuous
100
AcDbLine
 10
-27.49998149643216
 20
-46.60550000000512
 30
0.0
 11
27.50001850356784
 21
-46.60550000000512
 31
0.0
  0
LWPOLYLINE
  5
399
330
391
100
AcDbEntity
  8
寸法
  6
Continuous
100
AcDbPolyline
 90
        3
 70
     0
 43
0.0
 10
-17.84072323354485
 20
-49.1936904510294
 10
-27.49998149643216
 20
-46.60550000000512
 10
-17.84072323354485
 20
-44.01730954898085
  0
LWPOLYLINE
  5
39A
330
391
100
AcDbEntity
  8
寸法
  6
Continuous
100
AcDbPolyline
 90
        3
 70
     0
 43
0.0
 10
17.84076024068054
 20
-44.01730954898085
 10
27.50001850356784
 20
-46.60550000000512
 10
17.84076024068054
 20
-49.1936904510294
  0
ENDBLK
  5
393
330
391
100
AcDbEntity
  8
0
100
AcDbBlockEnd
  0
BLOCK
  5
3A6
330
3A5
100
AcDbEntity
  8
0
100
AcDbBlockBegin
  2
INS-D43IU
 70
     0
 10
0.0
 20
0.0
 30
0.0
  3
INS-D43IU
  1

  0
TEXT
  5
3A9
330
3A5
100
AcDbEntity
  8
寸法
  6
Continuous
100
AcDbText
 10
-23.4017165153491
 20
-66.42000000000363
 30
0.0
 40
19.982
  1
内径φ243
 50
90.0
 41
1.025966251272801
 72
     1
 11
-23.4017165153491
 21
-0.000000000003638
 31
0.0
100
AcDbText
  0
LINE
  5
3AA
330
3A5
100
AcDbEntity
  8
寸法
  6
Continuous
100
AcDbLine
 10
45.00201850356825
 20
-121.5000000000036
 30
0.0
 11
-13.40171651534911
 21
-121.5000000000036
 31
0.0
  0
LINE
  5
3AB
330
3A5
100
AcDbEntity
  8
寸法
  6
Continuous
100
AcDbLine
 10
45.00201850356825
 20
121.4999999999964
 30
0.0
 11
-13.40171651534911
 21
121.4999999999964
 31
0.0
  0
LINE
  5
3AC
330
3A5
100
AcDbEntity
  8
寸法
  6
Continuous
100
AcDbLine
 10
-13.40171651534911
 20
121.4999999999964
 30
0.0
 11
-13.40171651534911
 21
-121.5000000000036
 31
0.0
  0
LWPOLYLINE
  5
3AD
330
3A5
100
AcDbEntity
  8
寸法
  6
Continuous
100
AcDbPolyline
 90
        3
 70
     0
 43
0.0
 10
-15.98990696637338
 20
111.8407417371054
 10
-13.40171651534911
 20
121.4999999999964
 10
-10.81352606432483
 20
111.8407417371054
  0
LWPOLYLINE
  5
3AE
330
3A5
100
AcDbEntity
  8
寸法
  6
Continuous
100
AcDbPolyline
 90
        3
 70
     0
 43
0.0
 10
-10.81352606432483
 20
-111.8407417371127
 10
-13.40171651534911
 20
-121.5000000000036
 10
-15.98990696637338
 20
-111.8407417371127
  0
ENDBLK
  5
3A7
330
3A5
100
AcDbEntity
  8
0
100
AcDbBlockEnd
  0
BLOCK
  5
3B0
330
3AF
100
AcDbEntity
  8
0
100
AcDbBlockBegin
  2
INS-DROZ5
 70
     0
 10
0.0
 20
0.0
 30
0.0
  3
INS-DROZ5
  1

  0
TEXT
  5
3B3
330
3AF
100
AcDbEntity
  8
寸法
  6
Continuous
100
AcDbText
 10
23.02206164231757
 20
-66.42000000000365
 30
0.0
 40
19.982
  1
外径φ224
 50
90.0
 41
1.025966251272801
 72
     1
 11
23.02206164231757
 21
-0.0000000000036522
 31
0.0
100
AcDbText
  0
LINE
  5
3B4
330
3AF
100
AcDbEntity
  8
寸法
  6
Continuous
100
AcDbLine
 10
-36.3099814964371
 20
-112.0000000000036
 30
0.0
 11
32.72206164231466
 21
-112.0000000000036
 31
0.0
  0
LINE
  5
3B5
330
3AF
100
AcDbEntity
  8
寸法
  6
Continuous
100
AcDbLine
 10
-36.3099814964371
 20
111.9999999999964
 30
0.0
 11
32.72206164231466
 21
111.9999999999964
 31
0.0
  0
LINE
  5
3B6
330
3AF
100
AcDbEntity
  8
寸法
  6
Continuous
100
AcDbLine
 10
32.72206164231466
 20
111.9999999999964
 30
0.0
 11
32.72206164231466
 21
-112.0000000000036
 31
0.0
  0
LWPOLYLINE
  5
3B7
330
3AF
100
AcDbEntity
  8
寸法
  6
Continuous
100
AcDbPolyline
 90
        3
 70
     0
 43
0.0
 10
30.13387119129038
 20
102.3407417371054
 10
32.72206164231466
 20
111.9999999999964
 10
35.31025209333893
 20
102.3407417371054
  0
LWPOLYLINE
  5
3B8
330
3AF
100
AcDbEntity
  8
寸法
  6
Continuous
100
AcDbPolyline
 90
        3
 70
     0
 43
0.0
 10
35.31025209333893
 20
-102.3407417371127
 10
32.72206164231466
 20
-112.0000000000036
 10
30.13387119129038
 20
-102.3407417371127
  0
ENDBLK
  5
3B1
330
3AF
100
AcDbEntity
  8
0
100
AcDbBlockEnd
  0
BLOCK
  5
3BA
330
3B9
100
AcDbEntity
  8
0
100
AcDbBlockBegin
  2
INS-D78A4
 70
     0
 10
0.0
 20
0.0
 30
0.0
  3
INS-D78A4
  1

  0
TEXT
  5
3BD
330
3B9
100
AcDbEntity
  8
寸法
  6
Continuous
100
AcDbText
 10
-23.69998149643216
 20
-73.59443858889063
 30
0.0
 40
19.982
  1
115
 41
1.056781492035411
 72
     1
 11
0.0000185035678442
 21
-73.59443858889063
 31
0.0
100
AcDbText
  0
LINE
  5
3BE
330
3B9
100
AcDbEntity
  8
寸法
  6
Continuous
100
AcDbLine
 10
57.50001850356784
 20
86.89749999999549
 30
0.0
 11
57.50001850356784
 21
-83.30832747778186
 31
0.0
  0
LINE
  5
3BF
330
3B9
100
AcDbEntity
  8
寸法
  6
Continuous
100
AcDbLine
 10
-57.49998149643216
 20
76.59749999999622
 30
0.0
 11
-57.49998149643216
 21
-83.30832747778186
 31
0.0
  0
LINE
  5
3C0
330
3B9
100
AcDbEntity
  8
寸法
  6
Continuous
100
AcDbLine
 10
-57.49998149643216
 20
-83.30832747778186
 30
0.0
 11
57.50001850356784
 21
-83.30832747778186
 31
0.0
  0
LWPOLYLINE
  5
3C1
330
3B9
100
AcDbEntity
  8
寸法
  6
Continuous
100
AcDbPolyline
 90
        3
 70
     0
 43
0.0
 10
-47.84072323354485
 20
-85.89651792880613
 10
-57.49998149643216
 20
-83.30832747778186
 10
-47.84072323354485
 20
-80.72013702675758
  0
LWPOLYLINE
  5
3C2
330
3B9
100
AcDbEntity
  8
寸法
  6
Continuous
100
AcDbPolyline
 90
        3
 70
     0
 43
0.0
 10
47.84076024068054
 20
-80.72013702675758
 10
57.50001850356784
 20
-83.30832747778186
 10
47.84076024068054
 20
-85.89651792880613
  0
ENDBLK
  5
3BB
330
3B9
100
AcDbEntity
  8
0
100
AcDbBlockEnd
  0
BLOCK
  5
3D0
330
3CF
100
AcDbEntity
  8
0
100
AcDbBlockBegin
  2
INS-GJXR8
 70
     0
 10
0.0
 20
0.0
 30
0.0
  3
INS-GJXR8
  1

  0
TEXT
  5
3D3
330
3CF
100
AcDbEntity
  8
03-文字-2
100
AcDbText
 10
-42.49955734812102
 20
3.863235289813893
 30
0.0
 40
24.9775
  1
ＶＰ管
 41
0.998071409144555
 11
-42.49955734812102
 21
28.84073528981389
 31
0.0
100
AcDbText
 73
     3
  0
TEXT
  5
3D4
330
3CF
100
AcDbEntity
  8
03-文字-2
100
AcDbText
 10
-42.49955734812102
 20
-28.0667647101864
 30
0.0
 40
24.9775
  1
ＶＵ管
 41
0.998071409144555
 11
-42.49955734812102
 21
-3.089264710186399
 31
0.0
100
AcDbText
 73
     3
  0
ENDBLK
  5
3D1
330
3CF
100
AcDbEntity
  8
0
100
AcDbBlockEnd
  0
BLOCK
  5
3D8
330
3D7
100
AcDbEntity
  8
0
100
AcDbBlockBegin
  2
INS-DUSWA
 70
     0
 10
0.0
 20
0.0
 30
0.0
  3
INS-DUSWA
  1

  0
TEXT
  5
3DB
330
3D7
100
AcDbEntity
  8
寸法
  6
Continuous
100
AcDbText
 10
-18.53998149643215
 20
-25.24161111111243
 30
0.0
 40
19.982
  1
50
 41
1.089505144794249
 72
     1
 11
0.0000185035678442
 21
-25.24161111111243
 31
0.0
100
AcDbText
  0
LINE
  5
3DC
330
3D7
100
AcDbEntity
  8
寸法
  6
Continuous
100
AcDbLine
 10
25.00001850356784
 20
38.54449999999633
 30
0.0
 11
25.00001850356784
 21
-34.95550000000367
 31
0.0
  0
LINE
  5
3DD
330
3D7
100
AcDbEntity
  8
寸法
  6
Continuous
100
AcDbLine
 10
-24.99998149643216
 20
38.54449999999633
 30
0.0
 11
-24.99998149643216
 21
-34.95550000000367
 31
0.0
  0
LINE
  5
3DE
330
3D7
100
AcDbEntity
  8
寸法
  6
Continuous
100
AcDbLine
 10
-24.99998149643216
 20
-34.95550000000367
 30
0.0
 11
25.00001850356784
 21
-34.95550000000367
 31
0.0
  0
LWPOLYLINE
  5
3DF
330
3D7
100
AcDbEntity
  8
寸法
  6
Continuous
100
AcDbPolyline
 90
        3
 70
     0
 43
0.0
 10
-15.34072323354485
 20
-37.54369045102794
 10
-24.99998149643216
 20
-34.95550000000367
 10
-15.34072323354485
 20
-32.36730954897939
  0
LWPOLYLINE
  5
3E0
330
3D7
100
AcDbEntity
  8
寸法
  6
Continuous
100
AcDbPolyline
 90
        3
 70
     0
 43
0.0
 10
15.34076024068054
 20
-32.36730954897939
 10
25.00001850356784
 20
-34.95550000000367
 10
15.34076024068054
 20
-37.54369045102794
  0
ENDBLK
  5
3D9
330
3D7
100
AcDbEntity
  8
0
100
AcDbBlockEnd
  0
BLOCK
  5
3E2
330
3E1
100
AcDbEntity
  8
0
100
AcDbBlockBegin
  2
INS-D4DI9
 70
     0
 10
0.0
 20
0.0
 30
0.0
  3
INS-D4DI9
  1

  0
TEXT
  5
3E5
330
3E1
100
AcDbEntity
  8
寸法
  6
Continuous
100
AcDbText
 10
-15.17998149643215
 20
-56.75000000000364
 30
0.0
 40
19.982
  1
10
 41
1.089505144794249
 72
     1
 11
0.0000185035678442
 21
-56.75000000000364
 31
0.0
100
AcDbText
  0
LINE
  5
3E6
330
3E1
100
AcDbEntity
  8
寸法
  6
Continuous
100
AcDbLine
 10
5.000018503567844
 20
57.74999999999636
 30
0.0
 11
5.000018503567844
 21
-26.05000000000291
 31
0.0
  0
LINE
  5
3E7
330
3E1
100
AcDbEntity
  8
寸法
  6
Continuous
100
AcDbLine
 10
-4.999981496432156
 20
47.44999999999709
 30
0.0
 11
-4.999981496432156
 21
-26.05000000000291
 31
0.0
  0
LINE
  5
3E8
330
3E1
100
AcDbEntity
  8
寸法
  6
Continuous
100
AcDbLine
 10
-4.999981496432156
 20
-26.05000000000291
 30
0.0
 11
5.000018503567844
 21
-26.05000000000291
 31
0.0
  0
ENDBLK
  5
3E3
330
3E1
100
AcDbEntity
  8
0
100
AcDbBlockEnd
  0
BLOCK
  5
3EA
330
3E9
100
AcDbEntity
  8
0
100
AcDbBlockBegin
  2
INS-D7IBB
 70
     0
 10
0.0
 20
0.0
 30
0.0
  3
INS-D7IBB
  1

  0
TEXT
  5
3ED
330
3E9
100
AcDbEntity
  8
寸法
  6
Continuous
100
AcDbText
 10
-20.27998149643216
 20
-30.37772222222702
 30
0.0
 40
19.982
  1
55
 41
1.089505144794249
 72
     1
 11
0.0000185035678442
 21
-30.37772222222702
 31
0.0
100
AcDbText
  0
LINE
  5
3EE
330
3E9
100
AcDbEntity
  8
寸法
  6
Continuous
100
AcDbLine
 10
27.50001850356784
 20
43.69449999999415
 30
0.0
 11
27.50001850356784
 21
-40.10550000000512
 31
0.0
  0
LINE
  5
3EF
330
3E9
100
AcDbEntity
  8
寸法
  6
Continuous
100
AcDbLine
 10
-27.49998149643216
 20
43.69449999999415
 30
0.0
 11
-27.49998149643216
 21
-40.10550000000512
 31
0.0
  0
LINE
  5
3F0
330
3E9
100
AcDbEntity
  8
寸法
  6
Continuous
100
AcDbLine
 10
-27.49998149643216
 20
-40.10550000000512
 30
0.0
 11
27.50001850356784
 21
-40.10550000000512
 31
0.0
  0
LWPOLYLINE
  5
3F1
330
3E9
100
AcDbEntity
  8
寸法
  6
Continuous
100
AcDbPolyline
 90
        3
 70
     0
 43
0.0
 10
-17.84072323354485
 20
-42.6936904510294
 10
-27.49998149643216
 20
-40.10550000000512
 10
-17.84072323354485
 20
-37.51730954898085
  0
LWPOLYLINE
  5
3F2
330
3E9
100
AcDbEntity
  8
寸法
  6
Continuous
100
AcDbPolyline
 90
        3
 70
     0
 43
0.0
 10
17.84076024068054
 20
-37.51730954898085
 10
27.50001850356784
 20
-40.10550000000512
 10
17.84076024068054
 20
-42.6936904510294
  0
ENDBLK
  5
3EB
330
3E9
100
AcDbEntity
  8
0
100
AcDbBlockEnd
  0
BLOCK
  5
40E
330
40D
100
AcDbEntity
  8
0
100
AcDbBlockBegin
  2
INS-D3TO9
 70
     0
 10
0.0
 20
0.0
 30
0.0
  3
INS-D3TO9
  1

  0
TEXT
  5
411
330
40D
100
AcDbEntity
  8
寸法
  6
Continuous
100
AcDbText
 10
-23.4017165153491
 20
-66.42000000000363
 30
0.0
 40
19.982
  1
内径φ268
 50
90.0
 41
1.025966251272801
 72
     1
 11
-23.4017165153491
 21
-0.000000000003638
 31
0.0
100
AcDbText
  0
LINE
  5
412
330
40D
100
AcDbEntity
  8
寸法
  6
Continuous
100
AcDbLine
 10
45.00201850356825
 20
-134.0000000000036
 30
0.0
 11
-13.40171651534911
 21
-134.0000000000036
 31
0.0
  0
LINE
  5
413
330
40D
100
AcDbEntity
  8
寸法
  6
Continuous
100
AcDbLine
 10
45.00201850356825
 20
133.9999999999964
 30
0.0
 11
-13.40171651534911
 21
133.9999999999964
 31
0.0
  0
LINE
  5
414
330
40D
100
AcDbEntity
  8
寸法
  6
Continuous
100
AcDbLine
 10
-13.40171651534911
 20
133.9999999999964
 30
0.0
 11
-13.40171651534911
 21
-134.0000000000036
 31
0.0
  0
LWPOLYLINE
  5
415
330
40D
100
AcDbEntity
  8
寸法
  6
Continuous
100
AcDbPolyline
 90
        3
 70
     0
 43
0.0
 10
-15.98990696637338
 20
124.3407417371054
 10
-13.40171651534911
 20
133.9999999999964
 10
-10.81352606432483
 20
124.3407417371054
  0
LWPOLYLINE
  5
416
330
40D
100
AcDbEntity
  8
寸法
  6
Continuous
100
AcDbPolyline
 90
        3
 70
     0
 43
0.0
 10
-10.81352606432483
 20
-124.3407417371127
 10
-13.40171651534911
 20
-134.0000000000036
 10
-15.98990696637338
 20
-124.3407417371127
  0
ENDBLK
  5
40F
330
40D
100
AcDbEntity
  8
0
100
AcDbBlockEnd
  0
BLOCK
  5
418
330
417
100
AcDbEntity
  8
0
100
AcDbBlockBegin
  2
INS-D6W3S
 70
     0
 10
0.0
 20
0.0
 30
0.0
  3
INS-D6W3S
  1

  0
TEXT
  5
41B
330
417
100
AcDbEntity
  8
寸法
  6
Continuous
100
AcDbText
 10
23.02206164231757
 20
-66.42000000000365
 30
0.0
 40
19.982
  1
外径φ224
 50
90.0
 41
1.025966251272801
 72
     1
 11
23.02206164231757
 21
-0.0000000000036522
 31
0.0
100
AcDbText
  0
LINE
  5
41C
330
417
100
AcDbEntity
  8
寸法
  6
Continuous
100
AcDbLine
 10
-36.3099814964371
 20
-112.0000000000036
 30
0.0
 11
32.72206164231466
 21
-112.0000000000036
 31
0.0
  0
LINE
  5
41D
330
417
100
AcDbEntity
  8
寸法
  6
Continuous
100
AcDbLine
 10
-36.3099814964371
 20
111.9999999999964
 30
0.0
 11
32.72206164231466
 21
111.9999999999964
 31
0.0
  0
LINE
  5
41E
330
417
100
AcDbEntity
  8
寸法
  6
Continuous
100
AcDbLine
 10
32.72206164231466
 20
111.9999999999964
 30
0.0
 11
32.72206164231466
 21
-112.0000000000036
 31
0.0
  0
LWPOLYLINE
  5
41F
330
417
100
AcDbEntity
  8
寸法
  6
Continuous
100
AcDbPolyline
 90
        3
 70
     0
 43
0.0
 10
30.13387119129038
 20
102.3407417371054
 10
32.72206164231466
 20
111.9999999999964
 10
35.31025209333893
 20
102.3407417371054
  0
LWPOLYLINE
  5
420
330
417
100
AcDbEntity
  8
寸法
  6
Continuous
100
AcDbPolyline
 90
        3
 70
     0
 43
0.0
 10
35.31025209333893
 20
-102.3407417371127
 10
32.72206164231466
 20
-112.0000000000036
 10
30.13387119129038
 20
-102.3407417371127
  0
ENDBLK
  5
419
330
417
100
AcDbEntity
  8
0
100
AcDbBlockEnd
  0
BLOCK
  5
422
330
421
100
AcDbEntity
  8
0
100
AcDbBlockBegin
  2
INS-D57KE
 70
     0
 10
0.0
 20
0.0
 30
0.0
  3
INS-D57KE
  1

  0
TEXT
  5
425
330
421
100
AcDbEntity
  8
寸法
  6
Continuous
100
AcDbText
 10
-27.05998149643216
 20
-73.59443858889063
 30
0.0
 40
19.982
  1
135
 41
1.056781492035411
 72
     1
 11
0.0000185035678442
 21
-73.59443858889063
 31
0.0
100
AcDbText
  0
LINE
  5
426
330
421
100
AcDbEntity
  8
寸法
  6
Continuous
100
AcDbLine
 10
67.50001850356784
 20
86.89749999999549
 30
0.0
 11
67.50001850356784
 21
-83.30832747778186
 31
0.0
  0
LINE
  5
427
330
421
100
AcDbEntity
  8
寸法
  6
Continuous
100
AcDbLine
 10
-67.49998149643216
 20
64.09749999999622
 30
0.0
 11
-67.49998149643216
 21
-83.30832747778186
 31
0.0
  0
LINE
  5
428
330
421
100
AcDbEntity
  8
寸法
  6
Continuous
100
AcDbLine
 10
-67.49998149643216
 20
-83.30832747778186
 30
0.0
 11
67.50001850356784
 21
-83.30832747778186
 31
0.0
  0
LWPOLYLINE
  5
429
330
421
100
AcDbEntity
  8
寸法
  6
Continuous
100
AcDbPolyline
 90
        3
 70
     0
 43
0.0
 10
-57.84072323354485
 20
-85.89651792880613
 10
-67.49998149643216
 20
-83.30832747778186
 10
-57.84072323354485
 20
-80.72013702675758
  0
LWPOLYLINE
  5
42A
330
421
100
AcDbEntity
  8
寸法
  6
Continuous
100
AcDbPolyline
 90
        3
 70
     0
 43
0.0
 10
57.84076024068054
 20
-80.72013702675758
 10
67.50001850356784
 20
-83.30832747778186
 10
57.84076024068054
 20
-85.89651792880613
  0
ENDBLK
  5
423
330
421
100
AcDbEntity
  8
0
100
AcDbBlockEnd
  0
BLOCK
  5
438
330
437
100
AcDbEntity
  8
0
100
AcDbBlockBegin
  2
INS-G50OH
 70
     0
 10
0.0
 20
0.0
 30
0.0
  3
INS-G50OH
  1

  0
TEXT
  5
43B
330
437
100
AcDbEntity
  8
03-文字-2
100
AcDbText
 10
-42.49955734812102
 20
3.863235289813893
 30
0.0
 40
24.9775
  1
ＶＰ管
 41
0.998071409144555
 11
-42.49955734812102
 21
28.84073528981389
 31
0.0
100
AcDbText
 73
     3
  0
TEXT
  5
43C
330
437
100
AcDbEntity
  8
03-文字-2
100
AcDbText
 10
-42.49955734812102
 20
-28.0667647101864
 30
0.0
 40
24.9775
  1
ＶＵ管
 41
0.998071409144555
 11
-42.49955734812102
 21
-3.089264710186399
 31
0.0
100
AcDbText
 73
     3
  0
ENDBLK
  5
439
330
437
100
AcDbEntity
  8
0
100
AcDbBlockEnd
  0
BLOCK
  5
440
330
43F
100
AcDbEntity
  8
0
100
AcDbBlockBegin
  2
INS-D80J8
 70
     0
 10
0.0
 20
0.0
 30
0.0
  3
INS-D80J8
  1

  0
TEXT
  5
443
330
43F
100
AcDbEntity
  8
寸法
  6
Continuous
100
AcDbText
 10
-18.53998149643215
 20
-18.99161111111243
 30
0.0
 40
19.982
  1
50
 41
1.089505144794249
 72
     1
 11
0.0000185035678442
 21
-18.99161111111243
 31
0.0
100
AcDbText
  0
LINE
  5
444
330
43F
100
AcDbEntity
  8
寸法
  6
Continuous
100
AcDbLine
 10
25.00001850356784
 20
32.29449999999633
 30
0.0
 11
25.00001850356784
 21
-28.70550000000367
 31
0.0
  0
LINE
  5
445
330
43F
100
AcDbEntity
  8
寸法
  6
Continuous
100
AcDbLine
 10
-24.99998149643216
 20
32.29449999999633
 30
0.0
 11
-24.99998149643216
 21
-28.70550000000367
 31
0.0
  0
LINE
  5
446
330
43F
100
AcDbEntity
  8
寸法
  6
Continuous
100
AcDbLine
 10
-24.99998149643216
 20
-28.70550000000367
 30
0.0
 11
25.00001850356784
 21
-28.70550000000367
 31
0.0
  0
LWPOLYLINE
  5
447
330
43F
100
AcDbEntity
  8
寸法
  6
Continuous
100
AcDbPolyline
 90
        3
 70
     0
 43
0.0
 10
-15.34072323354485
 20
-31.29369045102794
 10
-24.99998149643216
 20
-28.70550000000367
 10
-15.34072323354485
 20
-26.11730954897939
  0
LWPOLYLINE
  5
448
330
43F
100
AcDbEntity
  8
寸法
  6
Continuous
100
AcDbPolyline
 90
        3
 70
     0
 43
0.0
 10
15.34076024068054
 20
-26.11730954897939
 10
25.00001850356784
 20
-28.70550000000367
 10
15.34076024068054
 20
-31.29369045102794
  0
ENDBLK
  5
441
330
43F
100
AcDbEntity
  8
0
100
AcDbBlockEnd
  0
BLOCK
  5
44A
330
449
100
AcDbEntity
  8
0
100
AcDbBlockBegin
  2
INS-D6GJN
 70
     0
 10
0.0
 20
0.0
 30
0.0
  3
INS-D6GJN
  1

  0
TEXT
  5
44D
330
449
100
AcDbEntity
  8
寸法
  6
Continuous
100
AcDbText
 10
-15.17998149643215
 20
-56.75000000000364
 30
0.0
 40
19.982
  1
10
 41
1.089505144794249
 72
     1
 11
0.0000185035678442
 21
-56.75000000000364
 31
0.0
100
AcDbText
  0
LINE
  5
44E
330
449
100
AcDbEntity
  8
寸法
  6
Continuous
100
AcDbLine
 10
5.000018503567844
 20
57.74999999999636
 30
0.0
 11
5.000018503567844
 21
-26.05000000000291
 31
0.0
  0
LINE
  5
44F
330
449
100
AcDbEntity
  8
寸法
  6
Continuous
100
AcDbLine
 10
-4.999981496432156
 20
34.94999999999709
 30
0.0
 11
-4.999981496432156
 21
-26.05000000000291
 31
0.0
  0
LINE
  5
450
330
449
100
AcDbEntity
  8
寸法
  6
Continuous
100
AcDbLine
 10
-4.999981496432156
 20
-26.05000000000291
 30
0.0
 11
5.000018503567844
 21
-26.05000000000291
 31
0.0
  0
ENDBLK
  5
44B
330
449
100
AcDbEntity
  8
0
100
AcDbBlockEnd
  0
BLOCK
  5
452
330
451
100
AcDbEntity
  8
0
100
AcDbBlockBegin
  2
INS-DP6ND
 70
     0
 10
0.0
 20
0.0
 30
0.0
  3
INS-DP6ND
  1

  0
TEXT
  5
455
330
451
100
AcDbEntity
  8
寸法
  6
Continuous
100
AcDbText
 10
-20.27998149643216
 20
-30.39161111111389
 30
0.0
 40
19.982
  1
75
 41
1.089505144794249
 72
     1
 11
0.0000185035678442
 21
-30.39161111111389
 31
0.0
100
AcDbText
  0
LINE
  5
456
330
451
100
AcDbEntity
  8
寸法
  6
Continuous
100
AcDbLine
 10
37.50001850356784
 20
43.69449999999415
 30
0.0
 11
37.50001850356784
 21
-40.10550000000512
 31
0.0
  0
LINE
  5
457
330
451
100
AcDbEntity
  8
寸法
  6
Continuous
100
AcDbLine
 10
-37.49998149643216
 20
43.69449999999415
 30
0.0
 11
-37.49998149643216
 21
-40.10550000000512
 31
0.0
  0
LINE
  5
458
330
451
100
AcDbEntity
  8
寸法
  6
Continuous
100
AcDbLine
 10
-37.49998149643216
 20
-40.10550000000512
 30
0.0
 11
37.50001850356784
 21
-40.10550000000512
 31
0.0
  0
LWPOLYLINE
  5
459
330
451
100
AcDbEntity
  8
寸法
  6
Continuous
100
AcDbPolyline
 90
        3
 70
     0
 43
0.0
 10
-27.84072323354485
 20
-42.6936904510294
 10
-37.49998149643216
 20
-40.10550000000512
 10
-27.84072323354485
 20
-37.51730954898085
  0
LWPOLYLINE
  5
45A
330
451
100
AcDbEntity
  8
寸法
  6
Continuous
100
AcDbPolyline
 90
        3
 70
     0
 43
0.0
 10
27.84076024068054
 20
-37.51730954898085
 10
37.50001850356784
 20
-40.10550000000512
 10
27.84076024068054
 20
-42.6936904510294
  0
ENDBLK
  5
453
330
451
100
AcDbEntity
  8
0
100
AcDbBlockEnd
  0
BLOCK
  5
474
330
473
100
AcDbEntity
  8
0
100
AcDbBlockBegin
  2
INS-D55W7
 70
     0
 10
0.0
 20
0.0
 30
0.0
  3
INS-D55W7
  1

  0
TEXT
  5
477
330
473
100
AcDbEntity
  8
寸法
  6
Continuous
100
AcDbText
 10
-23.4017165153491
 20
-66.42000000000363
 30
0.0
 40
19.982
  1
内径φ268
 50
90.0
 41
1.025966251272801
 72
     1
 11
-23.4017165153491
 21
-0.000000000003638
 31
0.0
100
AcDbText
  0
LINE
  5
478
330
473
100
AcDbEntity
  8
寸法
  6
Continuous
100
AcDbLine
 10
45.00201850356825
 20
-134.0000000000036
 30
0.0
 11
-13.40171651534911
 21
-134.0000000000036
 31
0.0
  0
LINE
  5
479
330
473
100
AcDbEntity
  8
寸法
  6
Continuous
100
AcDbLine
 10
45.00201850356825
 20
133.9999999999964
 30
0.0
 11
-13.40171651534911
 21
133.9999999999964
 31
0.0
  0
LINE
  5
47A
330
473
100
AcDbEntity
  8
寸法
  6
Continuous
100
AcDbLine
 10
-13.40171651534911
 20
133.9999999999964
 30
0.0
 11
-13.40171651534911
 21
-134.0000000000036
 31
0.0
  0
LWPOLYLINE
  5
47B
330
473
100
AcDbEntity
  8
寸法
  6
Continuous
100
AcDbPolyline
 90
        3
 70
     0
 43
0.0
 10
-15.98990696637338
 20
124.3407417371054
 10
-13.40171651534911
 20
133.9999999999964
 10
-10.81352606432483
 20
124.3407417371054
  0
LWPOLYLINE
  5
47C
330
473
100
AcDbEntity
  8
寸法
  6
Continuous
100
AcDbPolyline
 90
        3
 70
     0
 43
0.0
 10
-10.81352606432483
 20
-124.3407417371127
 10
-13.40171651534911
 20
-134.0000000000036
 10
-15.98990696637338
 20
-124.3407417371127
  0
ENDBLK
  5
475
330
473
100
AcDbEntity
  8
0
100
AcDbBlockEnd
  0
BLOCK
  5
47E
330
47D
100
AcDbEntity
  8
0
100
AcDbBlockBegin
  2
INS-DQNSV
 70
     0
 10
0.0
 20
0.0
 30
0.0
  3
INS-DQNSV
  1

  0
TEXT
  5
481
330
47D
100
AcDbEntity
  8
寸法
  6
Continuous
100
AcDbText
 10
23.02206164231757
 20
-66.42000000000365
 30
0.0
 40
19.982
  1
外径φ247
 50
90.0
 41
1.025966251272801
 72
     1
 11
23.02206164231757
 21
-0.0000000000036522
 31
0.0
100
AcDbText
  0
LINE
  5
482
330
47D
100
AcDbEntity
  8
寸法
  6
Continuous
100
AcDbLine
 10
-36.3099814964371
 20
-123.5000000000036
 30
0.0
 11
32.72206164231466
 21
-123.5000000000036
 31
0.0
  0
LINE
  5
483
330
47D
100
AcDbEntity
  8
寸法
  6
Continuous
100
AcDbLine
 10
-36.3099814964371
 20
123.4999999999964
 30
0.0
 11
32.72206164231466
 21
123.4999999999964
 31
0.0
  0
LINE
  5
484
330
47D
100
AcDbEntity
  8
寸法
  6
Continuous
100
AcDbLine
 10
32.72206164231466
 20
123.4999999999964
 30
0.0
 11
32.72206164231466
 21
-123.5000000000036
 31
0.0
  0
LWPOLYLINE
  5
485
330
47D
100
AcDbEntity
  8
寸法
  6
Continuous
100
AcDbPolyline
 90
        3
 70
     0
 43
0.0
 10
30.13387119129038
 20
113.8407417371054
 10
32.72206164231466
 20
123.4999999999964
 10
35.31025209333893
 20
113.8407417371054
  0
LWPOLYLINE
  5
486
330
47D
100
AcDbEntity
  8
寸法
  6
Continuous
100
AcDbPolyline
 90
        3
 70
     0
 43
0.0
 10
35.31025209333893
 20
-113.8407417371127
 10
32.72206164231466
 20
-123.5000000000036
 10
30.13387119129038
 20
-113.8407417371127
  0
ENDBLK
  5
47F
330
47D
100
AcDbEntity
  8
0
100
AcDbBlockEnd
  0
BLOCK
  5
488
330
487
100
AcDbEntity
  8
0
100
AcDbBlockBegin
  2
INS-D3OLQ
 70
     0
 10
0.0
 20
0.0
 30
0.0
  3
INS-D3OLQ
  1

  0
TEXT
  5
48B
330
487
100
AcDbEntity
  8
寸法
  6
Continuous
100
AcDbText
 10
-23.69998149643216
 20
-67.84443858889063
 30
0.0
 40
19.982
  1
115
 41
1.056781492035411
 72
     1
 11
0.0000185035678442
 21
-67.84443858889063
 31
0.0
100
AcDbText
  0
LINE
  5
48C
330
487
100
AcDbEntity
  8
寸法
  6
Continuous
100
AcDbLine
 10
57.50001850356784
 20
81.14749999999549
 30
0.0
 11
57.50001850356784
 21
-77.55832747778186
 31
0.0
  0
LINE
  5
48D
330
487
100
AcDbEntity
  8
寸法
  6
Continuous
100
AcDbLine
 10
-57.49998149643216
 20
69.84749999999622
 30
0.0
 11
-57.49998149643216
 21
-77.55832747778186
 31
0.0
  0
LINE
  5
48E
330
487
100
AcDbEntity
  8
寸法
  6
Continuous
100
AcDbLine
 10
-57.49998149643216
 20
-77.55832747778186
 30
0.0
 11
57.50001850356784
 21
-77.55832747778186
 31
0.0
  0
LWPOLYLINE
  5
48F
330
487
100
AcDbEntity
  8
寸法
  6
Continuous
100
AcDbPolyline
 90
        3
 70
     0
 43
0.0
 10
-47.84072323354485
 20
-80.14651792880613
 10
-57.49998149643216
 20
-77.55832747778186
 10
-47.84072323354485
 20
-74.97013702675758
  0
LWPOLYLINE
  5
490
330
487
100
AcDbEntity
  8
寸法
  6
Continuous
100
AcDbPolyline
 90
        3
 70
     0
 43
0.0
 10
47.84076024068054
 20
-74.97013702675758
 10
57.50001850356784
 20
-77.55832747778186
 10
47.84076024068054
 20
-80.14651792880613
  0
ENDBLK
  5
489
330
487
100
AcDbEntity
  8
0
100
AcDbBlockEnd
  0
BLOCK
  5
49E
330
49D
100
AcDbEntity
  8
0
100
AcDbBlockBegin
  2
INS-G4ZE4
 70
     0
 10
0.0
 20
0.0
 30
0.0
  3
INS-G4ZE4
  1

  0
TEXT
  5
4A1
330
49D
100
AcDbEntity
  8
03-文字-2
100
AcDbText
 10
-42.49955734812102
 20
3.863235289813893
 30
0.0
 40
24.9775
  1
ＶＰ管
 41
0.998071409144555
 11
-42.49955734812102
 21
28.84073528981389
 31
0.0
100
AcDbText
 73
     3
  0
TEXT
  5
4A2
330
49D
100
AcDbEntity
  8
03-文字-2
100
AcDbText
 10
-42.49955734812102
 20
-28.0667647101864
 30
0.0
 40
24.9775
  1
ＶＵ管
 41
0.998071409144555
 11
-42.49955734812102
 21
-3.089264710186399
 31
0.0
100
AcDbText
 73
     3
  0
ENDBLK
  5
49F
330
49D
100
AcDbEntity
  8
0
100
AcDbBlockEnd
  0
BLOCK
  5
4A6
330
4A5
100
AcDbEntity
  8
0
100
AcDbBlockBegin
  2
INS-DFV3Y
 70
     0
 10
0.0
 20
0.0
 30
0.0
  3
INS-DFV3Y
  1

  0
TEXT
  5
4A9
330
4A5
100
AcDbEntity
  8
寸法
  6
Continuous
100
AcDbText
 10
-18.53998149643215
 20
-18.99161111111243
 30
0.0
 40
19.982
  1
50
 41
1.089505144794249
 72
     1
 11
0.0000185035678442
 21
-18.99161111111243
 31
0.0
100
AcDbText
  0
LINE
  5
4AA
330
4A5
100
AcDbEntity
  8
寸法
  6
Continuous
100
AcDbLine
 10
25.00001850356784
 20
32.29449999999633
 30
0.0
 11
25.00001850356784
 21
-28.70550000000367
 31
0.0
  0
LINE
  5
4AB
330
4A5
100
AcDbEntity
  8
寸法
  6
Continuous
100
AcDbLine
 10
-24.99998149643216
 20
32.29449999999633
 30
0.0
 11
-24.99998149643216
 21
-28.70550000000367
 31
0.0
  0
LINE
  5
4AC
330
4A5
100
AcDbEntity
  8
寸法
  6
Continuous
100
AcDbLine
 10
-24.99998149643216
 20
-28.70550000000367
 30
0.0
 11
25.00001850356784
 21
-28.70550000000367
 31
0.0
  0
LWPOLYLINE
  5
4AD
330
4A5
100
AcDbEntity
  8
寸法
  6
Continuous
100
AcDbPolyline
 90
        3
 70
     0
 43
0.0
 10
-15.34072323354485
 20
-31.29369045102794
 10
-24.99998149643216
 20
-28.70550000000367
 10
-15.34072323354485
 20
-26.11730954897939
  0
LWPOLYLINE
  5
4AE
330
4A5
100
AcDbEntity
  8
寸法
  6
Continuous
100
AcDbPolyline
 90
        3
 70
     0
 43
0.0
 10
15.34076024068054
 20
-26.11730954897939
 10
25.00001850356784
 20
-28.70550000000367
 10
15.34076024068054
 20
-31.29369045102794
  0
ENDBLK
  5
4A7
330
4A5
100
AcDbEntity
  8
0
100
AcDbBlockEnd
  0
BLOCK
  5
4B0
330
4AF
100
AcDbEntity
  8
0
100
AcDbBlockBegin
  2
INS-D3MEX
 70
     0
 10
0.0
 20
0.0
 30
0.0
  3
INS-D3MEX
  1

  0
TEXT
  5
4B3
330
4AF
100
AcDbEntity
  8
寸法
  6
Continuous
100
AcDbText
 10
-15.17998149643215
 20
-51.00000000000364
 30
0.0
 40
19.982
  1
10
 41
1.089505144794249
 72
     1
 11
0.0000185035678442
 21
-51.00000000000364
 31
0.0
100
AcDbText
  0
LINE
  5
4B4
330
4AF
100
AcDbEntity
  8
寸法
  6
Continuous
100
AcDbLine
 10
5.000018503567844
 20
51.99999999999636
 30
0.0
 11
5.000018503567844
 21
-20.30000000000291
 31
0.0
  0
LINE
  5
4B5
330
4AF
100
AcDbEntity
  8
寸法
  6
Continuous
100
AcDbLine
 10
-4.999981496432156
 20
40.69999999999709
 30
0.0
 11
-4.999981496432156
 21
-20.30000000000291
 31
0.0
  0
LINE
  5
4B6
330
4AF
100
AcDbEntity
  8
寸法
  6
Continuous
100
AcDbLine
 10
-4.999981496432156
 20
-20.30000000000291
 30
0.0
 11
5.000018503567844
 21
-20.30000000000291
 31
0.0
  0
ENDBLK
  5
4B1
330
4AF
100
AcDbEntity
  8
0
100
AcDbBlockEnd
  0
BLOCK
  5
4B8
330
4B7
100
AcDbEntity
  8
0
100
AcDbBlockBegin
  2
INS-DJLHW
 70
     0
 10
0.0
 20
0.0
 30
0.0
  3
INS-DJLHW
  1

  0
TEXT
  5
4BB
330
4B7
100
AcDbEntity
  8
寸法
  6
Continuous
100
AcDbText
 10
-20.27998149643216
 20
-24.62772222222702
 30
0.0
 40
19.982
  1
55
 41
1.089505144794249
 72
     1
 11
0.0000185035678442
 21
-24.62772222222702
 31
0.0
100
AcDbText
  0
LINE
  5
4BC
330
4B7
100
AcDbEntity
  8
寸法
  6
Continuous
100
AcDbLine
 10
27.50001850356784
 20
37.94449999999415
 30
0.0
 11
27.50001850356784
 21
-34.35550000000512
 31
0.0
  0
LINE
  5
4BD
330
4B7
100
AcDbEntity
  8
寸法
  6
Continuous
100
AcDbLine
 10
-27.49998149643216
 20
37.94449999999415
 30
0.0
 11
-27.49998149643216
 21
-34.35550000000512
 31
0.0
  0
LINE
  5
4BE
330
4B7
100
AcDbEntity
  8
寸法
  6
Continuous
100
AcDbLine
 10
-27.49998149643216
 20
-34.35550000000512
 30
0.0
 11
27.50001850356784
 21
-34.35550000000512
 31
0.0
  0
LWPOLYLINE
  5
4BF
330
4B7
100
AcDbEntity
  8
寸法
  6
Continuous
100
AcDbPolyline
 90
        3
 70
     0
 43
0.0
 10
-17.84072323354485
 20
-36.9436904510294
 10
-27.49998149643216
 20
-34.35550000000512
 10
-17.84072323354485
 20
-31.76730954898085
  0
LWPOLYLINE
  5
4C0
330
4B7
100
AcDbEntity
  8
寸法
  6
Continuous
100
AcDbPolyline
 90
        3
 70
     0
 43
0.0
 10
17.84076024068054
 20
-31.76730954898085
 10
27.50001850356784
 20
-34.35550000000512
 10
17.84076024068054
 20
-36.9436904510294
  0
ENDBLK
  5
4B9
330
4B7
100
AcDbEntity
  8
0
100
AcDbBlockEnd
  0
ENDSEC
  0
SECTION
  2
ENTITIES
  0
LINE
  5
B9
330
1F
100
AcDbEntity
  8
シンボル
100
AcDbLine
 10
38355.89501850356
 20
-18000.0
 30
0.0
 11
38355.89501850356
 21
-27400.00000000001
 31
0.0
  0
LINE
  5
BA
330
1F
100
AcDbEntity
  8
シンボル
100
AcDbLine
 10
36355.89501850356
 20
-19400.0
 30
0.0
 11
40355.89501850356
 21
-19400.0
 31
0.0
  0
LINE
  5
BB
330
1F
100
AcDbEntity
  8
シンボル
100
AcDbLine
 10
40355.89501850356
 20
-18000.0
 30
0.0
 11
40355.89501850356
 21
-27400.00000000001
 31
0.0
  0
TEXT
  5
BC
330
1F
100
AcDbEntity
  8
03-文字-2
100
AcDbText
 10
38452.32001850344
 20
-18799.90999999993
 30
0.0
 40
199.82
  1
FSレジューサー
 41
0.9973215996568048
 72
     1
 11
39355.89501850343
 21
-18699.99999999993
 31
0.0
100
AcDbText
 73
     2
  0
LINE
  5
BD
330
1F
100
AcDbEntity
  8
シンボル
100
AcDbLine
 10
36355.89501850356
 20
-18000.0
 30
0.0
 11
40355.89501850356
 21
-18000.0
 31
0.0
  0
LINE
  5
BE
330
1F
100
AcDbEntity
  8
シンボル
100
AcDbLine
 10
36355.89501850356
 20
-18000.0
 30
0.0
 11
36355.89501850356
 21
-27400.00000000001
 31
0.0
  0
LINE
  5
BF
330
1F
100
AcDbEntity
  8
シンボル
100
AcDbLine
 10
36355.89501850356
 20
-18000.0
 30
0.0
 11
38355.89501850103
 21
-19400.0
 31
0.0
  0
TEXT
  5
C0
330
1F
100
AcDbEntity
  8
03-文字-2
100
AcDbText
 10
36577.38390739271
 20
-19899.91000000039
 30
0.0
 40
199.82
  1
FS10-100A
 41
0.9972735371233883
 72
     1
 11
37355.89501850382
 21
-19800.00000000039
 31
0.0
100
AcDbText
 73
     2
  0
LINE
  5
C1
330
1F
100
AcDbEntity
  8
シンボル
100
AcDbLine
 10
36355.89501850356
 20
-20200.0
 30
0.0
 11
40355.89501850356
 21
-20200.0
 31
0.0
  0
TEXT
  5
C2
330
1F
100
AcDbEntity
  8
03-文字-2
100
AcDbText
 10
36543.22835183699
 20
-20699.90999999997
 30
0.0
 40
199.82
  1
FS10-125A
 41
0.9972735371233883
 72
     1
 11
37355.89501850365
 21
-20599.99999999997
 31
0.0
100
AcDbText
 73
     2
  0
LINE
  5
C3
330
1F
100
AcDbEntity
  8
04-ダクトセンター
100
AcDbLine
 10
39298.39501850356
 20
-19700.0
 30
0.0
 11
39413.39501850356
 21
-19700.0
 31
0.0
  0
LINE
  5
C4
330
1F
100
AcDbEntity
  8
05-ダクト外線
100
AcDbLine
 10
39298.39501850356
 20
-19641.2
 30
0.0
 11
39298.39501850356
 21
-19758.8
 31
0.0
  0
LINE
  5
C5
330
1F
100
AcDbEntity
  8
05-ダクト外線
100
AcDbLine
 10
39298.39501850356
 20
-19641.2
 30
0.0
 11
39308.39501850356
 21
-19641.2
 31
0.0
  0
LINE
  5
C6
330
1F
100
AcDbEntity
  8
05-ダクト外線
100
AcDbLine
 10
39298.39501850356
 20
-19758.8
 30
0.0
 11
39308.39501850354
 21
-19758.8
 31
0.0
  0
LINE
  5
C7
330
1F
100
AcDbEntity
  8
05-ダクト外線
100
AcDbLine
 10
39413.39501850356
 20
-19651.0
 30
0.0
 11
39413.39501850356
 21
-19749.0
 31
0.0
  0
LINE
  5
C8
330
1F
100
AcDbEntity
  8
05-ダクト外線
100
AcDbLine
 10
39358.39501850356
 20
-19651.0
 30
0.0
 11
39413.39501850356
 21
-19651.0
 31
0.0
  0
LINE
  5
C9
330
1F
100
AcDbEntity
  8
05-ダクト外線
100
AcDbLine
 10
39358.39501850356
 20
-19749.0
 30
0.0
 11
39413.39501850356
 21
-19749.0
 31
0.0
  0
LINE
  5
CA
330
1F
100
AcDbEntity
  8
05-ダクト外線
100
AcDbLine
 10
39358.39501850356
 20
-19749.0
 30
0.0
 11
39358.39501850356
 21
-19651.0
 31
0.0
  0
LINE
  5
CB
330
1F
100
AcDbEntity
  8
05-ダクト外線
100
AcDbLine
 10
39348.39501850356
 20
-19758.8
 30
0.0
 11
39348.39501850356
 21
-19641.2
 31
0.0
  0
INSERT
  5
CF
330
1F
100
AcDbEntity
  8
寸法
100
AcDbBlockReference
  2
INS-D5G59
 10
39252.393
 20
-19700.0
 30
0.0
  0
INSERT
  5
D9
330
1F
100
AcDbEntity
  8
寸法
100
AcDbBlockReference
  2
INS-D6PUB
 10
39450.705
 20
-19711.14
 30
0.0
  0
INSERT
  5
E3
330
1F
100
AcDbEntity
  8
寸法
100
AcDbBlockReference
  2
INS-D6KVG
 10
39355.895
 20
-19843.3975
 30
0.0
  0
LINE
  5
EA
330
1F
100
AcDbEntity
  8
05-ダクト外線
100
AcDbLine
 10
39313.39501850356
 20
-19641.2
 30
0.0
 11
39313.39501850356
 21
-19643.2
 31
0.0
  0
LINE
  5
EB
330
1F
100
AcDbEntity
  8
05-ダクト外線
100
AcDbLine
 10
39310.39501850356
 20
-19643.2
 30
0.0
 11
39313.39501850356
 21
-19643.2
 31
0.0
  0
ARC
  5
EC
330
1F
100
AcDbEntity
  8
05-ダクト外線
100
AcDbCircle
 10
39310.39501850356
 20
-19641.2
 30
0.0
 40
2.0
100
AcDbArc
 50
180.0
 51
270.0
  0
LINE
  5
ED
330
1F
100
AcDbEntity
  8
05-ダクト外線
100
AcDbLine
 10
39313.39501850356
 20
-19641.2
 30
0.0
 11
39348.39501850356
 21
-19641.2
 31
0.0
  0
ARC
  5
EE
330
1F
100
AcDbEntity
  8
05-ダクト外線
100
AcDbCircle
 10
39310.39501850354
 20
-19758.8
 30
0.0
 40
2.0
100
AcDbArc
 50
90.0
 51
180.0
  0
LINE
  5
EF
330
1F
100
AcDbEntity
  8
05-ダクト外線
100
AcDbLine
 10
39310.39501850354
 20
-19756.8
 30
0.0
 11
39313.39501850354
 21
-19756.8
 31
0.0
  0
LINE
  5
F0
330
1F
100
AcDbEntity
  8
05-ダクト外線
100
AcDbLine
 10
39313.39501850354
 20
-19758.8
 30
0.0
 11
39313.39501850354
 21
-19756.8
 31
0.0
  0
LINE
  5
F1
330
1F
100
AcDbEntity
  8
05-ダクト外線
100
AcDbLine
 10
39313.39501850354
 20
-19758.8
 30
0.0
 11
39348.39501850356
 21
-19758.8
 31
0.0
  0
TEXT
  5
F2
330
1F
100
AcDbEntity
  8
0
100
AcDbText
 10
39331.31436108163
 20
-19601.71481976781
 30
0.0
 40
19.982
  1
ノッチ
 41
0.998071409144555
 11
39331.31436108163
 21
-19581.73281976781
 31
0.0
100
AcDbText
 73
     3
  0
LWPOLYLINE
  5
F3
330
1F
100
AcDbEntity
  8
0
100
AcDbPolyline
 90
        3
 70
     0
 43
0.0
 10
39311.77054248084
 20
-19639.59925735398
 10
39337.04152487945
 20
-19604.7552142749
 10
39390.9843820223
 20
-19604.7552142749
  0
LWPOLYLINE
  5
F4
330
1F
100
AcDbEntity
  8
0
  6
Continuous
100
AcDbPolyline
 90
        3
 70
     0
 43
0.0
 10
39318.76009547547
 20
-19633.92949995748
 10
39311.77054248084
 20
-19639.59925735398
 10
39314.98879423703
 20
-19631.194326918
  0
TEXT
  5
F5
330
1F
100
AcDbEntity
  8
03-文字-2
100
AcDbText
 10
39524.49437787262
 20
-19712.90616985767
 30
0.0
 40
24.9775
  1
スパイラルダクト
 41
0.9973215996568048
 11
39524.49437787262
 21
-19687.92866985767
 31
0.0
100
AcDbText
 73
     3
  0
INSERT
  5
F9
330
1F
100
AcDbEntity
  8
03-文字-2
100
AcDbBlockReference
  2
INS-G83HA
 10
39082.669
 20
-19691.756
 30
0.0
  0
LINE
  5
FC
330
1F
100
AcDbEntity
  8
05-ダクト外線
100
AcDbLine
 10
39348.39501850356
 20
-19641.2
 30
0.0
 11
39358.39501850356
 21
-19651.0
 31
0.0
  0
LINE
  5
FD
330
1F
100
AcDbEntity
  8
05-ダクト外線
100
AcDbLine
 10
39348.39501850356
 20
-19758.8
 30
0.0
 11
39358.39501850356
 21
-19749.0
 31
0.0
  0
LINE
  5
FE
330
1F
100
AcDbEntity
  8
06-ダクト内線
  6
DASHED2
 62
    20
 48
0.2
100
AcDbLine
 10
39298.39501850356
 20
-19642.0
 30
0.0
 11
39307.71173693056
 21
-19642.0
 31
0.0
  0
LINE
  5
FF
330
1F
100
AcDbEntity
  8
06-ダクト内線
  6
DASHED2
 62
    20
 48
0.2
100
AcDbLine
 10
39298.39501850356
 20
-19758.0
 30
0.0
 11
39307.71173693053
 21
-19758.0
 31
0.0
  0
ARC
  5
100
330
1F
100
AcDbEntity
  8
06-ダクト内線
  6
DASHED2
 62
    20
 48
0.2
100
AcDbCircle
 10
39310.39501850356
 20
-19641.2
 30
0.0
 40
2.8
100
AcDbArc
 50
196.6015495989969
 51
270.0
  0
LINE
  5
101
330
1F
100
AcDbEntity
  8
06-ダクト内線
  6
DASHED2
 62
    20
 48
0.2
100
AcDbLine
 10
39310.39501850356
 20
-19644.0
 30
0.0
 11
39314.19501850355
 21
-19644.0
 31
0.0
  0
LINE
  5
102
330
1F
100
AcDbEntity
  8
06-ダクト内線
  6
DASHED2
 62
    20
 48
0.2
100
AcDbLine
 10
39314.19501850355
 20
-19642.0
 30
0.0
 11
39314.19501850355
 21
-19644.0
 31
0.0
  0
LINE
  5
103
330
1F
100
AcDbEntity
  8
06-ダクト内線
  6
DASHED2
 62
    20
 48
0.2
100
AcDbLine
 10
39314.19501850355
 20
-19642.0
 30
0.0
 11
39348.06837127917
 21
-19642.0
 31
0.0
  0
LINE
  5
104
330
1F
100
AcDbEntity
  8
06-ダクト内線
  6
DASHED2
 62
    20
 48
0.2
100
AcDbLine
 10
39348.06837127917
 20
-19642.0
 30
0.0
 11
39358.06837127917
 21
-19651.8
 31
0.0
  0
LINE
  5
105
330
1F
100
AcDbEntity
  8
06-ダクト内線
  6
DASHED2
 62
    20
 48
0.2
100
AcDbLine
 10
39358.06837127917
 20
-19651.8
 30
0.0
 11
39413.39501850356
 21
-19651.8
 31
0.0
  0
LINE
  5
106
330
1F
100
AcDbEntity
  8
06-ダクト内線
  6
DASHED2
 62
    20
 48
0.2
100
AcDbLine
 10
39358.06837127917
 20
-19748.2
 30
0.0
 11
39413.39501850356
 21
-19748.2
 31
0.0
  0
LINE
  5
107
330
1F
100
AcDbEntity
  8
06-ダクト内線
  6
DASHED2
 62
    20
 48
0.2
100
AcDbLine
 10
39348.06837127917
 20
-19758.0
 30
0.0
 11
39358.06837127917
 21
-19748.2
 31
0.0
  0
LINE
  5
108
330
1F
100
AcDbEntity
  8
06-ダクト内線
  6
DASHED2
 62
    20
 48
0.2
100
AcDbLine
 10
39314.19501850355
 20
-19758.0
 30
0.0
 11
39348.06837127917
 21
-19758.0
 31
0.0
  0
LINE
  5
109
330
1F
100
AcDbEntity
  8
06-ダクト内線
  6
DASHED2
 62
    20
 48
0.2
100
AcDbLine
 10
39314.19501850355
 20
-19758.0
 30
0.0
 11
39314.19501850355
 21
-19756.0
 31
0.0
  0
LINE
  5
10A
330
1F
100
AcDbEntity
  8
06-ダクト内線
  6
DASHED2
 62
    20
 48
0.2
100
AcDbLine
 10
39310.39501850354
 20
-19756.0
 30
0.0
 11
39314.19501850355
 21
-19756.0
 31
0.0
  0
ARC
  5
10B
330
1F
100
AcDbEntity
  8
06-ダクト内線
  6
DASHED2
 62
    20
 48
0.2
100
AcDbCircle
 10
39310.39501850354
 20
-19758.8
 30
0.0
 40
2.8
100
AcDbArc
 50
90.0
 51
163.3984504009318
  0
INSERT
  5
10F
330
1F
100
AcDbEntity
  8
寸法
100
AcDbBlockReference
  2
INS-DM41L
 10
39323.395
 20
-19805.0945
 30
0.0
  0
INSERT
  5
119
330
1F
100
AcDbEntity
  8
寸法
100
AcDbBlockReference
  2
INS-D45Z7
 10
39353.395
 20
-19814.25
 30
0.0
  0
INSERT
  5
121
330
1F
100
AcDbEntity
  8
寸法
100
AcDbBlockReference
  2
INS-D7D65
 10
39385.895
 20
-19800.1945
 30
0.0
  0
TEXT
  5
128
330
1F
100
AcDbEntity
  8
03-文字-2
100
AcDbText
 10
39021.25501850221
 20
-20089.59257710975
 30
0.0
 40
49.955
  1
FS10-100A（0.8t）
 41
0.99712127968442
 72
     1
 11
39355.89501850221
 21
-20064.61507710975
 31
0.0
100
AcDbText
 73
     2
  0
LINE
  5
129
330
1F
100
AcDbEntity
  8
シンボル
100
AcDbLine
 10
36355.89501850356
 20
-21000.0
 30
0.0
 11
40355.89501850356
 21
-21000.0
 31
0.0
  0
TEXT
  5
12A
330
1F
100
AcDbEntity
  8
03-文字-2
100
AcDbText
 10
36526.15057405911
 20
-21499.90999999964
 30
0.0
 40
199.82
  1
FS12-125A
 41
0.9972735371233883
 72
     1
 11
37355.89501850355
 21
-21399.99999999964
 31
0.0
100
AcDbText
 73
     2
  0
LINE
  5
12B
330
1F
100
AcDbEntity
  8
シンボル
100
AcDbLine
 10
36355.89501850356
 20
-21800.0
 30
0.0
 11
40355.89501850356
 21
-21800.0
 31
0.0
  0
TEXT
  5
12C
330
1F
100
AcDbEntity
  8
03-文字-2
100
AcDbText
 10
36543.22835183699
 20
-22299.90999999976
 30
0.0
 40
199.82
  1
FS15-150A
 41
0.9972735371233883
 72
     1
 11
37355.89501850365
 21
-22199.99999999976
 31
0.0
100
AcDbText
 73
     2
  0
LINE
  5
12D
330
1F
100
AcDbEntity
  8
シンボル
100
AcDbLine
 10
36355.89501850356
 20
-22600.0
 30
0.0
 11
40355.89501850356
 21
-22600.0
 31
0.0
  0
TEXT
  5
12E
330
1F
100
AcDbEntity
  8
03-文字-2
100
AcDbText
 10
36526.15057405867
 20
-23099.90999999989
 30
0.0
 40
199.82
  1
FS17-175A
 41
0.9972735371233883
 72
     1
 11
37355.89501850311
 21
-22999.99999999989
 31
0.0
100
AcDbText
 73
     2
  0
LINE
  5
12F
330
1F
100
AcDbEntity
  8
シンボル
100
AcDbLine
 10
36355.89501850356
 20
-23400.0
 30
0.0
 11
40355.89501850356
 21
-23400.0
 31
0.0
  0
TEXT
  5
130
330
1F
100
AcDbEntity
  8
03-文字-2
100
AcDbText
 10
36527.32835183611
 20
-23899.90999999996
 30
0.0
 40
199.82
  1
FS17-200A
 41
0.9972735371233883
 72
     1
 11
37355.89501850278
 21
-23799.99999999996
 31
0.0
100
AcDbText
 73
     2
  0
LINE
  5
131
330
1F
100
AcDbEntity
  8
シンボル
100
AcDbLine
 10
36355.89501850356
 20
-24200.0
 30
0.0
 11
40355.89501850356
 21
-24200.0
 31
0.0
  0
TEXT
  5
132
330
1F
100
AcDbEntity
  8
03-文字-2
100
AcDbText
 10
36511.42835183769
 20
-24699.90999999965
 30
0.0
 40
199.82
  1
FS20-200A
 41
0.9972735371233883
 72
     1
 11
37355.89501850436
 21
-24599.99999999965
 31
0.0
100
AcDbText
 73
     2
  0
LINE
  5
133
330
1F
100
AcDbEntity
  8
シンボル
100
AcDbLine
 10
36355.89501850356
 20
-25000.0
 30
0.0
 11
40355.89501850356
 21
-25000.0
 31
0.0
  0
TEXT
  5
134
330
1F
100
AcDbEntity
  8
03-文字-2
100
AcDbText
 10
36460.19501850409
 20
-25499.91000000005
 30
0.0
 40
199.82
  1
FS22-225A
 41
0.9972735371233883
 72
     1
 11
37355.89501850409
 21
-25400.00000000005
 31
0.0
100
AcDbText
 73
     2
  0
LINE
  5
135
330
1F
100
AcDbEntity
  8
シンボル
100
AcDbLine
 10
36355.89501850356
 20
-25800.0
 30
0.0
 11
40355.89501850356
 21
-25800.0
 31
0.0
  0
TEXT
  5
136
330
1F
100
AcDbEntity
  8
03-文字-2
100
AcDbText
 10
36477.27279628081
 20
-26299.91
 30
0.0
 40
199.82
  1
FS22-250A
 41
0.9972735371233883
 72
     1
 11
37355.89501850303
 21
-26200.0
 31
0.0
100
AcDbText
 73
     2
  0
LINE
  5
137
330
1F
100
AcDbEntity
  8
シンボル
100
AcDbLine
 10
36355.89501850356
 20
-26600.0
 30
0.0
 11
40355.89501850356
 21
-26600.0
 31
0.0
  0
LINE
  5
138
330
1F
100
AcDbEntity
  8
04-ダクトセンター
100
AcDbLine
 10
39288.39501850356
 20
-20500.0
 30
0.0
 11
39423.39501850356
 21
-20500.0
 31
0.0
  0
LINE
  5
139
330
1F
100
AcDbEntity
  8
05-ダクト外線
100
AcDbLine
 10
39288.39501850356
 20
-20428.7
 30
0.0
 11
39288.39501850356
 21
-20571.3
 31
0.0
  0
LINE
  5
13A
330
1F
100
AcDbEntity
  8
05-ダクト外線
100
AcDbLine
 10
39288.39501850356
 20
-20428.7
 30
0.0
 11
39298.39501850356
 21
-20428.7
 31
0.0
  0
LINE
  5
13B
330
1F
100
AcDbEntity
  8
05-ダクト外線
100
AcDbLine
 10
39288.39501850356
 20
-20571.3
 30
0.0
 11
39298.39501850354
 21
-20571.3
 31
0.0
  0
LINE
  5
13C
330
1F
100
AcDbEntity
  8
05-ダクト外線
100
AcDbLine
 10
39423.39501850356
 20
-20450.2
 30
0.0
 11
39423.39501850356
 21
-20549.8
 31
0.0
  0
LINE
  5
13D
330
1F
100
AcDbEntity
  8
05-ダクト外線
100
AcDbLine
 10
39348.39501850356
 20
-20450.2
 30
0.0
 11
39423.39501850356
 21
-20450.2
 31
0.0
  0
LINE
  5
13E
330
1F
100
AcDbEntity
  8
05-ダクト外線
100
AcDbLine
 10
39348.39501850356
 20
-20549.8
 30
0.0
 11
39423.39501850356
 21
-20549.8
 31
0.0
  0
LINE
  5
13F
330
1F
100
AcDbEntity
  8
05-ダクト外線
100
AcDbLine
 10
39348.39501850356
 20
-20549.8
 30
0.0
 11
39348.39501850356
 21
-20450.2
 31
0.0
  0
LINE
  5
140
330
1F
100
AcDbEntity
  8
05-ダクト外線
100
AcDbLine
 10
39338.39501850356
 20
-20571.3
 30
0.0
 11
39338.39501850356
 21
-20428.7
 31
0.0
  0
INSERT
  5
144
330
1F
100
AcDbEntity
  8
寸法
100
AcDbBlockReference
  2
INS-D713U
 10
39242.393
 20
-20500.0
 30
0.0
  0
INSERT
  5
14E
330
1F
100
AcDbEntity
  8
寸法
100
AcDbBlockReference
  2
INS-D67XZ
 10
39460.705
 20
-20525.99
 30
0.0
  0
INSERT
  5
158
330
1F
100
AcDbEntity
  8
寸法
100
AcDbBlockReference
  2
INS-D76W5
 10
39355.895
 20
-20643.7975
 30
0.0
  0
LINE
  5
15F
330
1F
100
AcDbEntity
  8
05-ダクト外線
100
AcDbLine
 10
39303.39501850356
 20
-20428.7
 30
0.0
 11
39303.39501850356
 21
-20430.7
 31
0.0
  0
LINE
  5
160
330
1F
100
AcDbEntity
  8
05-ダクト外線
100
AcDbLine
 10
39300.39501850356
 20
-20430.7
 30
0.0
 11
39303.39501850356
 21
-20430.7
 31
0.0
  0
ARC
  5
161
330
1F
100
AcDbEntity
  8
05-ダクト外線
100
AcDbCircle
 10
39300.39501850356
 20
-20428.7
 30
0.0
 40
2.0
100
AcDbArc
 50
180.0
 51
270.0
  0
LINE
  5
162
330
1F
100
AcDbEntity
  8
05-ダクト外線
100
AcDbLine
 10
39303.39501850356
 20
-20428.7
 30
0.0
 11
39338.39501850356
 21
-20428.7
 31
0.0
  0
ARC
  5
163
330
1F
100
AcDbEntity
  8
05-ダクト外線
100
AcDbCircle
 10
39300.39501850354
 20
-20571.3
 30
0.0
 40
2.0
100
AcDbArc
 50
90.0
 51
180.0
  0
LINE
  5
164
330
1F
100
AcDbEntity
  8
05-ダクト外線
100
AcDbLine
 10
39300.39501850354
 20
-20569.3
 30
0.0
 11
39303.39501850354
 21
-20569.3
 31
0.0
  0
LINE
  5
165
330
1F
100
AcDbEntity
  8
05-ダクト外線
100
AcDbLine
 10
39303.39501850354
 20
-20571.3
 30
0.0
 11
39303.39501850354
 21
-20569.3
 31
0.0
  0
LINE
  5
166
330
1F
100
AcDbEntity
  8
05-ダクト外線
100
AcDbLine
 10
39303.39501850354
 20
-20571.3
 30
0.0
 11
39338.39501850356
 21
-20571.3
 31
0.0
  0
TEXT
  5
167
330
1F
100
AcDbEntity
  8
0
100
AcDbText
 10
39321.31436108214
 20
-20389.2148197685
 30
0.0
 40
19.982
  1
ノッチ
 41
0.998071409144555
 11
39321.31436108214
 21
-20369.2328197685
 31
0.0
100
AcDbText
 73
     3
  0
LWPOLYLINE
  5
168
330
1F
100
AcDbEntity
  8
0
100
AcDbPolyline
 90
        3
 70
     0
 43
0.0
 10
39301.77054248084
 20
-20427.09925735398
 10
39327.04152487945
 20
-20392.2552142749
 10
39380.9843820223
 20
-20392.2552142749
  0
LWPOLYLINE
  5
169
330
1F
100
AcDbEntity
  8
0
  6
Continuous
100
AcDbPolyline
 90
        3
 70
     0
 43
0.0
 10
39308.76009547547
 20
-20421.42949995748
 10
39301.77054248084
 20
-20427.09925735398
 10
39304.98879423703
 20
-20418.694326918
  0
TEXT
  5
16A
330
1F
100
AcDbEntity
  8
03-文字-2
100
AcDbText
 10
39534.49437787634
 20
-20512.90616985954
 30
0.0
 40
24.9775
  1
スパイラルダクト
 41
0.9973215996568048
 11
39534.49437787634
 21
-20487.92866985954
 31
0.0
100
AcDbText
 73
     3
  0
INSERT
  5
16E
330
1F
100
AcDbEntity
  8
03-文字-2
100
AcDbBlockReference
  2
INS-G47QF
 10
39072.669
 20
-20491.756
 30
0.0
  0
LINE
  5
171
330
1F
100
AcDbEntity
  8
05-ダクト外線
100
AcDbLine
 10
39338.39501850356
 20
-20428.7
 30
0.0
 11
39348.39501850356
 21
-20450.2
 31
0.0
  0
LINE
  5
172
330
1F
100
AcDbEntity
  8
05-ダクト外線
100
AcDbLine
 10
39338.39501850356
 20
-20571.3
 30
0.0
 11
39348.39501850356
 21
-20549.8
 31
0.0
  0
LINE
  5
173
330
1F
100
AcDbEntity
  8
06-ダクト内線
  6
DASHED2
 62
    20
 48
0.2
100
AcDbLine
 10
39288.39501850356
 20
-20429.5
 30
0.0
 11
39297.71173693056
 21
-20429.5
 31
0.0
  0
LINE
  5
174
330
1F
100
AcDbEntity
  8
06-ダクト内線
  6
DASHED2
 62
    20
 48
0.2
100
AcDbLine
 10
39288.39501850356
 20
-20570.5
 30
0.0
 11
39297.71173693053
 21
-20570.5
 31
0.0
  0
ARC
  5
175
330
1F
100
AcDbEntity
  8
06-ダクト内線
  6
DASHED2
 62
    20
 48
0.2
100
AcDbCircle
 10
39300.39501850356
 20
-20428.7
 30
0.0
 40
2.8
100
AcDbArc
 50
196.6015495989969
 51
270.0
  0
LINE
  5
176
330
1F
100
AcDbEntity
  8
06-ダクト内線
  6
DASHED2
 62
    20
 48
0.2
100
AcDbLine
 10
39300.39501850356
 20
-20431.5
 30
0.0
 11
39304.19501850355
 21
-20431.5
 31
0.0
  0
LINE
  5
177
330
1F
100
AcDbEntity
  8
06-ダクト内線
  6
DASHED2
 62
    20
 48
0.2
100
AcDbLine
 10
39304.19501850355
 20
-20429.5
 30
0.0
 11
39304.19501850355
 21
-20431.5
 31
0.0
  0
LINE
  5
178
330
1F
100
AcDbEntity
  8
06-ダクト内線
  6
DASHED2
 62
    20
 48
0.2
100
AcDbLine
 10
39304.19501850355
 20
-20429.5
 30
0.0
 11
39338.06837127917
 21
-20429.5
 31
0.0
  0
LINE
  5
179
330
1F
100
AcDbEntity
  8
06-ダクト内線
  6
DASHED2
 62
    20
 48
0.2
100
AcDbLine
 10
39338.06837127917
 20
-20429.5
 30
0.0
 11
39348.06837127917
 21
-20451.0
 31
0.0
  0
LINE
  5
17A
330
1F
100
AcDbEntity
  8
06-ダクト内線
  6
DASHED2
 62
    20
 48
0.2
100
AcDbLine
 10
39348.06837127917
 20
-20451.0
 30
0.0
 11
39423.39501850356
 21
-20451.0
 31
0.0
  0
LINE
  5
17B
330
1F
100
AcDbEntity
  8
06-ダクト内線
  6
DASHED2
 62
    20
 48
0.2
100
AcDbLine
 10
39348.06837127917
 20
-20549.0
 30
0.0
 11
39423.39501850356
 21
-20549.0
 31
0.0
  0
LINE
  5
17C
330
1F
100
AcDbEntity
  8
06-ダクト内線
  6
DASHED2
 62
    20
 48
0.2
100
AcDbLine
 10
39338.06837127917
 20
-20570.5
 30
0.0
 11
39348.06837127917
 21
-20549.0
 31
0.0
  0
LINE
  5
17D
330
1F
100
AcDbEntity
  8
06-ダクト内線
  6
DASHED2
 62
    20
 48
0.2
100
AcDbLine
 10
39304.19501850355
 20
-20570.5
 30
0.0
 11
39338.06837127917
 21
-20570.5
 31
0.0
  0
LINE
  5
17E
330
1F
100
AcDbEntity
  8
06-ダクト内線
  6
DASHED2
 62
    20
 48
0.2
100
AcDbLine
 10
39304.19501850355
 20
-20570.5
 30
0.0
 11
39304.19501850355
 21
-20568.5
 31
0.0
  0
LINE
  5
17F
330
1F
100
AcDbEntity
  8
06-ダクト内線
  6
DASHED2
 62
    20
 48
0.2
100
AcDbLine
 10
39300.39501850354
 20
-20568.5
 30
0.0
 11
39304.19501850355
 21
-20568.5
 31
0.0
  0
ARC
  5
180
330
1F
100
AcDbEntity
  8
06-ダクト内線
  6
DASHED2
 62
    20
 48
0.2
100
AcDbCircle
 10
39300.39501850354
 20
-20571.3
 30
0.0
 40
2.8
100
AcDbArc
 50
90.0
 51
163.3984504009318
  0
INSERT
  5
184
330
1F
100
AcDbEntity
  8
寸法
100
AcDbBlockReference
  2
INS-D5GZW
 10
39313.395
 20
-20611.3445
 30
0.0
  0
INSERT
  5
18E
330
1F
100
AcDbEntity
  8
寸法
100
AcDbBlockReference
  2
INS-D6PSQ
 10
39343.395
 20
-20614.65
 30
0.0
  0
INSERT
  5
196
330
1F
100
AcDbEntity
  8
寸法
100
AcDbBlockReference
  2
INS-DQJKC
 10
39385.895
 20
-20600.5945
 30
0.0
  0
TEXT
  5
19D
330
1F
100
AcDbEntity
  8
03-文字-2
100
AcDbText
 10
39012.65168516843
 20
-20889.59257710907
 30
0.0
 40
49.955
  1
FS10-125A（0.8t）
 41
0.99712127968442
 72
     1
 11
39355.89501850176
 21
-20864.61507710907
 31
0.0
100
AcDbText
 73
     2
  0
LINE
  5
19E
330
1F
100
AcDbEntity
  8
04-ダクトセンター
100
AcDbLine
 10
39298.39501850356
 20
-21300.0
 30
0.0
 11
39413.39501850356
 21
-21300.0
 31
0.0
  0
LINE
  5
19F
330
1F
100
AcDbEntity
  8
05-ダクト外線
100
AcDbLine
 10
39298.39501850356
 20
-21228.7
 30
0.0
 11
39298.39501850356
 21
-21371.3
 31
0.0
  0
LINE
  5
1A0
330
1F
100
AcDbEntity
  8
05-ダクト外線
100
AcDbLine
 10
39298.39501850356
 20
-21228.7
 30
0.0
 11
39308.39501850356
 21
-21228.7
 31
0.0
  0
LINE
  5
1A1
330
1F
100
AcDbEntity
  8
05-ダクト外線
100
AcDbLine
 10
39298.39501850356
 20
-21371.3
 30
0.0
 11
39308.39501850354
 21
-21371.3
 31
0.0
  0
LINE
  5
1A2
330
1F
100
AcDbEntity
  8
05-ダクト外線
100
AcDbLine
 10
39413.39501850356
 20
-21238.5
 30
0.0
 11
39413.39501850356
 21
-21361.5
 31
0.0
  0
LINE
  5
1A3
330
1F
100
AcDbEntity
  8
05-ダクト外線
100
AcDbLine
 10
39358.39501850356
 20
-21238.5
 30
0.0
 11
39413.39501850356
 21
-21238.5
 31
0.0
  0
LINE
  5
1A4
330
1F
100
AcDbEntity
  8
05-ダクト外線
100
AcDbLine
 10
39358.39501850356
 20
-21361.5
 30
0.0
 11
39413.39501850356
 21
-21361.5
 31
0.0
  0
LINE
  5
1A5
330
1F
100
AcDbEntity
  8
05-ダクト外線
100
AcDbLine
 10
39358.39501850356
 20
-21361.5
 30
0.0
 11
39358.39501850356
 21
-21238.5
 31
0.0
  0
LINE
  5
1A6
330
1F
100
AcDbEntity
  8
05-ダクト外線
100
AcDbLine
 10
39348.39501850356
 20
-21371.3
 30
0.0
 11
39348.39501850356
 21
-21228.7
 31
0.0
  0
INSERT
  5
1AA
330
1F
100
AcDbEntity
  8
寸法
100
AcDbBlockReference
  2
INS-D7N0K
 10
39252.393
 20
-21300.0
 30
0.0
  0
INSERT
  5
1B4
330
1F
100
AcDbEntity
  8
寸法
100
AcDbBlockReference
  2
INS-DXLYO
 10
39450.705
 20
-21300.0
 30
0.0
  0
INSERT
  5
1BE
330
1F
100
AcDbEntity
  8
寸法
100
AcDbBlockReference
  2
INS-D8VOX
 10
39355.895
 20
-21449.6475
 30
0.0
  0
LINE
  5
1C5
330
1F
100
AcDbEntity
  8
05-ダクト外線
100
AcDbLine
 10
39313.39501850356
 20
-21228.7
 30
0.0
 11
39313.39501850356
 21
-21230.7
 31
0.0
  0
LINE
  5
1C6
330
1F
100
AcDbEntity
  8
05-ダクト外線
100
AcDbLine
 10
39310.39501850356
 20
-21230.7
 30
0.0
 11
39313.39501850356
 21
-21230.7
 31
0.0
  0
ARC
  5
1C7
330
1F
100
AcDbEntity
  8
05-ダクト外線
100
AcDbCircle
 10
39310.39501850356
 20
-21228.7
 30
0.0
 40
2.0
100
AcDbArc
 50
180.0
 51
270.0
  0
LINE
  5
1C8
330
1F
100
AcDbEntity
  8
05-ダクト外線
100
AcDbLine
 10
39313.39501850356
 20
-21228.7
 30
0.0
 11
39348.39501850356
 21
-21228.7
 31
0.0
  0
ARC
  5
1C9
330
1F
100
AcDbEntity
  8
05-ダクト外線
100
AcDbCircle
 10
39310.39501850354
 20
-21371.3
 30
0.0
 40
2.0
100
AcDbArc
 50
90.0
 51
180.0
  0
LINE
  5
1CA
330
1F
100
AcDbEntity
  8
05-ダクト外線
100
AcDbLine
 10
39310.39501850354
 20
-21369.3
 30
0.0
 11
39313.39501850354
 21
-21369.3
 31
0.0
  0
LINE
  5
1CB
330
1F
100
AcDbEntity
  8
05-ダクト外線
100
AcDbLine
 10
39313.39501850354
 20
-21371.3
 30
0.0
 11
39313.39501850354
 21
-21369.3
 31
0.0
  0
LINE
  5
1CC
330
1F
100
AcDbEntity
  8
05-ダクト外線
100
AcDbLine
 10
39313.39501850354
 20
-21371.3
 30
0.0
 11
39348.39501850356
 21
-21371.3
 31
0.0
  0
TEXT
  5
1CD
330
1F
100
AcDbEntity
  8
0
100
AcDbText
 10
39331.31436108163
 20
-21189.21481977709
 30
0.0
 40
19.982
  1
ノッチ
 41
0.998071409144555
 11
39331.31436108163
 21
-21169.23281977709
 31
0.0
100
AcDbText
 73
     3
  0
LWPOLYLINE
  5
1CE
330
1F
100
AcDbEntity
  8
0
100
AcDbPolyline
 90
        3
 70
     0
 43
0.0
 10
39311.77054248084
 20
-21227.09925735398
 10
39337.04152487945
 20
-21192.2552142749
 10
39390.9843820223
 20
-21192.2552142749
  0
LWPOLYLINE
  5
1CF
330
1F
100
AcDbEntity
  8
0
  6
Continuous
100
AcDbPolyline
 90
        3
 70
     0
 43
0.0
 10
39318.76009547547
 20
-21221.42949995748
 10
39311.77054248084
 20
-21227.09925735398
 10
39314.98879423703
 20
-21218.694326918
  0
TEXT
  5
1D0
330
1F
100
AcDbEntity
  8
03-文字-2
100
AcDbText
 10
39544.49437788007
 20
-21312.90616985954
 30
0.0
 40
24.9775
  1
スパイラルダクト
 41
0.9973215996568048
 11
39544.49437788007
 21
-21287.92866985954
 31
0.0
100
AcDbText
 73
     3
  0
INSERT
  5
1D4
330
1F
100
AcDbEntity
  8
03-文字-2
100
AcDbBlockReference
  2
INS-G47QH
 10
39082.669
 20
-21291.756
 30
0.0
  0
LINE
  5
1D7
330
1F
100
AcDbEntity
  8
05-ダクト外線
100
AcDbLine
 10
39348.39501850356
 20
-21228.7
 30
0.0
 11
39358.39501850356
 21
-21238.5
 31
0.0
  0
LINE
  5
1D8
330
1F
100
AcDbEntity
  8
05-ダクト外線
100
AcDbLine
 10
39348.39501850356
 20
-21371.3
 30
0.0
 11
39358.39501850356
 21
-21361.5
 31
0.0
  0
LINE
  5
1D9
330
1F
100
AcDbEntity
  8
06-ダクト内線
  6
DASHED2
 62
    20
 48
0.2
100
AcDbLine
 10
39298.39501850356
 20
-21229.5
 30
0.0
 11
39307.71173693056
 21
-21229.5
 31
0.0
  0
LINE
  5
1DA
330
1F
100
AcDbEntity
  8
06-ダクト内線
  6
DASHED2
 62
    20
 48
0.2
100
AcDbLine
 10
39298.39501850356
 20
-21370.5
 30
0.0
 11
39307.71173693053
 21
-21370.5
 31
0.0
  0
ARC
  5
1DB
330
1F
100
AcDbEntity
  8
06-ダクト内線
  6
DASHED2
 62
    20
 48
0.2
100
AcDbCircle
 10
39310.39501850356
 20
-21228.7
 30
0.0
 40
2.8
100
AcDbArc
 50
196.6015495989969
 51
270.0
  0
LINE
  5
1DC
330
1F
100
AcDbEntity
  8
06-ダクト内線
  6
DASHED2
 62
    20
 48
0.2
100
AcDbLine
 10
39310.39501850356
 20
-21231.5
 30
0.0
 11
39314.19501850355
 21
-21231.5
 31
0.0
  0
LINE
  5
1DD
330
1F
100
AcDbEntity
  8
06-ダクト内線
  6
DASHED2
 62
    20
 48
0.2
100
AcDbLine
 10
39314.19501850355
 20
-21229.5
 30
0.0
 11
39314.19501850355
 21
-21231.5
 31
0.0
  0
LINE
  5
1DE
330
1F
100
AcDbEntity
  8
06-ダクト内線
  6
DASHED2
 62
    20
 48
0.2
100
AcDbLine
 10
39314.19501850355
 20
-21229.5
 30
0.0
 11
39348.06837127917
 21
-21229.5
 31
0.0
  0
LINE
  5
1DF
330
1F
100
AcDbEntity
  8
06-ダクト内線
  6
DASHED2
 62
    20
 48
0.2
100
AcDbLine
 10
39348.06837127917
 20
-21229.5
 30
0.0
 11
39358.06837127917
 21
-21239.3
 31
0.0
  0
LINE
  5
1E0
330
1F
100
AcDbEntity
  8
06-ダクト内線
  6
DASHED2
 62
    20
 48
0.2
100
AcDbLine
 10
39358.06837127917
 20
-21239.3
 30
0.0
 11
39413.39501850356
 21
-21239.3
 31
0.0
  0
LINE
  5
1E1
330
1F
100
AcDbEntity
  8
06-ダクト内線
  6
DASHED2
 62
    20
 48
0.2
100
AcDbLine
 10
39358.06837127917
 20
-21360.7
 30
0.0
 11
39413.39501850356
 21
-21360.7
 31
0.0
  0
LINE
  5
1E2
330
1F
100
AcDbEntity
  8
06-ダクト内線
  6
DASHED2
 62
    20
 48
0.2
100
AcDbLine
 10
39348.06837127917
 20
-21370.5
 30
0.0
 11
39358.06837127917
 21
-21360.7
 31
0.0
  0
LINE
  5
1E3
330
1F
100
AcDbEntity
  8
06-ダクト内線
  6
DASHED2
 62
    20
 48
0.2
100
AcDbLine
 10
39314.19501850355
 20
-21370.5
 30
0.0
 11
39348.06837127917
 21
-21370.5
 31
0.0
  0
LINE
  5
1E4
330
1F
100
AcDbEntity
  8
06-ダクト内線
  6
DASHED2
 62
    20
 48
0.2
100
AcDbLine
 10
39314.19501850355
 20
-21370.5
 30
0.0
 11
39314.19501850355
 21
-21368.5
 31
0.0
  0
LINE
  5
1E5
330
1F
100
AcDbEntity
  8
06-ダクト内線
  6
DASHED2
 62
    20
 48
0.2
100
AcDbLine
 10
39310.39501850354
 20
-21368.5
 30
0.0
 11
39314.19501850355
 21
-21368.5
 31
0.0
  0
ARC
  5
1E6
330
1F
100
AcDbEntity
  8
06-ダクト内線
  6
DASHED2
 62
    20
 48
0.2
100
AcDbCircle
 10
39310.39501850354
 20
-21371.3
 30
0.0
 40
2.8
100
AcDbArc
 50
90.0
 51
163.3984504009318
  0
INSERT
  5
1EA
330
1F
100
AcDbEntity
  8
寸法
100
AcDbBlockReference
  2
INS-DHRNJ
 10
39323.395
 20
-21411.3445
 30
0.0
  0
INSERT
  5
1F4
330
1F
100
AcDbEntity
  8
寸法
100
AcDbBlockReference
  2
INS-DC1GQ
 10
39353.395
 20
-21420.5
 30
0.0
  0
INSERT
  5
1FC
330
1F
100
AcDbEntity
  8
寸法
100
AcDbBlockReference
  2
INS-D7R8S
 10
39385.895
 20
-21406.4445
 30
0.0
  0
TEXT
  5
203
330
1F
100
AcDbEntity
  8
03-文字-2
100
AcDbText
 10
39008.35001850246
 20
-21689.59257710945
 30
0.0
 40
49.955
  1
FS12-125A（0.8t）
 41
0.99712127968442
 72
     1
 11
39355.89501850246
 21
-21664.61507710945
 31
0.0
100
AcDbText
 73
     2
  0
LINE
  5
204
330
1F
100
AcDbEntity
  8
04-ダクトセンター
100
AcDbLine
 10
39298.39501850356
 20
-22100.0
 30
0.0
 11
39413.39501850356
 21
-22100.0
 31
0.0
  0
LINE
  5
205
330
1F
100
AcDbEntity
  8
05-ダクト外線
100
AcDbLine
 10
39298.39501850356
 20
-22016.2
 30
0.0
 11
39298.39501850356
 21
-22183.8
 31
0.0
  0
LINE
  5
206
330
1F
100
AcDbEntity
  8
05-ダクト外線
100
AcDbLine
 10
39298.39501850356
 20
-22016.2
 30
0.0
 11
39308.39501850356
 21
-22016.2
 31
0.0
  0
LINE
  5
207
330
1F
100
AcDbEntity
  8
05-ダクト外線
100
AcDbLine
 10
39298.39501850356
 20
-22183.8
 30
0.0
 11
39308.39501850354
 21
-22183.8
 31
0.0
  0
LINE
  5
208
330
1F
100
AcDbEntity
  8
05-ダクト外線
100
AcDbLine
 10
39413.39501850356
 20
-22026.0
 30
0.0
 11
39413.39501850356
 21
-22174.0
 31
0.0
  0
LINE
  5
209
330
1F
100
AcDbEntity
  8
05-ダクト外線
100
AcDbLine
 10
39358.39501850356
 20
-22026.0
 30
0.0
 11
39413.39501850356
 21
-22026.0
 31
0.0
  0
LINE
  5
20A
330
1F
100
AcDbEntity
  8
05-ダクト外線
100
AcDbLine
 10
39358.39501850356
 20
-22174.0
 30
0.0
 11
39413.39501850356
 21
-22174.0
 31
0.0
  0
LINE
  5
20B
330
1F
100
AcDbEntity
  8
05-ダクト外線
100
AcDbLine
 10
39358.39501850356
 20
-22174.0
 30
0.0
 11
39358.39501850356
 21
-22026.0
 31
0.0
  0
LINE
  5
20C
330
1F
100
AcDbEntity
  8
05-ダクト外線
100
AcDbLine
 10
39348.39501850356
 20
-22183.8
 30
0.0
 11
39348.39501850356
 21
-22016.2
 31
0.0
  0
INSERT
  5
210
330
1F
100
AcDbEntity
  8
寸法
100
AcDbBlockReference
  2
INS-D88PR
 10
39252.393
 20
-22100.0
 30
0.0
  0
INSERT
  5
21A
330
1F
100
AcDbEntity
  8
寸法
100
AcDbBlockReference
  2
INS-D530E
 10
39450.705
 20
-22100.0
 30
0.0
  0
INSERT
  5
224
330
1F
100
AcDbEntity
  8
寸法
100
AcDbBlockReference
  2
INS-DXCRW
 10
39355.895
 20
-22255.8975
 30
0.0
  0
LINE
  5
22B
330
1F
100
AcDbEntity
  8
05-ダクト外線
100
AcDbLine
 10
39313.39501850356
 20
-22016.2
 30
0.0
 11
39313.39501850356
 21
-22018.2
 31
0.0
  0
LINE
  5
22C
330
1F
100
AcDbEntity
  8
05-ダクト外線
100
AcDbLine
 10
39310.39501850356
 20
-22018.2
 30
0.0
 11
39313.39501850356
 21
-22018.2
 31
0.0
  0
ARC
  5
22D
330
1F
100
AcDbEntity
  8
05-ダクト外線
100
AcDbCircle
 10
39310.39501850356
 20
-22016.2
 30
0.0
 40
2.0
100
AcDbArc
 50
180.0
 51
270.0
  0
LINE
  5
22E
330
1F
100
AcDbEntity
  8
05-ダクト外線
100
AcDbLine
 10
39313.39501850356
 20
-22016.2
 30
0.0
 11
39348.39501850356
 21
-22016.2
 31
0.0
  0
ARC
  5
22F
330
1F
100
AcDbEntity
  8
05-ダクト外線
100
AcDbCircle
 10
39310.39501850354
 20
-22183.8
 30
0.0
 40
2.0
100
AcDbArc
 50
90.0
 51
180.0
  0
LINE
  5
230
330
1F
100
AcDbEntity
  8
05-ダクト外線
100
AcDbLine
 10
39310.39501850354
 20
-22181.8
 30
0.0
 11
39313.39501850354
 21
-22181.8
 31
0.0
  0
LINE
  5
231
330
1F
100
AcDbEntity
  8
05-ダクト外線
100
AcDbLine
 10
39313.39501850354
 20
-22183.8
 30
0.0
 11
39313.39501850354
 21
-22181.8
 31
0.0
  0
LINE
  5
232
330
1F
100
AcDbEntity
  8
05-ダクト外線
100
AcDbLine
 10
39313.39501850354
 20
-22183.8
 30
0.0
 11
39348.39501850356
 21
-22183.8
 31
0.0
  0
TEXT
  5
233
330
1F
100
AcDbEntity
  8
0
100
AcDbText
 10
39331.31436108163
 20
-21976.71481977796
 30
0.0
 40
19.982
  1
ノッチ
 41
0.998071409144555
 11
39331.31436108163
 21
-21956.73281977796
 31
0.0
100
AcDbText
 73
     3
  0
LWPOLYLINE
  5
234
330
1F
100
AcDbEntity
  8
0
100
AcDbPolyline
 90
        3
 70
     0
 43
0.0
 10
39311.77054248084
 20
-22014.59925735398
 10
39337.04152487945
 20
-21979.7552142749
 10
39390.9843820223
 20
-21979.7552142749
  0
LWPOLYLINE
  5
235
330
1F
100
AcDbEntity
  8
0
  6
Continuous
100
AcDbPolyline
 90
        3
 70
     0
 43
0.0
 10
39318.76009547547
 20
-22008.92949995748
 10
39311.77054248084
 20
-22014.59925735398
 10
39314.98879423703
 20
-22006.194326918
  0
TEXT
  5
236
330
1F
100
AcDbEntity
  8
03-文字-2
100
AcDbText
 10
39544.49437786889
 20
-22112.90616985954
 30
0.0
 40
24.9775
  1
スパイラルダクト
 41
0.9973215996568048
 11
39544.49437786889
 21
-22087.92866985954
 31
0.0
100
AcDbText
 73
     3
  0
INSERT
  5
23A
330
1F
100
AcDbEntity
  8
03-文字-2
100
AcDbBlockReference
  2
INS-G956X
 10
39082.669
 20
-22091.756
 30
0.0
  0
LINE
  5
23D
330
1F
100
AcDbEntity
  8
05-ダクト外線
100
AcDbLine
 10
39348.39501850356
 20
-22016.2
 30
0.0
 11
39358.39501850356
 21
-22026.0
 31
0.0
  0
LINE
  5
23E
330
1F
100
AcDbEntity
  8
05-ダクト外線
100
AcDbLine
 10
39348.39501850356
 20
-22183.8
 30
0.0
 11
39358.39501850356
 21
-22174.0
 31
0.0
  0
LINE
  5
23F
330
1F
100
AcDbEntity
  8
06-ダクト内線
  6
DASHED2
 62
    20
 48
0.2
100
AcDbLine
 10
39298.39501850356
 20
-22017.0
 30
0.0
 11
39307.71173693056
 21
-22017.0
 31
0.0
  0
LINE
  5
240
330
1F
100
AcDbEntity
  8
06-ダクト内線
  6
DASHED2
 62
    20
 48
0.2
100
AcDbLine
 10
39298.39501850356
 20
-22183.0
 30
0.0
 11
39307.71173693053
 21
-22183.0
 31
0.0
  0
ARC
  5
241
330
1F
100
AcDbEntity
  8
06-ダクト内線
  6
DASHED2
 62
    20
 48
0.2
100
AcDbCircle
 10
39310.39501850356
 20
-22016.2
 30
0.0
 40
2.8
100
AcDbArc
 50
196.6015495989969
 51
270.0
  0
LINE
  5
242
330
1F
100
AcDbEntity
  8
06-ダクト内線
  6
DASHED2
 62
    20
 48
0.2
100
AcDbLine
 10
39310.39501850356
 20
-22019.0
 30
0.0
 11
39314.19501850355
 21
-22019.0
 31
0.0
  0
LINE
  5
243
330
1F
100
AcDbEntity
  8
06-ダクト内線
  6
DASHED2
 62
    20
 48
0.2
100
AcDbLine
 10
39314.19501850355
 20
-22017.0
 30
0.0
 11
39314.19501850355
 21
-22019.0
 31
0.0
  0
LINE
  5
244
330
1F
100
AcDbEntity
  8
06-ダクト内線
  6
DASHED2
 62
    20
 48
0.2
100
AcDbLine
 10
39314.19501850355
 20
-22017.0
 30
0.0
 11
39348.06837127917
 21
-22017.0
 31
0.0
  0
LINE
  5
245
330
1F
100
AcDbEntity
  8
06-ダクト内線
  6
DASHED2
 62
    20
 48
0.2
100
AcDbLine
 10
39348.06837127917
 20
-22017.0
 30
0.0
 11
39358.06837127917
 21
-22026.8
 31
0.0
  0
LINE
  5
246
330
1F
100
AcDbEntity
  8
06-ダクト内線
  6
DASHED2
 62
    20
 48
0.2
100
AcDbLine
 10
39358.06837127917
 20
-22026.8
 30
0.0
 11
39413.39501850356
 21
-22026.8
 31
0.0
  0
LINE
  5
247
330
1F
100
AcDbEntity
  8
06-ダクト内線
  6
DASHED2
 62
    20
 48
0.2
100
AcDbLine
 10
39358.06837127917
 20
-22173.2
 30
0.0
 11
39413.39501850356
 21
-22173.2
 31
0.0
  0
LINE
  5
248
330
1F
100
AcDbEntity
  8
06-ダクト内線
  6
DASHED2
 62
    20
 48
0.2
100
AcDbLine
 10
39348.06837127917
 20
-22183.0
 30
0.0
 11
39358.06837127917
 21
-22173.2
 31
0.0
  0
LINE
  5
249
330
1F
100
AcDbEntity
  8
06-ダクト内線
  6
DASHED2
 62
    20
 48
0.2
100
AcDbLine
 10
39314.19501850355
 20
-22183.0
 30
0.0
 11
39348.06837127917
 21
-22183.0
 31
0.0
  0
LINE
  5
24A
330
1F
100
AcDbEntity
  8
06-ダクト内線
  6
DASHED2
 62
    20
 48
0.2
100
AcDbLine
 10
39314.19501850355
 20
-22183.0
 30
0.0
 11
39314.19501850355
 21
-22181.0
 31
0.0
  0
LINE
  5
24B
330
1F
100
AcDbEntity
  8
06-ダクト内線
  6
DASHED2
 62
    20
 48
0.2
100
AcDbLine
 10
39310.39501850354
 20
-22181.0
 30
0.0
 11
39314.19501850355
 21
-22181.0
 31
0.0
  0
ARC
  5
24C
330
1F
100
AcDbEntity
  8
06-ダクト内線
  6
DASHED2
 62
    20
 48
0.2
100
AcDbCircle
 10
39310.39501850354
 20
-22183.8
 30
0.0
 40
2.8
100
AcDbArc
 50
90.0
 51
163.3984504009318
  0
INSERT
  5
250
330
1F
100
AcDbEntity
  8
寸法
100
AcDbBlockReference
  2
INS-D8FZP
 10
39323.395
 20
-22217.5945
 30
0.0
  0
INSERT
  5
25A
330
1F
100
AcDbEntity
  8
寸法
100
AcDbBlockReference
  2
INS-D970K
 10
39353.395
 20
-22226.75
 30
0.0
  0
INSERT
  5
262
330
1F
100
AcDbEntity
  8
寸法
100
AcDbBlockReference
  2
INS-DCYLF
 10
39385.895
 20
-22212.6945
 30
0.0
  0
TEXT
  5
269
330
1F
100
AcDbEntity
  8
03-文字-2
100
AcDbText
 10
39012.65168517029
 20
-22489.59257710807
 30
0.0
 40
49.955
  1
FS15-150A（0.8t）
 41
0.99712127968442
 72
     1
 11
39355.89501850362
 21
-22464.61507710807
 31
0.0
100
AcDbText
 73
     2
  0
LINE
  5
26A
330
1F
100
AcDbEntity
  8
04-ダクトセンター
100
AcDbLine
 10
39298.39501850356
 20
-22900.0
 30
0.0
 11
39413.39501850356
 21
-22900.0
 31
0.0
  0
LINE
  5
26B
330
1F
100
AcDbEntity
  8
05-ダクト外線
100
AcDbLine
 10
39298.39501850356
 20
-22803.2
 30
0.0
 11
39298.39501850356
 21
-22996.8
 31
0.0
  0
LINE
  5
26C
330
1F
100
AcDbEntity
  8
05-ダクト外線
100
AcDbLine
 10
39298.39501850356
 20
-22803.2
 30
0.0
 11
39308.39501850356
 21
-22803.2
 31
0.0
  0
LINE
  5
26D
330
1F
100
AcDbEntity
  8
05-ダクト外線
100
AcDbLine
 10
39298.39501850356
 20
-22996.8
 30
0.0
 11
39308.39501850354
 21
-22996.8
 31
0.0
  0
LINE
  5
26E
330
1F
100
AcDbEntity
  8
05-ダクト外線
100
AcDbLine
 10
39413.39501850356
 20
-22813.5
 30
0.0
 11
39413.39501850356
 21
-22986.5
 31
0.0
  0
LINE
  5
26F
330
1F
100
AcDbEntity
  8
05-ダクト外線
100
AcDbLine
 10
39358.39501850356
 20
-22813.5
 30
0.0
 11
39413.39501850356
 21
-22813.5
 31
0.0
  0
LINE
  5
270
330
1F
100
AcDbEntity
  8
05-ダクト外線
100
AcDbLine
 10
39358.39501850356
 20
-22986.5
 30
0.0
 11
39413.39501850356
 21
-22986.5
 31
0.0
  0
LINE
  5
271
330
1F
100
AcDbEntity
  8
05-ダクト外線
100
AcDbLine
 10
39358.39501850356
 20
-22986.5
 30
0.0
 11
39358.39501850356
 21
-22813.5
 31
0.0
  0
LINE
  5
272
330
1F
100
AcDbEntity
  8
05-ダクト外線
100
AcDbLine
 10
39348.39501850356
 20
-22996.8
 30
0.0
 11
39348.39501850356
 21
-22803.2
 31
0.0
  0
INSERT
  5
276
330
1F
100
AcDbEntity
  8
寸法
100
AcDbBlockReference
  2
INS-D5RKR
 10
39252.393
 20
-22900.0
 30
0.0
  0
INSERT
  5
280
330
1F
100
AcDbEntity
  8
寸法
100
AcDbBlockReference
  2
INS-D61U9
 10
39450.705
 20
-22900.0
 30
0.0
  0
INSERT
  5
28A
330
1F
100
AcDbEntity
  8
寸法
100
AcDbBlockReference
  2
INS-D8DUV
 10
39355.895
 20
-23087.1475
 30
0.0
  0
LINE
  5
291
330
1F
100
AcDbEntity
  8
05-ダクト外線
100
AcDbLine
 10
39313.39501850356
 20
-22803.2
 30
0.0
 11
39313.39501850356
 21
-22805.2
 31
0.0
  0
LINE
  5
292
330
1F
100
AcDbEntity
  8
05-ダクト外線
100
AcDbLine
 10
39310.39501850356
 20
-22805.2
 30
0.0
 11
39313.39501850356
 21
-22805.2
 31
0.0
  0
ARC
  5
293
330
1F
100
AcDbEntity
  8
05-ダクト外線
100
AcDbCircle
 10
39310.39501850356
 20
-22803.2
 30
0.0
 40
2.0
100
AcDbArc
 50
180.0
 51
270.0
  0
LINE
  5
294
330
1F
100
AcDbEntity
  8
05-ダクト外線
100
AcDbLine
 10
39313.39501850356
 20
-22803.2
 30
0.0
 11
39348.39501850356
 21
-22803.2
 31
0.0
  0
ARC
  5
295
330
1F
100
AcDbEntity
  8
05-ダクト外線
100
AcDbCircle
 10
39310.39501850354
 20
-22996.8
 30
0.0
 40
2.0
100
AcDbArc
 50
90.0
 51
180.0
  0
LINE
  5
296
330
1F
100
AcDbEntity
  8
05-ダクト外線
100
AcDbLine
 10
39310.39501850354
 20
-22994.8
 30
0.0
 11
39313.39501850354
 21
-22994.8
 31
0.0
  0
LINE
  5
297
330
1F
100
AcDbEntity
  8
05-ダクト外線
100
AcDbLine
 10
39313.39501850354
 20
-22996.8
 30
0.0
 11
39313.39501850354
 21
-22994.8
 31
0.0
  0
LINE
  5
298
330
1F
100
AcDbEntity
  8
05-ダクト外線
100
AcDbLine
 10
39313.39501850354
 20
-22996.8
 30
0.0
 11
39348.39501850356
 21
-22996.8
 31
0.0
  0
TEXT
  5
299
330
1F
100
AcDbEntity
  8
0
100
AcDbText
 10
39331.31436108908
 20
-22763.71481977368
 30
0.0
 40
19.982
  1
ノッチ
 41
0.998071409144555
 11
39331.31436108908
 21
-22743.73281977368
 31
0.0
100
AcDbText
 73
     3
  0
LWPOLYLINE
  5
29A
330
1F
100
AcDbEntity
  8
0
100
AcDbPolyline
 90
        3
 70
     0
 43
0.0
 10
39311.77054248084
 20
-22801.59925735398
 10
39337.04152487945
 20
-22766.7552142749
 10
39390.9843820223
 20
-22766.7552142749
  0
LWPOLYLINE
  5
29B
330
1F
100
AcDbEntity
  8
0
  6
Continuous
100
AcDbPolyline
 90
        3
 70
     0
 43
0.0
 10
39318.76009547547
 20
-22795.92949995748
 10
39311.77054248084
 20
-22801.59925735398
 10
39314.98879423703
 20
-22793.194326918
  0
TEXT
  5
29C
330
1F
100
AcDbEntity
  8
03-文字-2
100
AcDbText
 10
39544.49437787634
 20
-22912.90616985954
 30
0.0
 40
24.9775
  1
スパイラルダクト
 41
0.9973215996568048
 11
39544.49437787634
 21
-22887.92866985954
 31
0.0
100
AcDbText
 73
     3
  0
INSERT
  5
2A0
330
1F
100
AcDbEntity
  8
03-文字-2
100
AcDbBlockReference
  2
INS-G3TA2
 10
39082.669
 20
-22891.756
 30
0.0
  0
LINE
  5
2A3
330
1F
100
AcDbEntity
  8
05-ダクト外線
100
AcDbLine
 10
39348.39501850356
 20
-22803.2
 30
0.0
 11
39358.39501850356
 21
-22813.5
 31
0.0
  0
LINE
  5
2A4
330
1F
100
AcDbEntity
  8
05-ダクト外線
100
AcDbLine
 10
39348.39501850356
 20
-22996.8
 30
0.0
 11
39358.39501850356
 21
-22986.5
 31
0.0
  0
LINE
  5
2A5
330
1F
100
AcDbEntity
  8
06-ダクト内線
  6
DASHED2
 62
    20
 48
0.2
100
AcDbLine
 10
39298.39501850356
 20
-22804.0
 30
0.0
 11
39307.71173693056
 21
-22804.0
 31
0.0
  0
LINE
  5
2A6
330
1F
100
AcDbEntity
  8
06-ダクト内線
  6
DASHED2
 62
    20
 48
0.2
100
AcDbLine
 10
39298.39501850356
 20
-22996.0
 30
0.0
 11
39307.71173693053
 21
-22996.0
 31
0.0
  0
ARC
  5
2A7
330
1F
100
AcDbEntity
  8
06-ダクト内線
  6
DASHED2
 62
    20
 48
0.2
100
AcDbCircle
 10
39310.39501850356
 20
-22803.2
 30
0.0
 40
2.8
100
AcDbArc
 50
196.6015495989969
 51
270.0
  0
LINE
  5
2A8
330
1F
100
AcDbEntity
  8
06-ダクト内線
  6
DASHED2
 62
    20
 48
0.2
100
AcDbLine
 10
39310.39501850356
 20
-22806.0
 30
0.0
 11
39314.19501850355
 21
-22806.0
 31
0.0
  0
LINE
  5
2A9
330
1F
100
AcDbEntity
  8
06-ダクト内線
  6
DASHED2
 62
    20
 48
0.2
100
AcDbLine
 10
39314.19501850355
 20
-22804.0
 30
0.0
 11
39314.19501850355
 21
-22806.0
 31
0.0
  0
LINE
  5
2AA
330
1F
100
AcDbEntity
  8
06-ダクト内線
  6
DASHED2
 62
    20
 48
0.2
100
AcDbLine
 10
39314.19501850355
 20
-22804.0
 30
0.0
 11
39348.06837127917
 21
-22804.0
 31
0.0
  0
LINE
  5
2AB
330
1F
100
AcDbEntity
  8
06-ダクト内線
  6
DASHED2
 62
    20
 48
0.2
100
AcDbLine
 10
39348.06837127917
 20
-22804.0
 30
0.0
 11
39358.06837127917
 21
-22814.3
 31
0.0
  0
LINE
  5
2AC
330
1F
100
AcDbEntity
  8
06-ダクト内線
  6
DASHED2
 62
    20
 48
0.2
100
AcDbLine
 10
39358.06837127917
 20
-22814.3
 30
0.0
 11
39413.39501850356
 21
-22814.3
 31
0.0
  0
LINE
  5
2AD
330
1F
100
AcDbEntity
  8
06-ダクト内線
  6
DASHED2
 62
    20
 48
0.2
100
AcDbLine
 10
39358.06837127917
 20
-22985.7
 30
0.0
 11
39413.39501850356
 21
-22985.7
 31
0.0
  0
LINE
  5
2AE
330
1F
100
AcDbEntity
  8
06-ダクト内線
  6
DASHED2
 62
    20
 48
0.2
100
AcDbLine
 10
39348.06837127917
 20
-22996.0
 30
0.0
 11
39358.06837127917
 21
-22985.7
 31
0.0
  0
LINE
  5
2AF
330
1F
100
AcDbEntity
  8
06-ダクト内線
  6
DASHED2
 62
    20
 48
0.2
100
AcDbLine
 10
39314.19501850355
 20
-22996.0
 30
0.0
 11
39348.06837127917
 21
-22996.0
 31
0.0
  0
LINE
  5
2B0
330
1F
100
AcDbEntity
  8
06-ダクト内線
  6
DASHED2
 62
    20
 48
0.2
100
AcDbLine
 10
39314.19501850355
 20
-22996.0
 30
0.0
 11
39314.19501850355
 21
-22994.0
 31
0.0
  0
LINE
  5
2B1
330
1F
100
AcDbEntity
  8
06-ダクト内線
  6
DASHED2
 62
    20
 48
0.2
100
AcDbLine
 10
39310.39501850354
 20
-22994.0
 30
0.0
 11
39314.19501850355
 21
-22994.0
 31
0.0
  0
ARC
  5
2B2
330
1F
100
AcDbEntity
  8
06-ダクト内線
  6
DASHED2
 62
    20
 48
0.2
100
AcDbCircle
 10
39310.39501850354
 20
-22996.8
 30
0.0
 40
2.8
100
AcDbArc
 50
90.0
 51
163.3984504009318
  0
INSERT
  5
2B6
330
1F
100
AcDbEntity
  8
寸法
100
AcDbBlockReference
  2
INS-D43D4
 10
39323.395
 20
-23049.0945
 30
0.0
  0
INSERT
  5
2C0
330
1F
100
AcDbEntity
  8
寸法
100
AcDbBlockReference
  2
INS-DCS30
 10
39353.395
 20
-23058.0
 30
0.0
  0
INSERT
  5
2C8
330
1F
100
AcDbEntity
  8
寸法
100
AcDbBlockReference
  2
INS-DKRZA
 10
39385.895
 20
-23043.9445
 30
0.0
  0
TEXT
  5
2CF
330
1F
100
AcDbEntity
  8
03-文字-2
100
AcDbText
 10
39008.35001850619
 20
-23314.59257710859
 30
0.0
 40
49.955
  1
FS17-175A（0.8t）
 41
0.99712127968442
 72
     1
 11
39355.89501850618
 21
-23289.61507710858
 31
0.0
100
AcDbText
 73
     2
  0
LINE
  5
2D0
330
1F
100
AcDbEntity
  8
04-ダクトセンター
100
AcDbLine
 10
39288.39501850356
 20
-23700.0
 30
0.0
 11
39423.39501850356
 21
-23700.0
 31
0.0
  0
LINE
  5
2D1
330
1F
100
AcDbEntity
  8
05-ダクト外線
100
AcDbLine
 10
39288.39501850356
 20
-23590.7
 30
0.0
 11
39288.39501850356
 21
-23809.3
 31
0.0
  0
LINE
  5
2D2
330
1F
100
AcDbEntity
  8
05-ダクト外線
100
AcDbLine
 10
39288.39501850356
 20
-23590.7
 30
0.0
 11
39298.39501850356
 21
-23590.7
 31
0.0
  0
LINE
  5
2D3
330
1F
100
AcDbEntity
  8
05-ダクト外線
100
AcDbLine
 10
39288.39501850356
 20
-23809.3
 30
0.0
 11
39298.39501850354
 21
-23809.3
 31
0.0
  0
LINE
  5
2D4
330
1F
100
AcDbEntity
  8
05-ダクト外線
100
AcDbLine
 10
39423.39501850356
 20
-23613.5
 30
0.0
 11
39423.39501850356
 21
-23786.5
 31
0.0
  0
LINE
  5
2D5
330
1F
100
AcDbEntity
  8
05-ダクト外線
100
AcDbLine
 10
39348.39501850356
 20
-23613.5
 30
0.0
 11
39423.39501850356
 21
-23613.5
 31
0.0
  0
LINE
  5
2D6
330
1F
100
AcDbEntity
  8
05-ダクト外線
100
AcDbLine
 10
39348.39501850356
 20
-23786.5
 30
0.0
 11
39423.39501850356
 21
-23786.5
 31
0.0
  0
LINE
  5
2D7
330
1F
100
AcDbEntity
  8
05-ダクト外線
100
AcDbLine
 10
39348.39501850356
 20
-23786.5
 30
0.0
 11
39348.39501850356
 21
-23613.5
 31
0.0
  0
LINE
  5
2D8
330
1F
100
AcDbEntity
  8
05-ダクト外線
100
AcDbLine
 10
39338.39501850356
 20
-23809.3
 30
0.0
 11
39338.39501850356
 21
-23590.7
 31
0.0
  0
INSERT
  5
2DC
330
1F
100
AcDbEntity
  8
寸法
100
AcDbBlockReference
  2
INS-DVU33
 10
39242.393
 20
-23700.0
 30
0.0
  0
INSERT
  5
2E6
330
1F
100
AcDbEntity
  8
寸法
100
AcDbBlockReference
  2
INS-D4ROY
 10
39460.705
 20
-23700.0
 30
0.0
  0
INSERT
  5
2F0
330
1F
100
AcDbEntity
  8
寸法
100
AcDbBlockReference
  2
INS-DHOSL
 10
39355.895
 20
-23887.1475
 30
0.0
  0
LINE
  5
2F7
330
1F
100
AcDbEntity
  8
05-ダクト外線
100
AcDbLine
 10
39303.39501850356
 20
-23590.7
 30
0.0
 11
39303.39501850356
 21
-23592.7
 31
0.0
  0
LINE
  5
2F8
330
1F
100
AcDbEntity
  8
05-ダクト外線
100
AcDbLine
 10
39300.39501850356
 20
-23592.7
 30
0.0
 11
39303.39501850356
 21
-23592.7
 31
0.0
  0
ARC
  5
2F9
330
1F
100
AcDbEntity
  8
05-ダクト外線
100
AcDbCircle
 10
39300.39501850356
 20
-23590.7
 30
0.0
 40
2.0
100
AcDbArc
 50
180.0
 51
270.0
  0
LINE
  5
2FA
330
1F
100
AcDbEntity
  8
05-ダクト外線
100
AcDbLine
 10
39303.39501850356
 20
-23590.7
 30
0.0
 11
39338.39501850356
 21
-23590.7
 31
0.0
  0
ARC
  5
2FB
330
1F
100
AcDbEntity
  8
05-ダクト外線
100
AcDbCircle
 10
39300.39501850354
 20
-23809.3
 30
0.0
 40
2.0
100
AcDbArc
 50
90.0
 51
180.0
  0
LINE
  5
2FC
330
1F
100
AcDbEntity
  8
05-ダクト外線
100
AcDbLine
 10
39300.39501850354
 20
-23807.3
 30
0.0
 11
39303.39501850354
 21
-23807.3
 31
0.0
  0
LINE
  5
2FD
330
1F
100
AcDbEntity
  8
05-ダクト外線
100
AcDbLine
 10
39303.39501850354
 20
-23809.3
 30
0.0
 11
39303.39501850354
 21
-23807.3
 31
0.0
  0
LINE
  5
2FE
330
1F
100
AcDbEntity
  8
05-ダクト外線
100
AcDbLine
 10
39303.39501850354
 20
-23809.3
 30
0.0
 11
39338.39501850356
 21
-23809.3
 31
0.0
  0
TEXT
  5
2FF
330
1F
100
AcDbEntity
  8
0
100
AcDbText
 10
39321.31436107765
 20
-23551.21481977283
 30
0.0
 40
19.982
  1
ノッチ
 41
0.998071409144555
 11
39321.31436107765
 21
-23531.23281977283
 31
0.0
100
AcDbText
 73
     3
  0
LWPOLYLINE
  5
300
330
1F
100
AcDbEntity
  8
0
100
AcDbPolyline
 90
        3
 70
     0
 43
0.0
 10
39301.77054248084
 20
-23589.09925735398
 10
39327.04152487945
 20
-23554.2552142749
 10
39380.9843820223
 20
-23554.2552142749
  0
LWPOLYLINE
  5
301
330
1F
100
AcDbEntity
  8
0
  6
Continuous
100
AcDbPolyline
 90
        3
 70
     0
 43
0.0
 10
39308.76009547547
 20
-23583.42949995748
 10
39301.77054248084
 20
-23589.09925735398
 10
39304.98879423703
 20
-23580.694326918
  0
TEXT
  5
302
330
1F
100
AcDbEntity
  8
03-文字-2
100
AcDbText
 10
39554.49437787958
 20
-23712.90616986303
 30
0.0
 40
24.9775
  1
スパイラルダクト
 41
0.9973215996568048
 11
39554.49437787958
 21
-23687.92866986303
 31
0.0
100
AcDbText
 73
     3
  0
INSERT
  5
306
330
1F
100
AcDbEntity
  8
03-文字-2
100
AcDbBlockReference
  2
INS-GXC2Y
 10
39072.669
 20
-23691.756
 30
0.0
  0
LINE
  5
309
330
1F
100
AcDbEntity
  8
05-ダクト外線
100
AcDbLine
 10
39338.39501850356
 20
-23590.7
 30
0.0
 11
39348.39501850356
 21
-23613.5
 31
0.0
  0
LINE
  5
30A
330
1F
100
AcDbEntity
  8
05-ダクト外線
100
AcDbLine
 10
39338.39501850356
 20
-23809.3
 30
0.0
 11
39348.39501850356
 21
-23786.5
 31
0.0
  0
LINE
  5
30B
330
1F
100
AcDbEntity
  8
06-ダクト内線
  6
DASHED2
 62
    20
 48
0.2
100
AcDbLine
 10
39288.39501850356
 20
-23591.5
 30
0.0
 11
39297.71173693056
 21
-23591.5
 31
0.0
  0
LINE
  5
30C
330
1F
100
AcDbEntity
  8
06-ダクト内線
  6
DASHED2
 62
    20
 48
0.2
100
AcDbLine
 10
39288.39501850356
 20
-23808.5
 30
0.0
 11
39297.71173693053
 21
-23808.5
 31
0.0
  0
ARC
  5
30D
330
1F
100
AcDbEntity
  8
06-ダクト内線
  6
DASHED2
 62
    20
 48
0.2
100
AcDbCircle
 10
39300.39501850356
 20
-23590.7
 30
0.0
 40
2.8
100
AcDbArc
 50
196.6015495989969
 51
270.0
  0
LINE
  5
30E
330
1F
100
AcDbEntity
  8
06-ダクト内線
  6
DASHED2
 62
    20
 48
0.2
100
AcDbLine
 10
39300.39501850356
 20
-23593.5
 30
0.0
 11
39304.19501850355
 21
-23593.5
 31
0.0
  0
LINE
  5
30F
330
1F
100
AcDbEntity
  8
06-ダクト内線
  6
DASHED2
 62
    20
 48
0.2
100
AcDbLine
 10
39304.19501850355
 20
-23591.5
 30
0.0
 11
39304.19501850355
 21
-23593.5
 31
0.0
  0
LINE
  5
310
330
1F
100
AcDbEntity
  8
06-ダクト内線
  6
DASHED2
 62
    20
 48
0.2
100
AcDbLine
 10
39304.19501850355
 20
-23591.5
 30
0.0
 11
39338.06837127917
 21
-23591.5
 31
0.0
  0
LINE
  5
311
330
1F
100
AcDbEntity
  8
06-ダクト内線
  6
DASHED2
 62
    20
 48
0.2
100
AcDbLine
 10
39338.06837127917
 20
-23591.5
 30
0.0
 11
39348.06837127917
 21
-23614.3
 31
0.0
  0
LINE
  5
312
330
1F
100
AcDbEntity
  8
06-ダクト内線
  6
DASHED2
 62
    20
 48
0.2
100
AcDbLine
 10
39348.06837127917
 20
-23614.3
 30
0.0
 11
39423.39501850356
 21
-23614.3
 31
0.0
  0
LINE
  5
313
330
1F
100
AcDbEntity
  8
06-ダクト内線
  6
DASHED2
 62
    20
 48
0.2
100
AcDbLine
 10
39348.06837127917
 20
-23785.7
 30
0.0
 11
39423.39501850356
 21
-23785.7
 31
0.0
  0
LINE
  5
314
330
1F
100
AcDbEntity
  8
06-ダクト内線
  6
DASHED2
 62
    20
 48
0.2
100
AcDbLine
 10
39338.06837127917
 20
-23808.5
 30
0.0
 11
39348.06837127917
 21
-23785.7
 31
0.0
  0
LINE
  5
315
330
1F
100
AcDbEntity
  8
06-ダクト内線
  6
DASHED2
 62
    20
 48
0.2
100
AcDbLine
 10
39304.19501850355
 20
-23808.5
 30
0.0
 11
39338.06837127917
 21
-23808.5
 31
0.0
  0
LINE
  5
316
330
1F
100
AcDbEntity
  8
06-ダクト内線
  6
DASHED2
 62
    20
 48
0.2
100
AcDbLine
 10
39304.19501850355
 20
-23808.5
 30
0.0
 11
39304.19501850355
 21
-23806.5
 31
0.0
  0
LINE
  5
317
330
1F
100
AcDbEntity
  8
06-ダクト内線
  6
DASHED2
 62
    20
 48
0.2
100
AcDbLine
 10
39300.39501850354
 20
-23806.5
 30
0.0
 11
39304.19501850355
 21
-23806.5
 31
0.0
  0
ARC
  5
318
330
1F
100
AcDbEntity
  8
06-ダクト内線
  6
DASHED2
 62
    20
 48
0.2
100
AcDbCircle
 10
39300.39501850354
 20
-23809.3
 30
0.0
 40
2.8
100
AcDbArc
 50
90.0
 51
163.3984504009318
  0
INSERT
  5
31C
330
1F
100
AcDbEntity
  8
寸法
100
AcDbBlockReference
  2
INS-D3Q5A
 10
39313.395
 20
-23855.3445
 30
0.0
  0
INSERT
  5
326
330
1F
100
AcDbEntity
  8
寸法
100
AcDbBlockReference
  2
INS-D5745
 10
39343.395
 20
-23858.0
 30
0.0
  0
INSERT
  5
32E
330
1F
100
AcDbEntity
  8
寸法
100
AcDbBlockReference
  2
INS-D73KK
 10
39385.895
 20
-23843.9445
 30
0.0
  0
TEXT
  5
335
330
1F
100
AcDbEntity
  8
03-文字-2
100
AcDbText
 10
39008.64668516972
 20
-24114.59257711179
 30
0.0
 40
49.955
  1
FS17-200A（0.8t）
 41
0.99712127968442
 72
     1
 11
39355.89501850306
 21
-24089.61507711179
 31
0.0
100
AcDbText
 73
     2
  0
LINE
  5
336
330
1F
100
AcDbEntity
  8
04-ダクトセンター
100
AcDbLine
 10
39298.39501850356
 20
-24500.0
 30
0.0
 11
39413.39501850356
 21
-24500.0
 31
0.0
  0
LINE
  5
337
330
1F
100
AcDbEntity
  8
05-ダクト外線
100
AcDbLine
 10
39298.39501850356
 20
-24390.7
 30
0.0
 11
39298.39501850356
 21
-24609.3
 31
0.0
  0
LINE
  5
338
330
1F
100
AcDbEntity
  8
05-ダクト外線
100
AcDbLine
 10
39298.39501850356
 20
-24390.7
 30
0.0
 11
39308.39501850356
 21
-24390.7
 31
0.0
  0
LINE
  5
339
330
1F
100
AcDbEntity
  8
05-ダクト外線
100
AcDbLine
 10
39298.39501850356
 20
-24609.3
 30
0.0
 11
39308.39501850354
 21
-24609.3
 31
0.0
  0
LINE
  5
33A
330
1F
100
AcDbEntity
  8
05-ダクト外線
100
AcDbLine
 10
39413.39501850356
 20
-24401.0
 30
0.0
 11
39413.39501850356
 21
-24599.0
 31
0.0
  0
LINE
  5
33B
330
1F
100
AcDbEntity
  8
05-ダクト外線
100
AcDbLine
 10
39358.39501850356
 20
-24401.0
 30
0.0
 11
39413.39501850356
 21
-24401.0
 31
0.0
  0
LINE
  5
33C
330
1F
100
AcDbEntity
  8
05-ダクト外線
100
AcDbLine
 10
39358.39501850356
 20
-24599.0
 30
0.0
 11
39413.39501850356
 21
-24599.0
 31
0.0
  0
LINE
  5
33D
330
1F
100
AcDbEntity
  8
05-ダクト外線
100
AcDbLine
 10
39358.39501850356
 20
-24599.0
 30
0.0
 11
39358.39501850356
 21
-24401.0
 31
0.0
  0
LINE
  5
33E
330
1F
100
AcDbEntity
  8
05-ダクト外線
100
AcDbLine
 10
39348.39501850356
 20
-24609.3
 30
0.0
 11
39348.39501850356
 21
-24390.7
 31
0.0
  0
INSERT
  5
342
330
1F
100
AcDbEntity
  8
寸法
100
AcDbBlockReference
  2
INS-DWBA8
 10
39252.393
 20
-24500.0
 30
0.0
  0
INSERT
  5
34C
330
1F
100
AcDbEntity
  8
寸法
100
AcDbBlockReference
  2
INS-DDIEZ
 10
39450.705
 20
-24500.0
 30
0.0
  0
INSERT
  5
356
330
1F
100
AcDbEntity
  8
寸法
100
AcDbBlockReference
  2
INS-DOD2E
 10
39355.895
 20
-24693.3975
 30
0.0
  0
LINE
  5
35D
330
1F
100
AcDbEntity
  8
05-ダクト外線
100
AcDbLine
 10
39313.39501850356
 20
-24390.7
 30
0.0
 11
39313.39501850356
 21
-24392.7
 31
0.0
  0
LINE
  5
35E
330
1F
100
AcDbEntity
  8
05-ダクト外線
100
AcDbLine
 10
39310.39501850356
 20
-24392.7
 30
0.0
 11
39313.39501850356
 21
-24392.7
 31
0.0
  0
ARC
  5
35F
330
1F
100
AcDbEntity
  8
05-ダクト外線
100
AcDbCircle
 10
39310.39501850356
 20
-24390.7
 30
0.0
 40
2.0
100
AcDbArc
 50
180.0
 51
270.0
  0
LINE
  5
360
330
1F
100
AcDbEntity
  8
05-ダクト外線
100
AcDbLine
 10
39313.39501850356
 20
-24390.7
 30
0.0
 11
39348.39501850356
 21
-24390.7
 31
0.0
  0
ARC
  5
361
330
1F
100
AcDbEntity
  8
05-ダクト外線
100
AcDbCircle
 10
39310.39501850354
 20
-24609.3
 30
0.0
 40
2.0
100
AcDbArc
 50
90.0
 51
180.0
  0
LINE
  5
362
330
1F
100
AcDbEntity
  8
05-ダクト外線
100
AcDbLine
 10
39310.39501850354
 20
-24607.3
 30
0.0
 11
39313.39501850354
 21
-24607.3
 31
0.0
  0
LINE
  5
363
330
1F
100
AcDbEntity
  8
05-ダクト外線
100
AcDbLine
 10
39313.39501850354
 20
-24609.3
 30
0.0
 11
39313.39501850354
 21
-24607.3
 31
0.0
  0
LINE
  5
364
330
1F
100
AcDbEntity
  8
05-ダクト外線
100
AcDbLine
 10
39313.39501850354
 20
-24609.3
 30
0.0
 11
39348.39501850356
 21
-24609.3
 31
0.0
  0
TEXT
  5
365
330
1F
100
AcDbEntity
  8
0
100
AcDbText
 10
39331.31436108908
 20
-24351.21481977623
 30
0.0
 40
19.982
  1
ノッチ
 41
0.998071409144555
 11
39331.31436108908
 21
-24331.23281977623
 31
0.0
100
AcDbText
 73
     3
  0
LWPOLYLINE
  5
366
330
1F
100
AcDbEntity
  8
0
100
AcDbPolyline
 90
        3
 70
     0
 43
0.0
 10
39311.77054248084
 20
-24389.09925735398
 10
39337.04152487945
 20
-24354.2552142749
 10
39390.9843820223
 20
-24354.2552142749
  0
LWPOLYLINE
  5
367
330
1F
100
AcDbEntity
  8
0
  6
Continuous
100
AcDbPolyline
 90
        3
 70
     0
 43
0.0
 10
39318.76009547547
 20
-24383.42949995748
 10
39311.77054248084
 20
-24389.09925735398
 10
39314.98879423703
 20
-24380.694326918
  0
TEXT
  5
368
330
1F
100
AcDbEntity
  8
03-文字-2
100
AcDbText
 10
39544.49437787634
 20
-24512.90616985954
 30
0.0
 40
24.9775
  1
スパイラルダクト
 41
0.9973215996568048
 11
39544.49437787634
 21
-24487.92866985954
 31
0.0
100
AcDbText
 73
     3
  0
INSERT
  5
36C
330
1F
100
AcDbEntity
  8
03-文字-2
100
AcDbBlockReference
  2
INS-G553P
 10
39082.669
 20
-24491.756
 30
0.0
  0
LINE
  5
36F
330
1F
100
AcDbEntity
  8
05-ダクト外線
100
AcDbLine
 10
39348.39501850356
 20
-24390.7
 30
0.0
 11
39358.39501850356
 21
-24401.0
 31
0.0
  0
LINE
  5
370
330
1F
100
AcDbEntity
  8
05-ダクト外線
100
AcDbLine
 10
39348.39501850356
 20
-24609.3
 30
0.0
 11
39358.39501850356
 21
-24599.0
 31
0.0
  0
LINE
  5
371
330
1F
100
AcDbEntity
  8
06-ダクト内線
  6
DASHED2
 62
    20
 48
0.2
100
AcDbLine
 10
39298.39501850356
 20
-24391.5
 30
0.0
 11
39307.71173693056
 21
-24391.5
 31
0.0
  0
LINE
  5
372
330
1F
100
AcDbEntity
  8
06-ダクト内線
  6
DASHED2
 62
    20
 48
0.2
100
AcDbLine
 10
39298.39501850356
 20
-24608.5
 30
0.0
 11
39307.71173693053
 21
-24608.5
 31
0.0
  0
ARC
  5
373
330
1F
100
AcDbEntity
  8
06-ダクト内線
  6
DASHED2
 62
    20
 48
0.2
100
AcDbCircle
 10
39310.39501850356
 20
-24390.7
 30
0.0
 40
2.8
100
AcDbArc
 50
196.6015495989969
 51
270.0
  0
LINE
  5
374
330
1F
100
AcDbEntity
  8
06-ダクト内線
  6
DASHED2
 62
    20
 48
0.2
100
AcDbLine
 10
39310.39501850356
 20
-24393.5
 30
0.0
 11
39314.19501850355
 21
-24393.5
 31
0.0
  0
LINE
  5
375
330
1F
100
AcDbEntity
  8
06-ダクト内線
  6
DASHED2
 62
    20
 48
0.2
100
AcDbLine
 10
39314.19501850355
 20
-24391.5
 30
0.0
 11
39314.19501850355
 21
-24393.5
 31
0.0
  0
LINE
  5
376
330
1F
100
AcDbEntity
  8
06-ダクト内線
  6
DASHED2
 62
    20
 48
0.2
100
AcDbLine
 10
39314.19501850355
 20
-24391.5
 30
0.0
 11
39348.06837127917
 21
-24391.5
 31
0.0
  0
LINE
  5
377
330
1F
100
AcDbEntity
  8
06-ダクト内線
  6
DASHED2
 62
    20
 48
0.2
100
AcDbLine
 10
39348.06837127917
 20
-24391.5
 30
0.0
 11
39358.06837127917
 21
-24401.8
 31
0.0
  0
LINE
  5
378
330
1F
100
AcDbEntity
  8
06-ダクト内線
  6
DASHED2
 62
    20
 48
0.2
100
AcDbLine
 10
39358.06837127917
 20
-24401.8
 30
0.0
 11
39413.39501850356
 21
-24401.8
 31
0.0
  0
LINE
  5
379
330
1F
100
AcDbEntity
  8
06-ダクト内線
  6
DASHED2
 62
    20
 48
0.2
100
AcDbLine
 10
39358.06837127917
 20
-24598.2
 30
0.0
 11
39413.39501850356
 21
-24598.2
 31
0.0
  0
LINE
  5
37A
330
1F
100
AcDbEntity
  8
06-ダクト内線
  6
DASHED2
 62
    20
 48
0.2
100
AcDbLine
 10
39348.06837127917
 20
-24608.5
 30
0.0
 11
39358.06837127917
 21
-24598.2
 31
0.0
  0
LINE
  5
37B
330
1F
100
AcDbEntity
  8
06-ダクト内線
  6
DASHED2
 62
    20
 48
0.2
100
AcDbLine
 10
39314.19501850355
 20
-24608.5
 30
0.0
 11
39348.06837127917
 21
-24608.5
 31
0.0
  0
LINE
  5
37C
330
1F
100
AcDbEntity
  8
06-ダクト内線
  6
DASHED2
 62
    20
 48
0.2
100
AcDbLine
 10
39314.19501850355
 20
-24608.5
 30
0.0
 11
39314.19501850355
 21
-24606.5
 31
0.0
  0
LINE
  5
37D
330
1F
100
AcDbEntity
  8
06-ダクト内線
  6
DASHED2
 62
    20
 48
0.2
100
AcDbLine
 10
39310.39501850354
 20
-24606.5
 30
0.0
 11
39314.19501850355
 21
-24606.5
 31
0.0
  0
ARC
  5
37E
330
1F
100
AcDbEntity
  8
06-ダクト内線
  6
DASHED2
 62
    20
 48
0.2
100
AcDbCircle
 10
39310.39501850354
 20
-24609.3
 30
0.0
 40
2.8
100
AcDbArc
 50
90.0
 51
163.3984504009318
  0
INSERT
  5
382
330
1F
100
AcDbEntity
  8
寸法
100
AcDbBlockReference
  2
INS-D7KY4
 10
39323.395
 20
-24655.3445
 30
0.0
  0
INSERT
  5
38C
330
1F
100
AcDbEntity
  8
寸法
100
AcDbBlockReference
  2
INS-D4E7W
 10
39353.395
 20
-24664.25
 30
0.0
  0
INSERT
  5
394
330
1F
100
AcDbEntity
  8
寸法
100
AcDbBlockReference
  2
INS-DLCF3
 10
39385.895
 20
-24650.1945
 30
0.0
  0
TEXT
  5
39B
330
1F
100
AcDbEntity
  8
03-文字-2
100
AcDbText
 10
39004.64168517076
 20
-24914.59257710814
 30
0.0
 40
49.955
  1
FS20-200A（0.8t）
 41
0.99712127968442
 72
     1
 11
39355.8950185041
 21
-24889.61507710814
 31
0.0
100
AcDbText
 73
     2
  0
LINE
  5
39C
330
1F
100
AcDbEntity
  8
04-ダクトセンター
100
AcDbLine
 10
39298.39501850356
 20
-25300.0
 30
0.0
 11
39413.39501850356
 21
-25300.0
 31
0.0
  0
LINE
  5
39D
330
1F
100
AcDbEntity
  8
05-ダクト外線
100
AcDbLine
 10
39298.39501850356
 20
-25177.7
 30
0.0
 11
39298.39501850356
 21
-25422.3
 31
0.0
  0
LINE
  5
39E
330
1F
100
AcDbEntity
  8
05-ダクト外線
100
AcDbLine
 10
39298.39501850356
 20
-25177.7
 30
0.0
 11
39308.39501850356
 21
-25177.7
 31
0.0
  0
LINE
  5
39F
330
1F
100
AcDbEntity
  8
05-ダクト外線
100
AcDbLine
 10
39298.39501850356
 20
-25422.3
 30
0.0
 11
39308.39501850354
 21
-25422.3
 31
0.0
  0
LINE
  5
3A0
330
1F
100
AcDbEntity
  8
05-ダクト外線
100
AcDbLine
 10
39413.39501850356
 20
-25188.0
 30
0.0
 11
39413.39501850356
 21
-25412.0
 31
0.0
  0
LINE
  5
3A1
330
1F
100
AcDbEntity
  8
05-ダクト外線
100
AcDbLine
 10
39358.39501850356
 20
-25188.0
 30
0.0
 11
39413.39501850356
 21
-25188.0
 31
0.0
  0
LINE
  5
3A2
330
1F
100
AcDbEntity
  8
05-ダクト外線
100
AcDbLine
 10
39358.39501850356
 20
-25412.0
 30
0.0
 11
39413.39501850356
 21
-25412.0
 31
0.0
  0
LINE
  5
3A3
330
1F
100
AcDbEntity
  8
05-ダクト外線
100
AcDbLine
 10
39358.39501850356
 20
-25412.0
 30
0.0
 11
39358.39501850356
 21
-25188.0
 31
0.0
  0
LINE
  5
3A4
330
1F
100
AcDbEntity
  8
05-ダクト外線
100
AcDbLine
 10
39348.39501850356
 20
-25422.3
 30
0.0
 11
39348.39501850356
 21
-25177.7
 31
0.0
  0
INSERT
  5
3A8
330
1F
100
AcDbEntity
  8
寸法
100
AcDbBlockReference
  2
INS-D43IU
 10
39252.393
 20
-25300.0
 30
0.0
  0
INSERT
  5
3B2
330
1F
100
AcDbEntity
  8
寸法
100
AcDbBlockReference
  2
INS-DROZ5
 10
39450.705
 20
-25300.0
 30
0.0
  0
INSERT
  5
3BC
330
1F
100
AcDbEntity
  8
寸法
100
AcDbBlockReference
  2
INS-D78A4
 10
39355.895
 20
-25499.8975
 30
0.0
  0
LINE
  5
3C3
330
1F
100
AcDbEntity
  8
05-ダクト外線
100
AcDbLine
 10
39313.39501850356
 20
-25177.7
 30
0.0
 11
39313.39501850356
 21
-25179.7
 31
0.0
  0
LINE
  5
3C4
330
1F
100
AcDbEntity
  8
05-ダクト外線
100
AcDbLine
 10
39310.39501850356
 20
-25179.7
 30
0.0
 11
39313.39501850356
 21
-25179.7
 31
0.0
  0
ARC
  5
3C5
330
1F
100
AcDbEntity
  8
05-ダクト外線
100
AcDbCircle
 10
39310.39501850356
 20
-25177.7
 30
0.0
 40
2.0
100
AcDbArc
 50
180.0
 51
270.0
  0
LINE
  5
3C6
330
1F
100
AcDbEntity
  8
05-ダクト外線
100
AcDbLine
 10
39313.39501850356
 20
-25177.7
 30
0.0
 11
39348.39501850356
 21
-25177.7
 31
0.0
  0
ARC
  5
3C7
330
1F
100
AcDbEntity
  8
05-ダクト外線
100
AcDbCircle
 10
39310.39501850354
 20
-25422.3
 30
0.0
 40
2.0
100
AcDbArc
 50
90.0
 51
180.0
  0
LINE
  5
3C8
330
1F
100
AcDbEntity
  8
05-ダクト外線
100
AcDbLine
 10
39310.39501850354
 20
-25420.3
 30
0.0
 11
39313.39501850354
 21
-25420.3
 31
0.0
  0
LINE
  5
3C9
330
1F
100
AcDbEntity
  8
05-ダクト外線
100
AcDbLine
 10
39313.39501850354
 20
-25422.3
 30
0.0
 11
39313.39501850354
 21
-25420.3
 31
0.0
  0
LINE
  5
3CA
330
1F
100
AcDbEntity
  8
05-ダクト外線
100
AcDbLine
 10
39313.39501850354
 20
-25422.3
 30
0.0
 11
39348.39501850356
 21
-25422.3
 31
0.0
  0
TEXT
  5
3CB
330
1F
100
AcDbEntity
  8
0
100
AcDbText
 10
39331.31436108163
 20
-25138.21481976769
 30
0.0
 40
19.982
  1
ノッチ
 41
0.998071409144555
 11
39331.31436108163
 21
-25118.23281976769
 31
0.0
100
AcDbText
 73
     3
  0
LWPOLYLINE
  5
3CC
330
1F
100
AcDbEntity
  8
0
100
AcDbPolyline
 90
        3
 70
     0
 43
0.0
 10
39311.77054248084
 20
-25176.09925735398
 10
39337.04152487945
 20
-25141.2552142749
 10
39390.9843820223
 20
-25141.2552142749
  0
LWPOLYLINE
  5
3CD
330
1F
100
AcDbEntity
  8
0
  6
Continuous
100
AcDbPolyline
 90
        3
 70
     0
 43
0.0
 10
39318.76009547547
 20
-25170.42949995748
 10
39311.77054248084
 20
-25176.09925735398
 10
39314.98879423703
 20
-25167.694326918
  0
TEXT
  5
3CE
330
1F
100
AcDbEntity
  8
03-文字-2
100
AcDbText
 10
39544.49437786889
 20
-25312.90616986326
 30
0.0
 40
24.9775
  1
スパイラルダクト
 41
0.9973215996568048
 11
39544.49437786889
 21
-25287.92866986326
 31
0.0
100
AcDbText
 73
     3
  0
INSERT
  5
3D2
330
1F
100
AcDbEntity
  8
03-文字-2
100
AcDbBlockReference
  2
INS-GJXR8
 10
39082.669
 20
-25291.756
 30
0.0
  0
LINE
  5
3D5
330
1F
100
AcDbEntity
  8
05-ダクト外線
100
AcDbLine
 10
39348.39501850356
 20
-25177.7
 30
0.0
 11
39358.39501850356
 21
-25188.0
 31
0.0
  0
LINE
  5
3D6
330
1F
100
AcDbEntity
  8
05-ダクト外線
100
AcDbLine
 10
39348.39501850356
 20
-25422.3
 30
0.0
 11
39358.39501850356
 21
-25412.0
 31
0.0
  0
INSERT
  5
3DA
330
1F
100
AcDbEntity
  8
寸法
100
AcDbBlockReference
  2
INS-DUSWA
 10
39323.395
 20
-25461.8445
 30
0.0
  0
INSERT
  5
3E4
330
1F
100
AcDbEntity
  8
寸法
100
AcDbBlockReference
  2
INS-D4DI9
 10
39353.395
 20
-25470.75
 30
0.0
  0
INSERT
  5
3EC
330
1F
100
AcDbEntity
  8
寸法
100
AcDbBlockReference
  2
INS-D7IBB
 10
39385.895
 20
-25456.6945
 30
0.0
  0
TEXT
  5
3F3
330
1F
100
AcDbEntity
  8
03-文字-2
100
AcDbText
 10
39000.04335183761
 20
-25714.59257710852
 30
0.0
 40
49.955
  1
FS22-225A（1.0t）
 41
0.99712127968442
 72
     1
 11
39355.89501850428
 21
-25689.61507710852
 31
0.0
100
AcDbText
 73
     2
  0
LINE
  5
3F4
330
1F
100
AcDbEntity
  8
06-ダクト内線
  6
DASHED2
 62
    54
 48
0.2
100
AcDbLine
 10
39298.39501850356
 20
-25421.3
 30
0.0
 11
39307.5665913788
 21
-25421.3
 31
0.0
  0
ARC
  5
3F5
330
1F
100
AcDbEntity
  8
06-ダクト内線
  6
DASHED2
 62
    54
 48
0.2
100
AcDbCircle
 10
39310.39501850354
 20
-25422.3
 30
0.0
 40
3.0
100
AcDbArc
 50
90.0
 51
160.5287793654469
  0
LINE
  5
3F6
330
1F
100
AcDbEntity
  8
06-ダクト内線
  6
DASHED2
 62
    54
 48
0.2
100
AcDbLine
 10
39310.39501850354
 20
-25419.3
 30
0.0
 11
39314.39501850356
 21
-25419.3
 31
0.0
  0
LINE
  5
3F7
330
1F
100
AcDbEntity
  8
06-ダクト内線
  6
DASHED2
 62
    54
 48
0.2
100
AcDbLine
 10
39314.39501850356
 20
-25421.3
 30
0.0
 11
39314.39501850356
 21
-25419.3
 31
0.0
  0
LINE
  5
3F8
330
1F
100
AcDbEntity
  8
06-ダクト内線
  6
DASHED2
 62
    54
 48
0.2
100
AcDbLine
 10
39314.39501850356
 20
-25421.3
 30
0.0
 11
39347.98379195778
 21
-25421.3
 31
0.0
  0
LINE
  5
3F9
330
1F
100
AcDbEntity
  8
06-ダクト内線
  6
DASHED2
 62
    54
 48
0.2
100
AcDbLine
 10
39347.98379195778
 20
-25421.3
 30
0.0
 11
39357.98379195778
 21
-25411.0
 31
0.0
  0
LINE
  5
3FA
330
1F
100
AcDbEntity
  8
06-ダクト内線
  6
DASHED2
 62
    54
 48
0.2
100
AcDbLine
 10
39357.98379195778
 20
-25411.0
 30
0.0
 11
39413.39501850356
 21
-25411.0
 31
0.0
  0
LINE
  5
3FB
330
1F
100
AcDbEntity
  8
06-ダクト内線
  6
DASHED2
 62
    54
 48
0.2
100
AcDbLine
 10
39298.39501850356
 20
-25178.7
 30
0.0
 11
39307.56659137883
 21
-25178.7
 31
0.0
  0
ARC
  5
3FC
330
1F
100
AcDbEntity
  8
06-ダクト内線
  6
DASHED2
 62
    54
 48
0.2
100
AcDbCircle
 10
39310.39501850356
 20
-25177.7
 30
0.0
 40
3.0
100
AcDbArc
 50
199.4712206345532
 51
270.0
  0
LINE
  5
3FD
330
1F
100
AcDbEntity
  8
06-ダクト内線
  6
DASHED2
 62
    54
 48
0.2
100
AcDbLine
 10
39310.39501850356
 20
-25180.7
 30
0.0
 11
39314.39501850356
 21
-25180.7
 31
0.0
  0
LINE
  5
3FE
330
1F
100
AcDbEntity
  8
06-ダクト内線
  6
DASHED2
 62
    54
 48
0.2
100
AcDbLine
 10
39314.39501850356
 20
-25178.7
 30
0.0
 11
39314.39501850356
 21
-25180.7
 31
0.0
  0
LINE
  5
3FF
330
1F
100
AcDbEntity
  8
06-ダクト内線
  6
DASHED2
 62
    54
 48
0.2
100
AcDbLine
 10
39314.39501850356
 20
-25178.7
 30
0.0
 11
39347.98379195778
 21
-25178.7
 31
0.0
  0
LINE
  5
400
330
1F
100
AcDbEntity
  8
06-ダクト内線
  6
DASHED2
 62
    54
 48
0.2
100
AcDbLine
 10
39347.98379195778
 20
-25178.7
 30
0.0
 11
39357.98379195778
 21
-25189.0
 31
0.0
  0
LINE
  5
401
330
1F
100
AcDbEntity
  8
06-ダクト内線
  6
DASHED2
 62
    54
 48
0.2
100
AcDbLine
 10
39357.98379195778
 20
-25189.0
 30
0.0
 11
39413.39501850356
 21
-25189.0
 31
0.0
  0
TEXT
  5
402
330
1F
100
AcDbEntity
  8
03-文字-2
100
AcDbText
 10
36477.27279628244
 20
-27099.91000000055
 30
0.0
 40
199.82
  1
FS25-250A
 41
0.9972735371233883
 72
     1
 11
37355.89501850466
 21
-27000.00000000055
 31
0.0
100
AcDbText
 73
     2
  0
LINE
  5
403
330
1F
100
AcDbEntity
  8
シンボル
100
AcDbLine
 10
36355.89501850356
 20
-27400.0
 30
0.0
 11
40355.89501850356
 21
-27400.0
 31
0.0
  0
LINE
  5
404
330
1F
100
AcDbEntity
  8
04-ダクトセンター
100
AcDbLine
 10
39288.39501850356
 20
-26100.0
 30
0.0
 11
39423.39501850356
 21
-26100.0
 31
0.0
  0
LINE
  5
405
330
1F
100
AcDbEntity
  8
05-ダクト外線
100
AcDbLine
 10
39288.39501850356
 20
-25965.2
 30
0.0
 11
39288.39501850356
 21
-26234.8
 31
0.0
  0
LINE
  5
406
330
1F
100
AcDbEntity
  8
05-ダクト外線
100
AcDbLine
 10
39288.39501850356
 20
-25965.2
 30
0.0
 11
39298.39501850356
 21
-25965.2
 31
0.0
  0
LINE
  5
407
330
1F
100
AcDbEntity
  8
05-ダクト外線
100
AcDbLine
 10
39288.39501850356
 20
-26234.8
 30
0.0
 11
39298.39501850354
 21
-26234.8
 31
0.0
  0
LINE
  5
408
330
1F
100
AcDbEntity
  8
05-ダクト外線
100
AcDbLine
 10
39423.39501850356
 20
-25988.0
 30
0.0
 11
39423.39501850356
 21
-26212.0
 31
0.0
  0
LINE
  5
409
330
1F
100
AcDbEntity
  8
05-ダクト外線
100
AcDbLine
 10
39348.39501850356
 20
-25988.0
 30
0.0
 11
39423.39501850356
 21
-25988.0
 31
0.0
  0
LINE
  5
40A
330
1F
100
AcDbEntity
  8
05-ダクト外線
100
AcDbLine
 10
39348.39501850356
 20
-26212.0
 30
0.0
 11
39423.39501850356
 21
-26212.0
 31
0.0
  0
LINE
  5
40B
330
1F
100
AcDbEntity
  8
05-ダクト外線
100
AcDbLine
 10
39348.39501850356
 20
-26212.0
 30
0.0
 11
39348.39501850356
 21
-25988.0
 31
0.0
  0
LINE
  5
40C
330
1F
100
AcDbEntity
  8
05-ダクト外線
100
AcDbLine
 10
39338.39501850356
 20
-26234.8
 30
0.0
 11
39338.39501850356
 21
-25965.2
 31
0.0
  0
INSERT
  5
410
330
1F
100
AcDbEntity
  8
寸法
100
AcDbBlockReference
  2
INS-D3TO9
 10
39242.393
 20
-26100.0
 30
0.0
  0
INSERT
  5
41A
330
1F
100
AcDbEntity
  8
寸法
100
AcDbBlockReference
  2
INS-D6W3S
 10
39460.705
 20
-26100.0
 30
0.0
  0
INSERT
  5
424
330
1F
100
AcDbEntity
  8
寸法
100
AcDbBlockReference
  2
INS-D57KE
 10
39355.895
 20
-26299.8975
 30
0.0
  0
LINE
  5
42B
330
1F
100
AcDbEntity
  8
05-ダクト外線
100
AcDbLine
 10
39303.39501850356
 20
-25965.2
 30
0.0
 11
39303.39501850356
 21
-25967.2
 31
0.0
  0
LINE
  5
42C
330
1F
100
AcDbEntity
  8
05-ダクト外線
100
AcDbLine
 10
39300.39501850356
 20
-25967.2
 30
0.0
 11
39303.39501850356
 21
-25967.2
 31
0.0
  0
ARC
  5
42D
330
1F
100
AcDbEntity
  8
05-ダクト外線
100
AcDbCircle
 10
39300.39501850356
 20
-25965.2
 30
0.0
 40
2.0
100
AcDbArc
 50
180.0
 51
270.0
  0
LINE
  5
42E
330
1F
100
AcDbEntity
  8
05-ダクト外線
100
AcDbLine
 10
39303.39501850356
 20
-25965.2
 30
0.0
 11
39338.39501850356
 21
-25965.2
 31
0.0
  0
ARC
  5
42F
330
1F
100
AcDbEntity
  8
05-ダクト外線
100
AcDbCircle
 10
39300.39501850354
 20
-26234.8
 30
0.0
 40
2.0
100
AcDbArc
 50
90.0
 51
180.0
  0
LINE
  5
430
330
1F
100
AcDbEntity
  8
05-ダクト外線
100
AcDbLine
 10
39300.39501850354
 20
-26232.8
 30
0.0
 11
39303.39501850354
 21
-26232.8
 31
0.0
  0
LINE
  5
431
330
1F
100
AcDbEntity
  8
05-ダクト外線
100
AcDbLine
 10
39303.39501850354
 20
-26234.8
 30
0.0
 11
39303.39501850354
 21
-26232.8
 31
0.0
  0
LINE
  5
432
330
1F
100
AcDbEntity
  8
05-ダクト外線
100
AcDbLine
 10
39303.39501850354
 20
-26234.8
 30
0.0
 11
39338.39501850356
 21
-26234.8
 31
0.0
  0
TEXT
  5
433
330
1F
100
AcDbEntity
  8
0
100
AcDbText
 10
39321.31436107765
 20
-25925.7148197697
 30
0.0
 40
19.982
  1
ノッチ
 41
0.998071409144555
 11
39321.31436107765
 21
-25905.7328197697
 31
0.0
100
AcDbText
 73
     3
  0
LWPOLYLINE
  5
434
330
1F
100
AcDbEntity
  8
0
100
AcDbPolyline
 90
        3
 70
     0
 43
0.0
 10
39301.77054248084
 20
-25963.59925735398
 10
39327.04152487945
 20
-25928.7552142749
 10
39380.9843820223
 20
-25928.7552142749
  0
LWPOLYLINE
  5
435
330
1F
100
AcDbEntity
  8
0
  6
Continuous
100
AcDbPolyline
 90
        3
 70
     0
 43
0.0
 10
39308.76009547547
 20
-25957.92949995748
 10
39301.77054248084
 20
-25963.59925735398
 10
39304.98879423703
 20
-25955.194326918
  0
TEXT
  5
436
330
1F
100
AcDbEntity
  8
03-文字-2
100
AcDbText
 10
39554.49437786889
 20
-26112.90616985954
 30
0.0
 40
24.9775
  1
スパイラルダクト
 41
0.9973215996568048
 11
39554.49437786889
 21
-26087.92866985954
 31
0.0
100
AcDbText
 73
     3
  0
INSERT
  5
43A
330
1F
100
AcDbEntity
  8
03-文字-2
100
AcDbBlockReference
  2
INS-G50OH
 10
39072.669
 20
-26091.756
 30
0.0
  0
LINE
  5
43D
330
1F
100
AcDbEntity
  8
05-ダクト外線
100
AcDbLine
 10
39338.39501850356
 20
-25965.2
 30
0.0
 11
39348.39501850356
 21
-25988.0
 31
0.0
  0
LINE
  5
43E
330
1F
100
AcDbEntity
  8
05-ダクト外線
100
AcDbLine
 10
39338.39501850356
 20
-26234.8
 30
0.0
 11
39348.39501850356
 21
-26212.0
 31
0.0
  0
INSERT
  5
442
330
1F
100
AcDbEntity
  8
寸法
100
AcDbBlockReference
  2
INS-D80J8
 10
39313.395
 20
-26268.0945
 30
0.0
  0
INSERT
  5
44C
330
1F
100
AcDbEntity
  8
寸法
100
AcDbBlockReference
  2
INS-D6GJN
 10
39343.395
 20
-26270.75
 30
0.0
  0
INSERT
  5
454
330
1F
100
AcDbEntity
  8
寸法
100
AcDbBlockReference
  2
INS-DP6ND
 10
39385.895
 20
-26256.6945
 30
0.0
  0
TEXT
  5
45B
330
1F
100
AcDbEntity
  8
03-文字-2
100
AcDbText
 10
39004.34501850694
 20
-26514.59257710531
 30
0.0
 40
49.955
  1
FS22-250A（1.0t）
 41
0.99712127968442
 72
     1
 11
39355.89501850694
 21
-26489.61507710531
 31
0.0
100
AcDbText
 73
     2
  0
LINE
  5
45C
330
1F
100
AcDbEntity
  8
06-ダクト内線
  6
DASHED2
 62
    54
 48
0.2
100
AcDbLine
 10
39288.39501850356
 20
-26233.8
 30
0.0
 11
39297.5665913788
 21
-26233.8
 31
0.0
  0
ARC
  5
45D
330
1F
100
AcDbEntity
  8
06-ダクト内線
  6
DASHED2
 62
    54
 48
0.2
100
AcDbCircle
 10
39300.39501850354
 20
-26234.8
 30
0.0
 40
3.0
100
AcDbArc
 50
90.0
 51
160.5287793654469
  0
LINE
  5
45E
330
1F
100
AcDbEntity
  8
06-ダクト内線
  6
DASHED2
 62
    54
 48
0.2
100
AcDbLine
 10
39300.39501850354
 20
-26231.8
 30
0.0
 11
39304.39501850356
 21
-26231.8
 31
0.0
  0
LINE
  5
45F
330
1F
100
AcDbEntity
  8
06-ダクト内線
  6
DASHED2
 62
    54
 48
0.2
100
AcDbLine
 10
39304.39501850356
 20
-26233.8
 30
0.0
 11
39304.39501850356
 21
-26231.8
 31
0.0
  0
LINE
  5
460
330
1F
100
AcDbEntity
  8
06-ダクト内線
  6
DASHED2
 62
    54
 48
0.2
100
AcDbLine
 10
39304.39501850356
 20
-26233.8
 30
0.0
 11
39337.98379195778
 21
-26233.8
 31
0.0
  0
LINE
  5
461
330
1F
100
AcDbEntity
  8
06-ダクト内線
  6
DASHED2
 62
    54
 48
0.2
100
AcDbLine
 10
39337.98379195778
 20
-26233.8
 30
0.0
 11
39347.98379195778
 21
-26211.0
 31
0.0
  0
LINE
  5
462
330
1F
100
AcDbEntity
  8
06-ダクト内線
  6
DASHED2
 62
    54
 48
0.2
100
AcDbLine
 10
39347.98379195778
 20
-26211.0
 30
0.0
 11
39423.39501850356
 21
-26211.0
 31
0.0
  0
LINE
  5
463
330
1F
100
AcDbEntity
  8
06-ダクト内線
  6
DASHED2
 62
    54
 48
0.2
100
AcDbLine
 10
39288.39501850356
 20
-25966.2
 30
0.0
 11
39297.56659137883
 21
-25966.2
 31
0.0
  0
ARC
  5
464
330
1F
100
AcDbEntity
  8
06-ダクト内線
  6
DASHED2
 62
    54
 48
0.2
100
AcDbCircle
 10
39300.39501850356
 20
-25965.2
 30
0.0
 40
3.0
100
AcDbArc
 50
199.4712206345532
 51
270.0
  0
LINE
  5
465
330
1F
100
AcDbEntity
  8
06-ダクト内線
  6
DASHED2
 62
    54
 48
0.2
100
AcDbLine
 10
39300.39501850356
 20
-25968.2
 30
0.0
 11
39304.39501850356
 21
-25968.2
 31
0.0
  0
LINE
  5
466
330
1F
100
AcDbEntity
  8
06-ダクト内線
  6
DASHED2
 62
    54
 48
0.2
100
AcDbLine
 10
39304.39501850356
 20
-25966.2
 30
0.0
 11
39304.39501850356
 21
-25968.2
 31
0.0
  0
LINE
  5
467
330
1F
100
AcDbEntity
  8
06-ダクト内線
  6
DASHED2
 62
    54
 48
0.2
100
AcDbLine
 10
39304.39501850356
 20
-25966.2
 30
0.0
 11
39337.98379195778
 21
-25966.2
 31
0.0
  0
LINE
  5
468
330
1F
100
AcDbEntity
  8
06-ダクト内線
  6
DASHED2
 62
    54
 48
0.2
100
AcDbLine
 10
39337.98379195778
 20
-25966.2
 30
0.0
 11
39347.98379195778
 21
-25989.0
 31
0.0
  0
LINE
  5
469
330
1F
100
AcDbEntity
  8
06-ダクト内線
  6
DASHED2
 62
    54
 48
0.2
100
AcDbLine
 10
39347.98379195778
 20
-25989.0
 30
0.0
 11
39423.39501850356
 21
-25989.0
 31
0.0
  0
LINE
  5
46A
330
1F
100
AcDbEntity
  8
04-ダクトセンター
100
AcDbLine
 10
39298.39501850356
 20
-26900.0
 30
0.0
 11
39413.39501850356
 21
-26900.0
 31
0.0
  0
LINE
  5
46B
330
1F
100
AcDbEntity
  8
05-ダクト外線
100
AcDbLine
 10
39298.39501850356
 20
-26765.2
 30
0.0
 11
39298.39501850356
 21
-27034.8
 31
0.0
  0
LINE
  5
46C
330
1F
100
AcDbEntity
  8
05-ダクト外線
100
AcDbLine
 10
39298.39501850356
 20
-26765.2
 30
0.0
 11
39308.39501850356
 21
-26765.2
 31
0.0
  0
LINE
  5
46D
330
1F
100
AcDbEntity
  8
05-ダクト外線
100
AcDbLine
 10
39298.39501850356
 20
-27034.8
 30
0.0
 11
39308.39501850354
 21
-27034.8
 31
0.0
  0
LINE
  5
46E
330
1F
100
AcDbEntity
  8
05-ダクト外線
100
AcDbLine
 10
39413.39501850356
 20
-26776.5
 30
0.0
 11
39413.39501850356
 21
-27023.5
 31
0.0
  0
LINE
  5
46F
330
1F
100
AcDbEntity
  8
05-ダクト外線
100
AcDbLine
 10
39358.39501850356
 20
-26776.5
 30
0.0
 11
39413.39501850356
 21
-26776.5
 31
0.0
  0
LINE
  5
470
330
1F
100
AcDbEntity
  8
05-ダクト外線
100
AcDbLine
 10
39358.39501850356
 20
-27023.5
 30
0.0
 11
39413.39501850356
 21
-27023.5
 31
0.0
  0
LINE
  5
471
330
1F
100
AcDbEntity
  8
05-ダクト外線
100
AcDbLine
 10
39358.39501850356
 20
-27023.5
 30
0.0
 11
39358.39501850356
 21
-26776.5
 31
0.0
  0
LINE
  5
472
330
1F
100
AcDbEntity
  8
05-ダクト外線
100
AcDbLine
 10
39348.39501850356
 20
-27034.8
 30
0.0
 11
39348.39501850356
 21
-26765.2
 31
0.0
  0
INSERT
  5
476
330
1F
100
AcDbEntity
  8
寸法
100
AcDbBlockReference
  2
INS-D55W7
 10
39252.393
 20
-26900.0
 30
0.0
  0
INSERT
  5
480
330
1F
100
AcDbEntity
  8
寸法
100
AcDbBlockReference
  2
INS-DQNSV
 10
39450.705
 20
-26900.0
 30
0.0
  0
INSERT
  5
48A
330
1F
100
AcDbEntity
  8
寸法
100
AcDbBlockReference
  2
INS-D3OLQ
 10
39355.895
 20
-27105.6475
 30
0.0
  0
LINE
  5
491
330
1F
100
AcDbEntity
  8
05-ダクト外線
100
AcDbLine
 10
39313.39501850356
 20
-26765.2
 30
0.0
 11
39313.39501850356
 21
-26767.2
 31
0.0
  0
LINE
  5
492
330
1F
100
AcDbEntity
  8
05-ダクト外線
100
AcDbLine
 10
39310.39501850356
 20
-26767.2
 30
0.0
 11
39313.39501850356
 21
-26767.2
 31
0.0
  0
ARC
  5
493
330
1F
100
AcDbEntity
  8
05-ダクト外線
100
AcDbCircle
 10
39310.39501850356
 20
-26765.2
 30
0.0
 40
2.0
100
AcDbArc
 50
180.0
 51
270.0
  0
LINE
  5
494
330
1F
100
AcDbEntity
  8
05-ダクト外線
100
AcDbLine
 10
39313.39501850356
 20
-26765.2
 30
0.0
 11
39348.39501850356
 21
-26765.2
 31
0.0
  0
ARC
  5
495
330
1F
100
AcDbEntity
  8
05-ダクト外線
100
AcDbCircle
 10
39310.39501850354
 20
-27034.8
 30
0.0
 40
2.0
100
AcDbArc
 50
90.0
 51
180.0
  0
LINE
  5
496
330
1F
100
AcDbEntity
  8
05-ダクト外線
100
AcDbLine
 10
39310.39501850354
 20
-27032.8
 30
0.0
 11
39313.39501850354
 21
-27032.8
 31
0.0
  0
LINE
  5
497
330
1F
100
AcDbEntity
  8
05-ダクト外線
100
AcDbLine
 10
39313.39501850354
 20
-27034.8
 30
0.0
 11
39313.39501850354
 21
-27032.8
 31
0.0
  0
LINE
  5
498
330
1F
100
AcDbEntity
  8
05-ダクト外線
100
AcDbLine
 10
39313.39501850354
 20
-27034.8
 30
0.0
 11
39348.39501850356
 21
-27034.8
 31
0.0
  0
TEXT
  5
499
330
1F
100
AcDbEntity
  8
0
100
AcDbText
 10
39331.31436108163
 20
-26725.7148197745
 30
0.0
 40
19.982
  1
ノッチ
 41
0.998071409144555
 11
39331.31436108163
 21
-26705.7328197745
 31
0.0
100
AcDbText
 73
     3
  0
LWPOLYLINE
  5
49A
330
1F
100
AcDbEntity
  8
0
100
AcDbPolyline
 90
        3
 70
     0
 43
0.0
 10
39311.77054248084
 20
-26763.59925735398
 10
39337.04152487945
 20
-26728.7552142749
 10
39390.9843820223
 20
-26728.7552142749
  0
LWPOLYLINE
  5
49B
330
1F
100
AcDbEntity
  8
0
  6
Continuous
100
AcDbPolyline
 90
        3
 70
     0
 43
0.0
 10
39318.76009547547
 20
-26757.92949995748
 10
39311.77054248084
 20
-26763.59925735398
 10
39314.98879423703
 20
-26755.194326918
  0
TEXT
  5
49C
330
1F
100
AcDbEntity
  8
03-文字-2
100
AcDbText
 10
39544.49437787634
 20
-26912.90616985954
 30
0.0
 40
24.9775
  1
スパイラルダクト
 41
0.9973215996568048
 11
39544.49437787634
 21
-26887.92866985954
 31
0.0
100
AcDbText
 73
     3
  0
INSERT
  5
4A0
330
1F
100
AcDbEntity
  8
03-文字-2
100
AcDbBlockReference
  2
INS-G4ZE4
 10
39082.669
 20
-26891.756
 30
0.0
  0
LINE
  5
4A3
330
1F
100
AcDbEntity
  8
05-ダクト外線
100
AcDbLine
 10
39348.39501850356
 20
-26765.2
 30
0.0
 11
39358.39501850356
 21
-26776.5
 31
0.0
  0
LINE
  5
4A4
330
1F
100
AcDbEntity
  8
05-ダクト外線
100
AcDbLine
 10
39348.39501850356
 20
-27034.8
 30
0.0
 11
39358.39501850356
 21
-27023.5
 31
0.0
  0
INSERT
  5
4A8
330
1F
100
AcDbEntity
  8
寸法
100
AcDbBlockReference
  2
INS-DFV3Y
 10
39323.395
 20
-27068.0945
 30
0.0
  0
INSERT
  5
4B2
330
1F
100
AcDbEntity
  8
寸法
100
AcDbBlockReference
  2
INS-D3MEX
 10
39353.395
 20
-27076.5
 30
0.0
  0
INSERT
  5
4BA
330
1F
100
AcDbEntity
  8
寸法
100
AcDbBlockReference
  2
INS-DJLHW
 10
39385.895
 20
-27062.4445
 30
0.0
  0
TEXT
  5
4C1
330
1F
100
AcDbEntity
  8
03-文字-2
100
AcDbText
 10
39004.34501850039
 20
-27314.59257711016
 30
0.0
 40
49.955
  1
FS25-250A（1.0t）
 41
0.99712127968442
 72
     1
 11
39355.89501850039
 21
-27289.61507711016
 31
0.0
100
AcDbText
 73
     2
  0
LINE
  5
4C2
330
1F
100
AcDbEntity
  8
06-ダクト内線
  6
DASHED2
 62
    54
 48
0.2
100
AcDbLine
 10
39298.39501850356
 20
-27033.8
 30
0.0
 11
39307.5665913788
 21
-27033.8
 31
0.0
  0
ARC
  5
4C3
330
1F
100
AcDbEntity
  8
06-ダクト内線
  6
DASHED2
 62
    54
 48
0.2
100
AcDbCircle
 10
39310.39501850354
 20
-27034.8
 30
0.0
 40
3.0
100
AcDbArc
 50
90.0
 51
160.5287793654469
  0
LINE
  5
4C4
330
1F
100
AcDbEntity
  8
06-ダクト内線
  6
DASHED2
 62
    54
 48
0.2
100
AcDbLine
 10
39310.39501850354
 20
-27031.8
 30
0.0
 11
39314.39501850356
 21
-27031.8
 31
0.0
  0
LINE
  5
4C5
330
1F
100
AcDbEntity
  8
06-ダクト内線
  6
DASHED2
 62
    54
 48
0.2
100
AcDbLine
 10
39314.39501850356
 20
-27033.8
 30
0.0
 11
39314.39501850356
 21
-27031.8
 31
0.0
  0
LINE
  5
4C6
330
1F
100
AcDbEntity
  8
06-ダクト内線
  6
DASHED2
 62
    54
 48
0.2
100
AcDbLine
 10
39314.39501850356
 20
-27033.8
 30
0.0
 11
39347.98379195778
 21
-27033.8
 31
0.0
  0
LINE
  5
4C7
330
1F
100
AcDbEntity
  8
06-ダクト内線
  6
DASHED2
 62
    54
 48
0.2
100
AcDbLine
 10
39347.98379195778
 20
-27033.8
 30
0.0
 11
39357.98379195778
 21
-27022.5
 31
0.0
  0
LINE
  5
4C8
330
1F
100
AcDbEntity
  8
06-ダクト内線
  6
DASHED2
 62
    54
 48
0.2
100
AcDbLine
 10
39357.98379195778
 20
-27022.5
 30
0.0
 11
39413.39501850356
 21
-27022.5
 31
0.0
  0
LINE
  5
4C9
330
1F
100
AcDbEntity
  8
06-ダクト内線
  6
DASHED2
 62
    54
 48
0.2
100
AcDbLine
 10
39298.39501850356
 20
-26766.2
 30
0.0
 11
39307.56659137883
 21
-26766.2
 31
0.0
  0
ARC
  5
4CA
330
1F
100
AcDbEntity
  8
06-ダクト内線
  6
DASHED2
 62
    54
 48
0.2
100
AcDbCircle
 10
39310.39501850356
 20
-26765.2
 30
0.0
 40
3.0
100
AcDbArc
 50
199.4712206345532
 51
270.0
  0
LINE
  5
4CB
330
1F
100
AcDbEntity
  8
06-ダクト内線
  6
DASHED2
 62
    54
 48
0.2
100
AcDbLine
 10
39310.39501850356
 20
-26768.2
 30
0.0
 11
39314.39501850356
 21
-26768.2
 31
0.0
  0
LINE
  5
4CC
330
1F
100
AcDbEntity
  8
06-ダクト内線
  6
DASHED2
 62
    54
 48
0.2
100
AcDbLine
 10
39314.39501850356
 20
-26766.2
 30
0.0
 11
39314.39501850356
 21
-26768.2
 31
0.0
  0
LINE
  5
4CD
330
1F
100
AcDbEntity
  8
06-ダクト内線
  6
DASHED2
 62
    54
 48
0.2
100
AcDbLine
 10
39314.39501850356
 20
-26766.2
 30
0.0
 11
39347.98379195778
 21
-26766.2
 31
0.0
  0
LINE
  5
4CE
330
1F
100
AcDbEntity
  8
06-ダクト内線
  6
DASHED2
 62
    54
 48
0.2
100
AcDbLine
 10
39347.98379195778
 20
-26766.2
 30
0.0
 11
39357.98379195778
 21
-26777.5
 31
0.0
  0
LINE
  5
4CF
330
1F
100
AcDbEntity
  8
06-ダクト内線
  6
DASHED2
 62
    54
 48
0.2
100
AcDbLine
 10
39357.98379195778
 20
-26777.5
 30
0.0
 11
39413.39501850356
 21
-26777.5
 31
0.0
  0
ENDSEC
  0
SECTION
  2
OBJECTS
  0
DICTIONARY
  5
C
330
0
100
AcDbDictionary
281
     1
  3
ACAD_GROUP
350
D
  3
ACAD_LAYOUT
350
1A
  3
ACAD_MATERIAL
350
43
  3
ACAD_MLEADERSTYLE
350
6B
  3
ACAD_MLINESTYLE
350
17
  3
ACAD_PLOTSETTINGS
350
19
  3
ACAD_PLOTSTYLENAME
350
E
  3
ACAD_SCALELIST
350
47
  3
ACAD_TABLESTYLE
350
69
  3
ACAD_VISUALSTYLE
350
2A
  3
AcDbVariableDictionary
350
4D0
  3
DWGPROPS
350
4D8
  0
DICTIONARY
  5
4D9
330
8
100
AcDbDictionary
280
     1
281
     1
  3
ACAD_XREC_ROUNDTRIP
360
4DA
  0
DICTIONARY
  5
D
102
{ACAD_REACTORS
330
C
102
}
330
C
100
AcDbDictionary
281
     1
  0
DICTIONARY
  5
1A
102
{ACAD_REACTORS
330
C
102
}
330
C
100
AcDbDictionary
281
     1
  3
Layout1
350
1E
  3
Model
350
22
  0
DICTIONARY
  5
43
102
{ACAD_REACTORS
330
C
102
}
330
C
100
AcDbDictionary
281
     1
  3
ByBlock
350
45
  3
ByLayer
350
44
  3
Global
350
46
  0
DICTIONARY
  5
6B
102
{ACAD_REACTORS
330
C
102
}
330
C
100
AcDbDictionary
281
     1
  3
Standard
350
6C
  0
DICTIONARY
  5
17
102
{ACAD_REACTORS
330
C
102
}
330
C
100
AcDbDictionary
281
     1
  3
Standard
350
18
  0
DICTIONARY
  5
19
102
{ACAD_REACTORS
330
C
102
}
330
C
100
AcDbDictionary
281
     1
  0
ACDBDICTIONARYWDFLT
  5
E
102
{ACAD_REACTORS
330
C
102
}
330
C
100
AcDbDictionary
281
     1
  3
Normal
350
F
100
AcDbDictionaryWithDefault
340
F
  0
DICTIONARY
  5
47
102
{ACAD_REACTORS
330
C
102
}
330
C
100
AcDbDictionary
281
     1
  3
A0
350
48
  3
A1
350
49
  3
A2
350
4A
  3
A3
350
4B
  3
A4
350
4C
  3
A5
350
4D
  3
A6
350
4E
  3
A7
350
4F
  3
A8
350
50
  3
A9
350
51
  3
B0
350
52
  3
B1
350
53
  3
B2
350
54
  3
B3
350
55
  3
B4
350
56
  3
B5
350
57
  3
B6
350
58
  3
B7
350
59
  3
B8
350
5A
  3
B9
350
5B
  3
C0
350
5C
  3
C1
350
5D
  3
C2
350
5E
  3
C3
350
5F
  3
C4
350
60
  3
C5
350
61
  3
C6
350
62
  3
C7
350
63
  3
C8
350
64
  3
C9
350
65
  3
D0
350
66
  3
D1
350
67
  3
D2
350
68
  0
DICTIONARY
  5
69
102
{ACAD_REACTORS
330
C
102
}
330
C
100
AcDbDictionary
281
     1
  3
Standard
350
6A
  0
DICTIONARY
  5
2A
102
{ACAD_REACTORS
330
C
102
}
330
C
100
AcDbDictionary
281
     1
  3
2dWireframe
350
2F
  3
Basic
350
32
  3
Brighten
350
36
  3
ColorChange
350
3A
  3
Conceptual
350
34
  3
Dim
350
35
  3
EdgeColorOff
350
3D
  3
Facepattern
350
39
  3
Flat
350
2B
  3
FlatWithEdges
350
2C
  3
Gouraud
350
2D
  3
GouraudWithEdges
350
2E
  3
Hidden
350
31
  3
JitterOff
350
3B
  3
Linepattern
350
38
  3
OverhangOff
350
3C
  3
Realistic
350
33
  3
Shaded
350
42
  3
Shaded with edges
350
41
  3
Shades of Gray
350
3E
  3
Sketchy
350
3F
  3
Thicken
350
37
  3
Wireframe
350
30
  3
X-Ray
350
40
  0
DICTIONARY
  5
4D0
102
{ACAD_REACTORS
330
C
102
}
330
C
100
AcDbDictionary
281
     1
  3
CANNOSCALE
350
4DB
  3
CMLEADERSTYLE
350
4D2
  3
CTABLESTYLE
350
4D1
  3
DIMASSOC
350
4D6
  3
HIDETEXT
350
4D7
  3
MSLTSCALE
350
4DC
  3
XCLIPFRAME
350
4D3
  0
XRECORD
  5
4D8
102
{ACAD_REACTORS
330
C
102
}
330
C
100
AcDbXrecord
280
     1
  1
DWGPROPS COOKIE
  2

  3

  4

  6

  7

  8
kakz194
  9

300
=
301
=
302
=
303
=
304
=
305
=
306
=
307
=
308
=
309
=
 40
0.0
 41
2460341.723240741
 42
2460341.348251771
  1

 90
        0
  0
XRECORD
  5
4DA
102
{ACAD_REACTORS
330
4D9
102
}
330
4D9
100
AcDbXrecord
280
     1
102
VTR_0.000_0.000_1.000_1.000_VISUALSTYLE
340
2F
102
VTR_0.000_0.000_1.000_1.000_GRIDDISPLAY
 70
     3
102
VTR_0.000_0.000_1.000_1.000_GRIDMAJOR
 70
     5
102
VTR_0.000_0.000_1.000_1.000_DEFAULTLIGHTING
280
     1
102
VTR_0.000_0.000_1.000_1.000_DEFAULTLIGHTINGTYPE
 70
     1
102
VTR_0.000_0.000_1.000_1.000_BRIGHTNESS
141
0.0
102
VTR_0.000_0.000_1.000_1.000_CONTRAST
142
0.0
  0
LAYOUT
  5
1E
102
{ACAD_REACTORS
330
1A
102
}
330
1A
100
AcDbPlotSettings
  1

  2
none_device
  4

  6

 40
0.0
 41
0.0
 42
0.0
 43
0.0
 44
0.0
 45
0.0
 46
0.0
 47
0.0
 48
0.0
 49
0.0
140
0.0
141
0.0
142
1.0
143
1.0
 70
   688
 72
     0
 73
     0
 74
     5
  7

 75
    16
147
1.0
148
0.0
149
0.0
100
AcDbLayout
  1
Layout1
 70
     1
 71
     1
 10
0.0
 20
0.0
 11
12.0
 21
9.0
 12
0.0
 22
0.0
 32
0.0
 14
0.0
 24
0.0
 34
0.0
 15
12.0
 25
9.0
 35
0.0
146
0.0
 13
0.0
 23
0.0
 33
0.0
 16
1.0
 26
0.0
 36
0.0
 17
0.0
 27
1.0
 37
0.0
 76
     0
330
1B
  0
LAYOUT
  5
22
102
{ACAD_REACTORS
330
1A
102
}
330
1A
100
AcDbPlotSettings
  1

  2
none_device
  4
ISO_A1_(594.00_x_841.00_MM)
  6

 40
0.0
 41
0.0
 42
0.0
 43
0.0
 44
594.0
 45
841.0
 46
0.0
 47
0.0
 48
0.0
 49
0.0
140
0.0
141
0.0
142
1.0
143
1.0
 70
  1712
 72
     1
 73
     1
 74
     0
  7

 75
    16
147
1.0
148
0.0
149
0.0
100
AcDbLayout
  1
Model
 70
     1
 71
     0
 10
0.0
 20
0.0
 11
10092.0
 21
7128.0
 12
0.0
 22
0.0
 32
0.0
 14
0.0
 24
0.0
 34
0.0
 15
8410.0
 25
5940.0
 35
0.0
146
0.0
 13
0.0
 23
0.0
 33
0.0
 16
1.0
 26
0.0
 36
0.0
 17
0.0
 27
1.0
 37
0.0
 76
     0
330
1F
331
29
  0
MATERIAL
  5
45
102
{ACAD_REACTORS
330
43
102
}
102
{ACAD_XDICTIONARY
360
50F
102
}
330
43
100
AcDbMaterial
  1
ByBlock
  0
MATERIAL
  5
44
102
{ACAD_REACTORS
330
43
102
}
102
{ACAD_XDICTIONARY
360
50D
102
}
330
43
100
AcDbMaterial
  1
ByLayer
  0
MATERIAL
  5
46
102
{ACAD_REACTORS
330
43
102
}
102
{ACAD_XDICTIONARY
360
511
102
}
330
43
100
AcDbMaterial
  1
Global
  0
MLEADERSTYLE
  5
6C
102
{ACAD_REACTORS
330
6B
102
}
102
{ACAD_XDICTIONARY
360
514
102
}
330
6B
100
AcDbMLeaderStyle
170
     2
171
     1
172
     0
 90
        2
 40
0.0
 41
0.0
173
     1
 91
-1056964608
340
14
 92
       -2
290
     1
 42
0.09
291
     1
 43
0.36
  3
Standard
341
0
 44
0.18
300

342
11
174
     1
178
     6
175
     1
176
     0
 93
-1056964608
 45
0.18
292
     0
297
     0
 46
0.18
343
0
 94
-1056964608
 47
1.0
 49
1.0
140
1.0
293
     1
141
0.0
294
     1
177
     0
142
1.0
295
     0
296
     0
143
0.125
1001
ACAD_MLEADERVER
1070
     2
  0
MLINESTYLE
  5
18
102
{ACAD_REACTORS
330
17
102
}
330
17
100
AcDbMlineStyle
  2
Standard
 70
     0
  3

 62
   256
 51
90.0
 52
90.0
 71
     2
 49
0.5
 62
   256
  6
BYLAYER
 49
-0.5
 62
   256
  6
BYLAYER
  0
ACDBPLACEHOLDER
  5
F
102
{ACAD_REACTORS
330
E
102
}
330
E
  0
SCALE
  5
48
102
{ACAD_REACTORS
330
47
102
}
330
47
100
AcDbScale
 70
     0
300
1:1
140
1.0
141
1.0
290
     1
  0
SCALE
  5
49
102
{ACAD_REACTORS
330
47
102
}
330
47
100
AcDbScale
 70
     0
300
1:2
140
1.0
141
2.0
290
     0
  0
SCALE
  5
4A
102
{ACAD_REACTORS
330
47
102
}
330
47
100
AcDbScale
 70
     0
300
1:4
140
1.0
141
4.0
290
     0
  0
SCALE
  5
4B
102
{ACAD_REACTORS
330
47
102
}
330
47
100
AcDbScale
 70
     0
300
1:5
140
1.0
141
5.0
290
     0
  0
SCALE
  5
4C
102
{ACAD_REACTORS
330
47
102
}
330
47
100
AcDbScale
 70
     0
300
1:8
140
1.0
141
8.0
290
     0
  0
SCALE
  5
4D
102
{ACAD_REACTORS
330
47
102
}
330
47
100
AcDbScale
 70
     0
300
1:10
140
1.0
141
10.0
290
     0
  0
SCALE
  5
4E
102
{ACAD_REACTORS
330
47
102
}
330
47
100
AcDbScale
 70
     0
300
1:16
140
1.0
141
16.0
290
     0
  0
SCALE
  5
4F
102
{ACAD_REACTORS
330
47
102
}
330
47
100
AcDbScale
 70
     0
300
1:20
140
1.0
141
20.0
290
     0
  0
SCALE
  5
50
102
{ACAD_REACTORS
330
47
102
}
330
47
100
AcDbScale
 70
     0
300
1:30
140
1.0
141
30.0
290
     0
  0
SCALE
  5
51
102
{ACAD_REACTORS
330
47
102
}
330
47
100
AcDbScale
 70
     0
300
1:40
140
1.0
141
40.0
290
     0
  0
SCALE
  5
52
102
{ACAD_REACTORS
330
47
102
}
330
47
100
AcDbScale
 70
     0
300
1:50
140
1.0
141
50.0
290
     0
  0
SCALE
  5
53
102
{ACAD_REACTORS
330
47
102
}
330
47
100
AcDbScale
 70
     0
300
1:100
140
1.0
141
100.0
290
     0
  0
SCALE
  5
54
102
{ACAD_REACTORS
330
47
102
}
330
47
100
AcDbScale
 70
     0
300
2:1
140
2.0
141
1.0
290
     0
  0
SCALE
  5
55
102
{ACAD_REACTORS
330
47
102
}
330
47
100
AcDbScale
 70
     0
300
4:1
140
4.0
141
1.0
290
     0
  0
SCALE
  5
56
102
{ACAD_REACTORS
330
47
102
}
330
47
100
AcDbScale
 70
     0
300
8:1
140
8.0
141
1.0
290
     0
  0
SCALE
  5
57
102
{ACAD_REACTORS
330
47
102
}
330
47
100
AcDbScale
 70
     0
300
10:1
140
10.0
141
1.0
290
     0
  0
SCALE
  5
58
102
{ACAD_REACTORS
330
47
102
}
330
47
100
AcDbScale
 70
     0
300
100:1
140
100.0
141
1.0
290
     0
  0
SCALE
  5
59
102
{ACAD_REACTORS
330
47
102
}
330
47
100
AcDbScale
 70
     0
300
1/128" = 1'-0"
140
0.0078125
141
12.0
290
     0
  0
SCALE
  5
5A
102
{ACAD_REACTORS
330
47
102
}
330
47
100
AcDbScale
 70
     0
300
1/64" = 1'-0"
140
0.015625
141
12.0
290
     0
  0
SCALE
  5
5B
102
{ACAD_REACTORS
330
47
102
}
330
47
100
AcDbScale
 70
     0
300
1/32" = 1'-0"
140
0.03125
141
12.0
290
     0
  0
SCALE
  5
5C
102
{ACAD_REACTORS
330
47
102
}
330
47
100
AcDbScale
 70
     0
300
1/16" = 1'-0"
140
0.0625
141
12.0
290
     0
  0
SCALE
  5
5D
102
{ACAD_REACTORS
330
47
102
}
330
47
100
AcDbScale
 70
     0
300
3/32" = 1'-0"
140
0.09375
141
12.0
290
     0
  0
SCALE
  5
5E
102
{ACAD_REACTORS
330
47
102
}
330
47
100
AcDbScale
 70
     0
300
1/8" = 1'-0"
140
0.125
141
12.0
290
     0
  0
SCALE
  5
5F
102
{ACAD_REACTORS
330
47
102
}
330
47
100
AcDbScale
 70
     0
300
3/16" = 1'-0"
140
0.1875
141
12.0
290
     0
  0
SCALE
  5
60
102
{ACAD_REACTORS
330
47
102
}
330
47
100
AcDbScale
 70
     0
300
1/4" = 1'-0"
140
0.25
141
12.0
290
     0
  0
SCALE
  5
61
102
{ACAD_REACTORS
330
47
102
}
330
47
100
AcDbScale
 70
     0
300
3/8" = 1'-0"
140
0.375
141
12.0
290
     0
  0
SCALE
  5
62
102
{ACAD_REACTORS
330
47
102
}
330
47
100
AcDbScale
 70
     0
300
1/2" = 1'-0"
140
0.5
141
12.0
290
     0
  0
SCALE
  5
63
102
{ACAD_REACTORS
330
47
102
}
330
47
100
AcDbScale
 70
     0
300
3/4" = 1'-0"
140
0.75
141
12.0
290
     0
  0
SCALE
  5
64
102
{ACAD_REACTORS
330
47
102
}
330
47
100
AcDbScale
 70
     0
300
1" = 1'-0"
140
1.0
141
12.0
290
     0
  0
SCALE
  5
65
102
{ACAD_REACTORS
330
47
102
}
330
47
100
AcDbScale
 70
     0
300
1-1/2" = 1'-0"
140
1.5
141
12.0
290
     0
  0
SCALE
  5
66
102
{ACAD_REACTORS
330
47
102
}
330
47
100
AcDbScale
 70
     0
300
3" = 1'-0"
140
3.0
141
12.0
290
     0
  0
SCALE
  5
67
102
{ACAD_REACTORS
330
47
102
}
330
47
100
AcDbScale
 70
     0
300
6" = 1'-0"
140
6.0
141
12.0
290
     0
  0
SCALE
  5
68
102
{ACAD_REACTORS
330
47
102
}
330
47
100
AcDbScale
 70
     0
300
1'-0" = 1'-0"
140
12.0
141
12.0
290
     0
  0
TABLESTYLE
  5
6A
102
{ACAD_REACTORS
330
69
102
}
330
69
100
AcDbTableStyle
  3
Standard
 70
     0
 71
     0
 40
0.06
 41
0.06
280
     0
281
     0
  7
Standard
140
0.18
170
     2
 62
     0
 63
   257
283
     0
274
    -2
284
     1
 64
     0
275
    -2
285
     1
 65
     0
276
    -2
286
     1
 66
     0
277
    -2
287
     1
 67
     0
278
    -2
288
     1
 68
     0
279
    -2
289
     1
 69
     0
  7
Standard
140
0.25
170
     5
 62
     0
 63
   257
283
     0
274
    -2
284
     1
 64
     0
275
    -2
285
     1
 65
     0
276
    -2
286
     1
 66
     0
277
    -2
287
     1
 67
     0
278
    -2
288
     1
 68
     0
279
    -2
289
     1
 69
     0
  7
Standard
140
0.18
170
     5
 62
     0
 63
   257
283
     0
274
    -2
284
     1
 64
     0
275
    -2
285
     1
 65
     0
276
    -2
286
     1
 66
     0
277
    -2
287
     1
 67
     0
278
    -2
288
     1
 68
     0
279
    -2
289
     1
 69
     0
  0
VISUALSTYLE
  5
2F
102
{ACAD_REACTORS
330
2A
102
}
102
{ACAD_XDICTIONARY
360
4E5
102
}
330
2A
100
AcDbVisualStyle
  2
2dWireframe
 70
     4
 71
     0
 72
     2
 73
     0
 90
        0
 40
0.6
 41
30.0
 62
     5
 63
     7
 74
     1
 91
        4
 64
     7
 65
   257
 75
     1
175
     1
 42
1.0
 92
        0
 66
   257
 43
1.0
 76
     1
 77
     6
 78
     2
 67
     7
 79
     5
170
     0
171
     0
290
     0
174
     0
 93
        1
 44
0.0
173
     0
291
     0
 45
0.0
1001
ACAD
1000
AcDbSavedByObjectVersion
1070
     0
  0
VISUALSTYLE
  5
32
102
{ACAD_REACTORS
330
2A
102
}
102
{ACAD_XDICTIONARY
360
4EB
102
}
330
2A
100
AcDbVisualStyle
  2
Basic
 70
     7
 71
     1
 72
     0
 73
     1
 90
        0
 40
0.6
 41
30.0
 62
     5
 63
     7
 74
     0
 91
        4
 64
     7
 65
   257
 75
     1
175
     1
 42
1.0
 92
        8
 66
     7
 43
1.0
 76
     1
 77
     6
 78
     2
 67
     7
 79
     5
170
     0
171
     0
290
     0
174
     0
 93
        1
 44
0.0
173
     0
291
     1
 45
0.0
1001
ACAD
1000
AcDbSavedByObjectVersion
1070
     0
  0
VISUALSTYLE
  5
36
102
{ACAD_REACTORS
330
2A
102
}
102
{ACAD_XDICTIONARY
360
4F3
102
}
330
2A
100
AcDbVisualStyle
  2
Brighten
 70
    12
 71
     2
 72
     2
 73
     0
 90
        0
 40
0.6
 41
30.0
 62
     5
 63
     7
 74
     1
 91
        4
 64
     7
 65
   257
 75
     1
175
     1
 42
1.0
 92
        8
 66
     7
 43
1.0
 76
     1
 77
     6
 78
     2
 67
     7
 79
     5
170
     0
171
     0
290
     0
174
     0
 93
        1
 44
50.0
173
     0
291
     1
 45
0.0
1001
ACAD
1000
AcDbSavedByObjectVersion
1070
     0
  0
VISUALSTYLE
  5
3A
102
{ACAD_REACTORS
330
2A
102
}
102
{ACAD_XDICTIONARY
360
4FB
102
}
330
2A
100
AcDbVisualStyle
  2
ColorChange
 70
    16
 71
     2
 72
     2
 73
     3
 90
        0
 40
0.6
 41
30.0
 62
     5
 63
     8
 74
     1
 91
        4
 64
     7
 65
   257
 75
     1
175
     1
 42
1.0
 92
        8
 66
     8
 43
1.0
 76
     1
 77
     6
 78
     2
 67
     7
 79
     5
170
     0
171
     0
290
     0
174
     0
 93
        1
 44
0.0
173
     0
291
     1
 45
0.0
1001
ACAD
1000
AcDbSavedByObjectVersion
1070
     0
  0
VISUALSTYLE
  5
34
102
{ACAD_REACTORS
330
2A
102
}
102
{ACAD_XDICTIONARY
360
4EF
102
}
330
2A
100
AcDbVisualStyle
  2
Conceptual
 70
     9
 71
     3
 72
     2
 73
     0
 90
        0
 40
0.6
 41
30.0
 62
     5
 63
     7
 74
     2
 91
        2
 64
     7
 65
   257
 75
     1
175
     1
 42
179.0
 92
        8
 66
     7
 43
1.0
 76
     1
 77
     6
 78
     2
 67
     7
 79
     3
170
     0
171
     0
290
     0
174
     0
 93
        1
 44
0.0
173
     0
291
     0
 45
0.0
1001
ACAD
1000
AcDbSavedByObjectVersion
1070
     0
  0
VISUALSTYLE
  5
35
102
{ACAD_REACTORS
330
2A
102
}
102
{ACAD_XDICTIONARY
360
4F1
102
}
330
2A
100
AcDbVisualStyle
  2
Dim
 70
    11
 71
     2
 72
     2
 73
     0
 90
        0
 40
0.6
 41
30.0
 62
     5
 63
     7
 74
     1
 91
        4
 64
     7
 65
   257
 75
     1
175
     1
 42
1.0
 92
        8
 66
     7
 43
1.0
 76
     1
 77
     6
 78
     2
 67
     7
 79
     5
170
     0
171
     0
290
     0
174
     0
 93
        1
 44
-50.0
173
     0
291
     1
 45
0.0
1001
ACAD
1000
AcDbSavedByObjectVersion
1070
     0
  0
VISUALSTYLE
  5
3D
102
{ACAD_REACTORS
330
2A
102
}
102
{ACAD_XDICTIONARY
360
501
102
}
330
2A
100
AcDbVisualStyle
  2
EdgeColorOff
 70
    22
 71
     2
 72
     2
 73
     0
 90
        0
 40
0.6
 41
30.0
 62
     5
 63
     7
 74
     1
 91
        4
 64
     7
 65
   257
 75
     1
175
     1
 42
1.0
 92
        8
 66
     7
 43
1.0
 76
     1
 77
     6
 78
     2
 67
     7
 79
     5
170
     0
171
     0
290
     0
174
     0
 93
        1
 44
0.0
173
     0
291
     1
 45
0.0
1001
ACAD
1000
AcDbSavedByObjectVersion
1070
     0
  0
VISUALSTYLE
  5
39
102
{ACAD_REACTORS
330
2A
102
}
102
{ACAD_XDICTIONARY
360
4F9
102
}
330
2A
100
AcDbVisualStyle
  2
Facepattern
 70
    15
 71
     2
 72
     2
 73
     0
 90
        0
 40
0.6
 41
30.0
 62
     5
 63
     7
 74
     1
 91
        4
 64
     7
 65
   257
 75
     1
175
     1
 42
1.0
 92
        8
 66
     7
 43
1.0
 76
     1
 77
     6
 78
     2
 67
     7
 79
     5
170
     0
171
     0
290
     0
174
     0
 93
        1
 44
0.0
173
     0
291
     1
 45
0.0
1001
ACAD
1000
AcDbSavedByObjectVersion
1070
     0
  0
VISUALSTYLE
  5
2B
102
{ACAD_REACTORS
330
2A
102
}
102
{ACAD_XDICTIONARY
360
4DD
102
}
330
2A
100
AcDbVisualStyle
  2
Flat
 70
     0
 71
     2
 72
     1
 73
     1
 90
        2
 40
0.6
 41
30.0
 62
     5
 63
     7
 74
     0
 91
        0
 64
     7
 65
   257
 75
     1
175
     1
 42
1.0
 92
        8
 66
     7
 43
1.0
 76
     1
 77
     6
 78
     2
 67
     7
 79
     5
170
     0
171
     0
290
     0
174
     0
 93
       13
 44
0.0
173
     0
291
     1
 45
0.0
1001
ACAD
1000
AcDbSavedByObjectVersion
1070
     0
  0
VISUALSTYLE
  5
2C
102
{ACAD_REACTORS
330
2A
102
}
102
{ACAD_XDICTIONARY
360
4DF
102
}
330
2A
100
AcDbVisualStyle
  2
FlatWithEdges
 70
     1
 71
     2
 72
     1
 73
     1
 90
        2
 40
0.6
 41
30.0
 62
     5
 63
     7
 74
     1
 91
        0
 64
     7
 65
   257
 75
     1
175
     1
 42
1.0
 92
        0
 66
   257
 43
1.0
 76
     1
 77
     6
 78
     2
 67
     7
 79
     5
170
     0
171
     0
290
     0
174
     0
 93
       13
 44
0.0
173
     0
291
     1
 45
0.0
1001
ACAD
1000
AcDbSavedByObjectVersion
1070
     0
  0
VISUALSTYLE
  5
2D
102
{ACAD_REACTORS
330
2A
102
}
102
{ACAD_XDICTIONARY
360
4E1
102
}
330
2A
100
AcDbVisualStyle
  2
Gouraud
 70
     2
 71
     2
 72
     2
 73
     1
 90
        2
 40
0.6
 41
30.0
 62
     5
 63
     7
 74
     0
 91
        0
 64
     7
 65
   257
 75
     1
175
     1
 42
1.0
 92
        0
 66
     7
 43
1.0
 76
     1
 77
     6
 78
     2
 67
     7
 79
     5
170
     0
171
     0
290
     0
174
     0
 93
       13
 44
0.0
173
     0
291
     1
 45
0.0
1001
ACAD
1000
AcDbSavedByObjectVersion
1070
     0
  0
VISUALSTYLE
  5
2E
102
{ACAD_REACTORS
330
2A
102
}
102
{ACAD_XDICTIONARY
360
4E3
102
}
330
2A
100
AcDbVisualStyle
  2
GouraudWithEdges
 70
     3
 71
     2
 72
     2
 73
     1
 90
        2
 40
0.6
 41
30.0
 62
     5
 63
     7
 74
     1
 91
        0
 64
     7
 65
   257
 75
     1
175
     1
 42
1.0
 92
        0
 66
   257
 43
1.0
 76
     1
 77
     6
 78
     2
 67
     7
 79
     5
170
     0
171
     0
290
     0
174
     0
 93
       13
 44
0.0
173
     0
291
     1
 45
0.0
1001
ACAD
1000
AcDbSavedByObjectVersion
1070
     0
  0
VISUALSTYLE
  5
31
102
{ACAD_REACTORS
330
2A
102
}
102
{ACAD_XDICTIONARY
360
4E9
102
}
330
2A
100
AcDbVisualStyle
  2
Hidden
 70
     6
 71
     1
 72
     2
 73
     2
 90
        0
 40
0.6
 41
30.0
 62
     5
 63
     7
 74
     2
 91
        2
 64
     7
 65
   257
 75
     2
175
     1
 42
40.0
 92
        0
 66
   257
 43
1.0
 76
     1
 77
     6
 78
     2
 67
     7
 79
     3
170
     0
171
     0
290
     0
174
     0
 93
        1
 44
0.0
173
     0
291
     0
 45
0.0
1001
ACAD
1000
AcDbSavedByObjectVersion
1070
     0
  0
VISUALSTYLE
  5
3B
102
{ACAD_REACTORS
330
2A
102
}
102
{ACAD_XDICTIONARY
360
4FD
102
}
330
2A
100
AcDbVisualStyle
  2
JitterOff
 70
    20
 71
     2
 72
     2
 73
     0
 90
        0
 40
0.6
 41
30.0
 62
     5
 63
     7
 74
     1
 91
        4
 64
     7
 65
   257
 75
     1
175
     1
 42
1.0
 92
       10
 66
     7
 43
1.0
 76
     1
 77
     6
 78
     2
 67
     7
 79
     5
170
     0
171
     0
290
     0
174
     0
 93
        1
 44
0.0
173
     0
291
     1
 45
0.0
1001
ACAD
1000
AcDbSavedByObjectVersion
1070
     0
  0
VISUALSTYLE
  5
38
102
{ACAD_REACTORS
330
2A
102
}
102
{ACAD_XDICTIONARY
360
4F7
102
}
330
2A
100
AcDbVisualStyle
  2
Linepattern
 70
    14
 71
     2
 72
     2
 73
     0
 90
        0
 40
0.6
 41
30.0
 62
     5
 63
     7
 74
     1
 91
        4
 64
     7
 65
   257
 75
     7
175
     7
 42
1.0
 92
        8
 66
     7
 43
1.0
 76
     1
 77
     6
 78
     2
 67
     7
 79
     5
170
     0
171
     0
290
     0
174
     0
 93
        1
 44
0.0
173
     0
291
     1
 45
0.0
1001
ACAD
1000
AcDbSavedByObjectVersion
1070
     0
  0
VISUALSTYLE
  5
3C
102
{ACAD_REACTORS
330
2A
102
}
102
{ACAD_XDICTIONARY
360
4FF
102
}
330
2A
100
AcDbVisualStyle
  2
OverhangOff
 70
    21
 71
     2
 72
     2
 73
     0
 90
        0
 40
0.6
 41
30.0
 62
     5
 63
     7
 74
     1
 91
        4
 64
     7
 65
   257
 75
     1
175
     1
 42
1.0
 92
        9
 66
     7
 43
1.0
 76
     1
 77
     6
 78
     2
 67
     7
 79
     5
170
     0
171
     0
290
     0
174
     0
 93
        1
 44
0.0
173
     0
291
     1
 45
0.0
1001
ACAD
1000
AcDbSavedByObjectVersion
1070
     0
  0
VISUALSTYLE
  5
33
102
{ACAD_REACTORS
330
2A
102
}
102
{ACAD_XDICTIONARY
360
4ED
102
}
330
2A
100
AcDbVisualStyle
  2
Realistic
 70
     8
 71
     2
 72
     3
 73
     0
 90
        2
 40
0.6
 41
30.0
 62
     5
 63
     7
 74
     0
 91
        0
 64
     7
 65
   257
 75
     1
175
     1
 42
1.0
 92
        8
 66
   257
 43
1.0
 76
     1
 77
     6
 78
     2
 67
     7
 79
     3
170
     0
171
     0
290
     0
174
     0
 93
       13
 44
0.0
173
     0
291
     0
 45
0.0
1001
ACAD
1000
AcDbSavedByObjectVersion
1070
     0
  0
VISUALSTYLE
  5
42
102
{ACAD_REACTORS
330
2A
102
}
102
{ACAD_XDICTIONARY
360
50B
102
}
330
2A
100
AcDbVisualStyle
  2
Shaded
 70
    27
 71
     2
 72
     2
 73
     1
 90
        2
 40
0.6
 41
30.0
 62
     5
 63
     7
 74
     0
 91
        4
 64
     7
 65
   257
 75
     1
175
     1
 42
1.0
 92
        8
 66
   257
 43
1.0
 76
     1
 77
     6
 78
     2
 67
     8
 79
     3
170
     0
171
     0
290
     0
174
     0
 93
        5
 44
0.0
173
     0
291
     0
 45
0.0
1001
ACAD
1000
AcDbSavedByObjectVersion
1070
     0
  0
VISUALSTYLE
  5
41
102
{ACAD_REACTORS
330
2A
102
}
102
{ACAD_XDICTIONARY
360
509
102
}
330
2A
100
AcDbVisualStyle
  2
Shaded with edges
 70
    26
 71
     2
 72
     2
 73
     1
 90
        2
 40
0.6
 41
30.0
 62
     5
 63
     7
 74
     1
 91
       10
 64
     7
 65
   257
 75
     2
175
     1
 42
1.0
 92
        8
 66
   257
 43
1.0
 76
     1
 77
     6
 78
     2
 67
     7
 79
     3
170
     0
171
     0
290
     0
174
     0
 93
        5
 44
0.0
173
     0
291
     0
 45
0.0
1001
ACAD
1000
AcDbSavedByObjectVersion
1070
     0
  0
VISUALSTYLE
  5
3E
102
{ACAD_REACTORS
330
2A
102
}
102
{ACAD_XDICTIONARY
360
503
102
}
330
2A
100
AcDbVisualStyle
  2
Shades of Gray
 70
    23
 71
     2
 72
     2
 73
     3
 90
        0
 40
0.6
 41
30.0
 62
     5
 63
     7
 74
     2
 91
        2
 64
     7
 65
     7
 75
     1
175
     1
 42
40.0
 92
        8
 66
     7
 43
1.0
 76
     1
 77
     6
 78
     2
 67
     7
 79
     3
170
     0
171
     0
290
     0
174
     0
 93
        1
 44
0.0
173
     0
291
     0
 45
0.0
1001
ACAD
1000
AcDbSavedByObjectVersion
1070
     0
  0
VISUALSTYLE
  5
3F
102
{ACAD_REACTORS
330
2A
102
}
102
{ACAD_XDICTIONARY
360
505
102
}
330
2A
100
AcDbVisualStyle
  2
Sketchy
 70
    24
 71
     1
 72
     2
 73
     2
 90
        0
 40
0.6
 41
30.0
 62
     5
 63
     7
 74
     2
 91
        2
 64
     7
 65
     7
 75
     1
175
     1
 42
40.0
 92
       11
 66
     7
 43
1.0
 76
     1
 77
     6
 78
     2
 67
     7
 79
     6
170
     0
171
     0
290
     0
174
     0
 93
        1
 44
0.0
173
     0
291
     0
 45
0.0
1001
ACAD
1000
AcDbSavedByObjectVersion
1070
     0
  0
VISUALSTYLE
  5
37
102
{ACAD_REACTORS
330
2A
102
}
102
{ACAD_XDICTIONARY
360
4F5
102
}
330
2A
100
AcDbVisualStyle
  2
Thicken
 70
    13
 71
     2
 72
     2
 73
     0
 90
        0
 40
0.6
 41
30.0
 62
     5
 63
     7
 74
     1
 91
        4
 64
     7
 65
   257
 75
     1
175
     1
 42
1.0
 92
       12
 66
     7
 43
1.0
 76
     1
 77
     6
 78
     2
 67
     7
 79
     5
170
     0
171
     0
290
     0
174
     0
 93
        1
 44
0.0
173
     0
291
     1
 45
0.0
1001
ACAD
1000
AcDbSavedByObjectVersion
1070
     0
  0
VISUALSTYLE
  5
30
102
{ACAD_REACTORS
330
2A
102
}
102
{ACAD_XDICTIONARY
360
4E7
102
}
330
2A
100
AcDbVisualStyle
  2
Wireframe
 70
     5
 71
     0
 72
     2
 73
     0
 90
        0
 40
0.6
 41
30.0
 62
     5
 63
     7
 74
     1
 91
        4
 64
     7
 65
   257
 75
     1
175
     1
 42
1.0
 92
        0
 66
   257
 43
1.0
 76
     1
 77
     6
 78
     2
 67
     7
 79
     3
170
     0
171
     0
290
     0
174
     0
 93
        1
 44
0.0
173
     0
291
     0
 45
0.0
1001
ACAD
1000
AcDbSavedByObjectVersion
1070
     0
  0
VISUALSTYLE
  5
40
102
{ACAD_REACTORS
330
2A
102
}
102
{ACAD_XDICTIONARY
360
507
102
}
330
2A
100
AcDbVisualStyle
  2
X-Ray
 70
    25
 71
     2
 72
     2
 73
     1
 90
        1
 40
0.5
 41
30.0
 62
     5
 63
     7
 74
     1
 91
        0
 64
     7
 65
   257
 75
     1
175
     1
 42
1.0
 92
        8
 66
     7
 43
1.0
 76
     1
 77
     6
 78
     2
 67
     7
 79
     3
170
     0
171
     0
290
     0
174
     0
 93
       13
 44
0.0
173
     0
291
     0
 45
0.0
1001
ACAD
1000
AcDbSavedByObjectVersion
1070
     0
  0
DICTIONARYVAR
  5
4DB
102
{ACAD_REACTORS
330
4D0
102
}
330
4D0
100
DictionaryVariables
280
     0
  1
1:1
  0
DICTIONARYVAR
  5
4D2
102
{ACAD_REACTORS
330
4D0
102
}
330
4D0
100
DictionaryVariables
280
     0
  1
Standard
  0
DICTIONARYVAR
  5
4D1
102
{ACAD_REACTORS
330
4D0
102
}
330
4D0
100
DictionaryVariables
280
     0
  1
Standard
  0
DICTIONARYVAR
  5
4D6
102
{ACAD_REACTORS
330
4D0
102
}
330
4D0
100
DictionaryVariables
280
     0
  1
2
  0
DICTIONARYVAR
  5
4D7
102
{ACAD_REACTORS
330
4D0
102
}
330
4D0
100
DictionaryVariables
280
     0
  1
1
  0
DICTIONARYVAR
  5
4DC
102
{ACAD_REACTORS
330
4D0
102
}
330
4D0
100
DictionaryVariables
280
     0
  1
1
  0
DICTIONARYVAR
  5
4D3
102
{ACAD_REACTORS
330
4D0
102
}
330
4D0
100
DictionaryVariables
280
     0
  1
0
  0
DICTIONARY
  5
50F
330
45
100
AcDbDictionary
280
     1
281
     1
  3
ACAD_XREC_ROUNDTRIP
360
510
  0
DICTIONARY
  5
50D
330
44
100
AcDbDictionary
280
     1
281
     1
  3
ACAD_XREC_ROUNDTRIP
360
50E
  0
DICTIONARY
  5
511
330
46
100
AcDbDictionary
280
     1
281
     1
  3
ACAD_XREC_ROUNDTRIP
360
512
  0
DICTIONARY
  5
514
330
6C
100
AcDbDictionary
280
     1
281
     1
  3
ACAD_XREC_ROUNDTRIP
360
515
  0
DICTIONARY
  5
4E5
330
2F
100
AcDbDictionary
280
     1
281
     1
  3
ACAD_XREC_ROUNDTRIP
360
4E6
  0
DICTIONARY
  5
4EB
330
32
100
AcDbDictionary
280
     1
281
     1
  3
ACAD_XREC_ROUNDTRIP
360
4EC
  0
DICTIONARY
  5
4F3
330
36
100
AcDbDictionary
280
     1
281
     1
  3
ACAD_XREC_ROUNDTRIP
360
4F4
  0
DICTIONARY
  5
4FB
330
3A
100
AcDbDictionary
280
     1
281
     1
  3
ACAD_XREC_ROUNDTRIP
360
4FC
  0
DICTIONARY
  5
4EF
330
34
100
AcDbDictionary
280
     1
281
     1
  3
ACAD_XREC_ROUNDTRIP
360
4F0
  0
DICTIONARY
  5
4F1
330
35
100
AcDbDictionary
280
     1
281
     1
  3
ACAD_XREC_ROUNDTRIP
360
4F2
  0
DICTIONARY
  5
501
330
3D
100
AcDbDictionary
280
     1
281
     1
  3
ACAD_XREC_ROUNDTRIP
360
502
  0
DICTIONARY
  5
4F9
330
39
100
AcDbDictionary
280
     1
281
     1
  3
ACAD_XREC_ROUNDTRIP
360
4FA
  0
DICTIONARY
  5
4DD
330
2B
100
AcDbDictionary
280
     1
281
     1
  3
ACAD_XREC_ROUNDTRIP
360
4DE
  0
DICTIONARY
  5
4DF
330
2C
100
AcDbDictionary
280
     1
281
     1
  3
ACAD_XREC_ROUNDTRIP
360
4E0
  0
DICTIONARY
  5
4E1
330
2D
100
AcDbDictionary
280
     1
281
     1
  3
ACAD_XREC_ROUNDTRIP
360
4E2
  0
DICTIONARY
  5
4E3
330
2E
100
AcDbDictionary
280
     1
281
     1
  3
ACAD_XREC_ROUNDTRIP
360
4E4
  0
DICTIONARY
  5
4E9
330
31
100
AcDbDictionary
280
     1
281
     1
  3
ACAD_XREC_ROUNDTRIP
360
4EA
  0
DICTIONARY
  5
4FD
330
3B
100
AcDbDictionary
280
     1
281
     1
  3
ACAD_XREC_ROUNDTRIP
360
4FE
  0
DICTIONARY
  5
4F7
330
38
100
AcDbDictionary
280
     1
281
     1
  3
ACAD_XREC_ROUNDTRIP
360
4F8
  0
DICTIONARY
  5
4FF
330
3C
100
AcDbDictionary
280
     1
281
     1
  3
ACAD_XREC_ROUNDTRIP
360
500
  0
DICTIONARY
  5
4ED
330
33
100
AcDbDictionary
280
     1
281
     1
  3
ACAD_XREC_ROUNDTRIP
360
4EE
  0
DICTIONARY
  5
50B
330
42
100
AcDbDictionary
280
     1
281
     1
  3
ACAD_XREC_ROUNDTRIP
360
50C
  0
DICTIONARY
  5
509
330
41
100
AcDbDictionary
280
     1
281
     1
  3
ACAD_XREC_ROUNDTRIP
360
50A
  0
DICTIONARY
  5
503
330
3E
100
AcDbDictionary
280
     1
281
     1
  3
ACAD_XREC_ROUNDTRIP
360
504
  0
DICTIONARY
  5
505
330
3F
100
AcDbDictionary
280
     1
281
     1
  3
ACAD_XREC_ROUNDTRIP
360
506
  0
DICTIONARY
  5
4F5
330
37
100
AcDbDictionary
280
     1
281
     1
  3
ACAD_XREC_ROUNDTRIP
360
4F6
  0
DICTIONARY
  5
4E7
330
30
100
AcDbDictionary
280
     1
281
     1
  3
ACAD_XREC_ROUNDTRIP
360
4E8
  0
DICTIONARY
  5
507
330
40
100
AcDbDictionary
280
     1
281
     1
  3
ACAD_XREC_ROUNDTRIP
360
508
  0
XRECORD
  5
510
102
{ACAD_REACTORS
330
50F
102
}
330
50F
100
AcDbXrecord
280
     1
102
MATERIAL
148
0.0
149
0.0
149
0.0
 93
        0
 94
      127
282
     0
 72
     1
 77
     1
171
     1
175
     1
179
     1
273
     0
  0
XRECORD
  5
50E
102
{ACAD_REACTORS
330
50D
102
}
330
50D
100
AcDbXrecord
280
     1
102
MATERIAL
148
0.0
149
0.0
149
0.0
 93
        0
 94
      127
282
     0
 72
     1
 77
     1
171
     1
175
     1
179
     1
273
     0
  0
XRECORD
  5
512
102
{ACAD_REACTORS
330
511
102
}
330
511
100
AcDbXrecord
280
     1
102
MATERIAL
148
0.0
149
0.0
149
0.0
 93
        0
 94
      127
282
     0
 72
     1
 77
     1
171
     1
175
     1
179
     1
273
     0
  0
XRECORD
  5
515
102
{ACAD_REACTORS
330
514
102
}
330
514
100
AcDbXrecord
280
     1
102
ACAD_ROUNDTRIP_2010_MLEADER_STYLE
  0
XRECORD
  5
4E6
102
{ACAD_REACTORS
330
4E5
102
}
330
4E5
100
AcDbXrecord
280
     1
102
RTVSPropertyOp0
 70
     1
102
RTVSPropertyOp1
 70
     1
102
RTVSPropertyOp2
 70
     1
102
RTVSPropertyOp3
 70
     1
102
RTVSPropertyOp4
 70
     1
102
RTVSPropertyOp5
 70
     1
102
RTVSPropertyOp6
 70
     1
102
RTVSPropertyOp7
 70
     1
102
RTVSPropertyOp8
 70
     1
102
RTVSPropertyOp9
 70
     1
102
RTVSPropertyOp10
 70
     1
102
RTVSPropertyOp11
 70
     1
102
RTVSPropertyOp12
 70
     1
102
RTVSPropertyOp13
 70
     1
102
RTVSPropertyOp14
 70
     1
102
RTVSPropertyOp15
 70
     1
102
RTVSPropertyOp16
 70
     1
102
RTVSPropertyOp17
 70
     1
102
RTVSPropertyOp18
 70
     1
102
RTVSPropertyOp19
 70
     1
102
RTVSPropertyOp20
 70
     1
102
RTVSPropertyOp21
 70
     1
102
RTVSPropertyOp22
 70
     1
102
RTVSPropertyOp23
 70
     1
102
RTVSPropertyOp24
 70
     1
102
RTVSPropertyOp25
 70
     1
102
RTVSPropertyOp26
 70
     1
102
RTVSPropertyOp27
 70
     1
102
RTVSPropertyOp28
 70
     1
102
RTVSPropertyOp29
 70
     1
102
RTVSPropertyOp30
 70
     1
102
RTVSPropertyOp31
 70
     1
102
RTVSPropertyOp32
 70
     1
102
RTVSPropertyOp33
 70
     1
102
RTVSPropertyOp34
 70
     1
102
RTVSPropertyOp35
 70
     1
102
RTVSPropertyOp36
 70
     1
102
RTVSPropertyOp37
 70
     1
102
RTVSPropertyOp38
 70
     1
102
RTVSPropertyOp39
 70
     1
102
RTVSPropertyOp40
 70
     1
102
RTVSPropertyOp41
 70
     1
102
RTVSPropertyOp42
 70
     1
102
RTVSPropertyOp43
 70
     1
102
RTVSPropertyOp44
 70
     1
102
RTVSPropertyOp45
 70
     1
102
RTVSPropertyOp46
 70
     1
102
RTVSPropertyOp47
 70
     1
102
RTVSPropertyOp48
 70
     1
102
RTVSPropertyOp49
 70
     1
102
RTVSPropertyOp50
 70
     1
102
RTVSPropertyOp51
 70
     0
102
RTVSPropertyOp52
 70
     0
102
RTVSPropertyOp53
 70
     1
102
RTVSPropertyOp54
 70
     1
102
RTVSPropertyOp55
 70
     1
102
RTVSPropertyOp56
 70
     1
102
RTVSPropertyOp57
 70
     1
102
RTVSPost2010Prop28
280
     1
102
RTVSPost2010PropOp28
 70
     1
102
RTVSPost2010Prop29
280
     1
102
RTVSPost2010PropOp29
 70
     1
102
RTVSPost2010Prop30
280
     0
102
RTVSPost2010PropOp30
 70
     1
102
RTVSPost2010Prop31
280
     0
102
RTVSPost2010PropOp31
 70
     1
102
RTVSPost2010Prop32
280
     0
102
RTVSPost2010PropOp32
 70
     1
102
RTVSPost2010Prop33
280
     0
102
RTVSPost2010PropOp33
 70
     1
102
RTVSPost2010Prop34
280
     0
102
RTVSPost2010PropOp34
 70
     1
102
RTVSPost2010Prop35
280
     0
102
RTVSPost2010PropOp35
 70
     1
102
RTVSPost2010Prop36
280
     0
102
RTVSPost2010PropOp36
 70
     1
102
RTVSPost2010Prop37
 90
       50
102
RTVSPost2010PropOp37
 70
     1
102
RTVSPost2010Prop38
140
0.0
102
RTVSPost2010PropOp38
 70
     1
102
RTVSPost2010Prop39
140
1.0
102
RTVSPost2010PropOp39
 70
     1
102
RTVSPost2010Prop40
 90
        0
102
RTVSPost2010PropOp40
 70
     1
102
RTVSPost2010Prop41ColorIndex
 90
       18
102
RTVSPost2010Prop41ColorRGB
 90
        0
102
RTVSPost2010PropOp41
 70
     1
102
RTVSPost2010Prop42
 90
       50
102
RTVSPost2010PropOp42
 70
     1
102
RTVSPost2010Prop43
 90
        3
102
RTVSPost2010PropOp43
 70
     1
102
RTVSPost2010Prop44ColorIndex
 90
        5
102
RTVSPost2010Prop44ColorRGB
 90
      255
102
RTVSPost2010PropOp44
 70
     1
102
RTVSPost2010Prop45
280
     0
102
RTVSPost2010PropOp45
 70
     1
102
RTVSPost2010Prop46
 90
       50
102
RTVSPost2010PropOp46
 70
     1
102
RTVSPost2010Prop47
 90
       50
102
RTVSPost2010PropOp47
 70
     1
102
RTVSPost2010Prop48
 90
       50
102
RTVSPost2010PropOp48
 70
     1
102
RTVSPost2010Prop49
280
     0
102
RTVSPost2010PropOp49
 70
     1
102
RTVSPost2010Prop50
 90
       50
102
RTVSPost2010PropOp50
 70
     1
102
RTVSPost2010Prop51ColorIndex
 90
      256
102
RTVSPost2010Prop51ColorRGB
 90
-16777216
102
RTVSPost2010PropOp51
 70
     0
102
RTVSPost2010Prop52
140
1.0
102
RTVSPost2010PropOp52
 70
     0
102
RTVSPost2010Prop53
 90
        2
102
RTVSPost2010PropOp53
 70
     1
102
RTVSPost2010Prop54
  1
strokes_ogs.tif
102
RTVSPost2010PropOp54
 70
     1
102
RTVSPost2010Prop55
280
     0
102
RTVSPost2010PropOp55
 70
     1
102
RTVSPost2010Prop56
140
1.0
102
RTVSPost2010PropOp56
 70
     1
102
RTVSPost2010Prop57
140
1.0
102
RTVSPost2010PropOp57
 70
     1
  0
XRECORD
  5
4EC
102
{ACAD_REACTORS
330
4EB
102
}
330
4EB
100
AcDbXrecord
280
     1
102
RTVSPropertyOp0
 70
     1
102
RTVSPropertyOp1
 70
     1
102
RTVSPropertyOp2
 70
     1
102
RTVSPropertyOp3
 70
     1
102
RTVSPropertyOp4
 70
     1
102
RTVSPropertyOp5
 70
     1
102
RTVSPropertyOp6
 70
     1
102
RTVSPropertyOp7
 70
     1
102
RTVSPropertyOp8
 70
     1
102
RTVSPropertyOp9
 70
     1
102
RTVSPropertyOp10
 70
     1
102
RTVSPropertyOp11
 70
     1
102
RTVSPropertyOp12
 70
     1
102
RTVSPropertyOp13
 70
     1
102
RTVSPropertyOp14
 70
     1
102
RTVSPropertyOp15
 70
     1
102
RTVSPropertyOp16
 70
     1
102
RTVSPropertyOp17
 70
     1
102
RTVSPropertyOp18
 70
     1
102
RTVSPropertyOp19
 70
     1
102
RTVSPropertyOp20
 70
     1
102
RTVSPropertyOp21
 70
     1
102
RTVSPropertyOp22
 70
     1
102
RTVSPropertyOp23
 70
     1
102
RTVSPropertyOp24
 70
     1
102
RTVSPropertyOp25
 70
     1
102
RTVSPropertyOp26
 70
     1
102
RTVSPropertyOp27
 70
     1
102
RTVSPropertyOp28
 70
     1
102
RTVSPropertyOp29
 70
     1
102
RTVSPropertyOp30
 70
     1
102
RTVSPropertyOp31
 70
     1
102
RTVSPropertyOp32
 70
     1
102
RTVSPropertyOp33
 70
     1
102
RTVSPropertyOp34
 70
     1
102
RTVSPropertyOp35
 70
     1
102
RTVSPropertyOp36
 70
     1
102
RTVSPropertyOp37
 70
     1
102
RTVSPropertyOp38
 70
     1
102
RTVSPropertyOp39
 70
     1
102
RTVSPropertyOp40
 70
     1
102
RTVSPropertyOp41
 70
     1
102
RTVSPropertyOp42
 70
     1
102
RTVSPropertyOp43
 70
     1
102
RTVSPropertyOp44
 70
     1
102
RTVSPropertyOp45
 70
     1
102
RTVSPropertyOp46
 70
     1
102
RTVSPropertyOp47
 70
     1
102
RTVSPropertyOp48
 70
     1
102
RTVSPropertyOp49
 70
     1
102
RTVSPropertyOp50
 70
     1
102
RTVSPropertyOp51
 70
     0
102
RTVSPropertyOp52
 70
     0
102
RTVSPropertyOp53
 70
     1
102
RTVSPropertyOp54
 70
     1
102
RTVSPropertyOp55
 70
     1
102
RTVSPropertyOp56
 70
     1
102
RTVSPropertyOp57
 70
     1
102
RTVSPost2010Prop28
280
     0
102
RTVSPost2010PropOp28
 70
     1
102
RTVSPost2010Prop29
280
     1
102
RTVSPost2010PropOp29
 70
     1
102
RTVSPost2010Prop30
280
     1
102
RTVSPost2010PropOp30
 70
     1
102
RTVSPost2010Prop31
280
     0
102
RTVSPost2010PropOp31
 70
     1
102
RTVSPost2010Prop32
280
     0
102
RTVSPost2010PropOp32
 70
     1
102
RTVSPost2010Prop33
280
     0
102
RTVSPost2010PropOp33
 70
     1
102
RTVSPost2010Prop34
280
     0
102
RTVSPost2010PropOp34
 70
     1
102
RTVSPost2010Prop35
280
     0
102
RTVSPost2010PropOp35
 70
     1
102
RTVSPost2010Prop36
280
     0
102
RTVSPost2010PropOp36
 70
     1
102
RTVSPost2010Prop37
 90
       50
102
RTVSPost2010PropOp37
 70
     1
102
RTVSPost2010Prop38
140
0.0
102
RTVSPost2010PropOp38
 70
     1
102
RTVSPost2010Prop39
140
1.0
102
RTVSPost2010PropOp39
 70
     1
102
RTVSPost2010Prop40
 90
        0
102
RTVSPost2010PropOp40
 70
     1
102
RTVSPost2010Prop41ColorIndex
 90
       18
102
RTVSPost2010Prop41ColorRGB
 90
        0
102
RTVSPost2010PropOp41
 70
     1
102
RTVSPost2010Prop42
 90
       50
102
RTVSPost2010PropOp42
 70
     1
102
RTVSPost2010Prop43
 90
        3
102
RTVSPost2010PropOp43
 70
     1
102
RTVSPost2010Prop44ColorIndex
 90
        5
102
RTVSPost2010Prop44ColorRGB
 90
      255
102
RTVSPost2010PropOp44
 70
     1
102
RTVSPost2010Prop45
280
     0
102
RTVSPost2010PropOp45
 70
     1
102
RTVSPost2010Prop46
 90
       50
102
RTVSPost2010PropOp46
 70
     1
102
RTVSPost2010Prop47
 90
       50
102
RTVSPost2010PropOp47
 70
     1
102
RTVSPost2010Prop48
 90
       50
102
RTVSPost2010PropOp48
 70
     1
102
RTVSPost2010Prop49
280
     0
102
RTVSPost2010PropOp49
 70
     1
102
RTVSPost2010Prop50
 90
       50
102
RTVSPost2010PropOp50
 70
     1
102
RTVSPost2010Prop51ColorIndex
 90
      256
102
RTVSPost2010Prop51ColorRGB
 90
-16777216
102
RTVSPost2010PropOp51
 70
     0
102
RTVSPost2010Prop52
140
1.0
102
RTVSPost2010PropOp52
 70
     0
102
RTVSPost2010Prop53
 90
        2
102
RTVSPost2010PropOp53
 70
     1
102
RTVSPost2010Prop54
  1
strokes_ogs.tif
102
RTVSPost2010PropOp54
 70
     1
102
RTVSPost2010Prop55
280
     0
102
RTVSPost2010PropOp55
 70
     1
102
RTVSPost2010Prop56
140
1.0
102
RTVSPost2010PropOp56
 70
     1
102
RTVSPost2010Prop57
140
1.0
102
RTVSPost2010PropOp57
 70
     1
  0
XRECORD
  5
4F4
102
{ACAD_REACTORS
330
4F3
102
}
330
4F3
100
AcDbXrecord
280
     1
102
RTVSPropertyOp0
 70
     1
102
RTVSPropertyOp1
 70
     1
102
RTVSPropertyOp2
 70
     1
102
RTVSPropertyOp3
 70
     1
102
RTVSPropertyOp4
 70
     1
102
RTVSPropertyOp5
 70
     1
102
RTVSPropertyOp6
 70
     1
102
RTVSPropertyOp7
 70
     1
102
RTVSPropertyOp8
 70
     1
102
RTVSPropertyOp9
 70
     1
102
RTVSPropertyOp10
 70
     1
102
RTVSPropertyOp11
 70
     1
102
RTVSPropertyOp12
 70
     1
102
RTVSPropertyOp13
 70
     1
102
RTVSPropertyOp14
 70
     1
102
RTVSPropertyOp15
 70
     1
102
RTVSPropertyOp16
 70
     1
102
RTVSPropertyOp17
 70
     1
102
RTVSPropertyOp18
 70
     1
102
RTVSPropertyOp19
 70
     1
102
RTVSPropertyOp20
 70
     1
102
RTVSPropertyOp21
 70
     1
102
RTVSPropertyOp22
 70
     1
102
RTVSPropertyOp23
 70
     1
102
RTVSPropertyOp24
 70
     1
102
RTVSPropertyOp25
 70
     1
102
RTVSPropertyOp26
 70
     1
102
RTVSPropertyOp27
 70
     1
102
RTVSPropertyOp28
 70
     1
102
RTVSPropertyOp29
 70
     1
102
RTVSPropertyOp30
 70
     1
102
RTVSPropertyOp31
 70
     1
102
RTVSPropertyOp32
 70
     1
102
RTVSPropertyOp33
 70
     1
102
RTVSPropertyOp34
 70
     1
102
RTVSPropertyOp35
 70
     1
102
RTVSPropertyOp36
 70
     1
102
RTVSPropertyOp37
 70
     1
102
RTVSPropertyOp38
 70
     1
102
RTVSPropertyOp39
 70
     1
102
RTVSPropertyOp40
 70
     1
102
RTVSPropertyOp41
 70
     1
102
RTVSPropertyOp42
 70
     1
102
RTVSPropertyOp43
 70
     1
102
RTVSPropertyOp44
 70
     1
102
RTVSPropertyOp45
 70
     1
102
RTVSPropertyOp46
 70
     1
102
RTVSPropertyOp47
 70
     1
102
RTVSPropertyOp48
 70
     1
102
RTVSPropertyOp49
 70
     1
102
RTVSPropertyOp50
 70
     1
102
RTVSPropertyOp51
 70
     0
102
RTVSPropertyOp52
 70
     0
102
RTVSPropertyOp53
 70
     1
102
RTVSPropertyOp54
 70
     1
102
RTVSPropertyOp55
 70
     1
102
RTVSPropertyOp56
 70
     1
102
RTVSPropertyOp57
 70
     1
102
RTVSPost2010Prop28
280
     0
102
RTVSPost2010PropOp28
 70
     1
102
RTVSPost2010Prop29
280
     1
102
RTVSPost2010PropOp29
 70
     1
102
RTVSPost2010Prop30
280
     1
102
RTVSPost2010PropOp30
 70
     1
102
RTVSPost2010Prop31
280
     0
102
RTVSPost2010PropOp31
 70
     1
102
RTVSPost2010Prop32
280
     0
102
RTVSPost2010PropOp32
 70
     1
102
RTVSPost2010Prop33
280
     0
102
RTVSPost2010PropOp33
 70
     1
102
RTVSPost2010Prop34
280
     0
102
RTVSPost2010PropOp34
 70
     1
102
RTVSPost2010Prop35
280
     0
102
RTVSPost2010PropOp35
 70
     1
102
RTVSPost2010Prop36
280
     0
102
RTVSPost2010PropOp36
 70
     1
102
RTVSPost2010Prop37
 90
       50
102
RTVSPost2010PropOp37
 70
     1
102
RTVSPost2010Prop38
140
0.0
102
RTVSPost2010PropOp38
 70
     1
102
RTVSPost2010Prop39
140
1.0
102
RTVSPost2010PropOp39
 70
     1
102
RTVSPost2010Prop40
 90
        0
102
RTVSPost2010PropOp40
 70
     1
102
RTVSPost2010Prop41ColorIndex
 90
       18
102
RTVSPost2010Prop41ColorRGB
 90
        0
102
RTVSPost2010PropOp41
 70
     1
102
RTVSPost2010Prop42
 90
       50
102
RTVSPost2010PropOp42
 70
     1
102
RTVSPost2010Prop43
 90
        3
102
RTVSPost2010PropOp43
 70
     1
102
RTVSPost2010Prop44ColorIndex
 90
        5
102
RTVSPost2010Prop44ColorRGB
 90
      255
102
RTVSPost2010PropOp44
 70
     1
102
RTVSPost2010Prop45
280
     0
102
RTVSPost2010PropOp45
 70
     1
102
RTVSPost2010Prop46
 90
       50
102
RTVSPost2010PropOp46
 70
     1
102
RTVSPost2010Prop47
 90
       50
102
RTVSPost2010PropOp47
 70
     1
102
RTVSPost2010Prop48
 90
       50
102
RTVSPost2010PropOp48
 70
     1
102
RTVSPost2010Prop49
280
     0
102
RTVSPost2010PropOp49
 70
     1
102
RTVSPost2010Prop50
 90
       50
102
RTVSPost2010PropOp50
 70
     1
102
RTVSPost2010Prop51ColorIndex
 90
      256
102
RTVSPost2010Prop51ColorRGB
 90
-16777216
102
RTVSPost2010PropOp51
 70
     0
102
RTVSPost2010Prop52
140
1.0
102
RTVSPost2010PropOp52
 70
     0
102
RTVSPost2010Prop53
 90
        2
102
RTVSPost2010PropOp53
 70
     1
102
RTVSPost2010Prop54
  1
strokes_ogs.tif
102
RTVSPost2010PropOp54
 70
     1
102
RTVSPost2010Prop55
280
     0
102
RTVSPost2010PropOp55
 70
     1
102
RTVSPost2010Prop56
140
1.0
102
RTVSPost2010PropOp56
 70
     1
102
RTVSPost2010Prop57
140
1.0
102
RTVSPost2010PropOp57
 70
     1
  0
XRECORD
  5
4FC
102
{ACAD_REACTORS
330
4FB
102
}
330
4FB
100
AcDbXrecord
280
     1
102
RTVSPropertyOp0
 70
     1
102
RTVSPropertyOp1
 70
     1
102
RTVSPropertyOp2
 70
     1
102
RTVSPropertyOp3
 70
     1
102
RTVSPropertyOp4
 70
     1
102
RTVSPropertyOp5
 70
     1
102
RTVSPropertyOp6
 70
     1
102
RTVSPropertyOp7
 70
     1
102
RTVSPropertyOp8
 70
     1
102
RTVSPropertyOp9
 70
     1
102
RTVSPropertyOp10
 70
     1
102
RTVSPropertyOp11
 70
     1
102
RTVSPropertyOp12
 70
     1
102
RTVSPropertyOp13
 70
     1
102
RTVSPropertyOp14
 70
     1
102
RTVSPropertyOp15
 70
     1
102
RTVSPropertyOp16
 70
     1
102
RTVSPropertyOp17
 70
     1
102
RTVSPropertyOp18
 70
     1
102
RTVSPropertyOp19
 70
     1
102
RTVSPropertyOp20
 70
     1
102
RTVSPropertyOp21
 70
     1
102
RTVSPropertyOp22
 70
     1
102
RTVSPropertyOp23
 70
     1
102
RTVSPropertyOp24
 70
     1
102
RTVSPropertyOp25
 70
     1
102
RTVSPropertyOp26
 70
     1
102
RTVSPropertyOp27
 70
     1
102
RTVSPropertyOp28
 70
     1
102
RTVSPropertyOp29
 70
     1
102
RTVSPropertyOp30
 70
     1
102
RTVSPropertyOp31
 70
     1
102
RTVSPropertyOp32
 70
     1
102
RTVSPropertyOp33
 70
     1
102
RTVSPropertyOp34
 70
     1
102
RTVSPropertyOp35
 70
     1
102
RTVSPropertyOp36
 70
     1
102
RTVSPropertyOp37
 70
     1
102
RTVSPropertyOp38
 70
     1
102
RTVSPropertyOp39
 70
     1
102
RTVSPropertyOp40
 70
     1
102
RTVSPropertyOp41
 70
     1
102
RTVSPropertyOp42
 70
     1
102
RTVSPropertyOp43
 70
     1
102
RTVSPropertyOp44
 70
     1
102
RTVSPropertyOp45
 70
     1
102
RTVSPropertyOp46
 70
     1
102
RTVSPropertyOp47
 70
     1
102
RTVSPropertyOp48
 70
     1
102
RTVSPropertyOp49
 70
     1
102
RTVSPropertyOp50
 70
     1
102
RTVSPropertyOp51
 70
     0
102
RTVSPropertyOp52
 70
     0
102
RTVSPropertyOp53
 70
     1
102
RTVSPropertyOp54
 70
     1
102
RTVSPropertyOp55
 70
     1
102
RTVSPropertyOp56
 70
     1
102
RTVSPropertyOp57
 70
     1
102
RTVSPost2010Prop28
280
     0
102
RTVSPost2010PropOp28
 70
     1
102
RTVSPost2010Prop29
280
     1
102
RTVSPost2010PropOp29
 70
     1
102
RTVSPost2010Prop30
280
     1
102
RTVSPost2010PropOp30
 70
     1
102
RTVSPost2010Prop31
280
     0
102
RTVSPost2010PropOp31
 70
     1
102
RTVSPost2010Prop32
280
     0
102
RTVSPost2010PropOp32
 70
     1
102
RTVSPost2010Prop33
280
     0
102
RTVSPost2010PropOp33
 70
     1
102
RTVSPost2010Prop34
280
     0
102
RTVSPost2010PropOp34
 70
     1
102
RTVSPost2010Prop35
280
     0
102
RTVSPost2010PropOp35
 70
     1
102
RTVSPost2010Prop36
280
     0
102
RTVSPost2010PropOp36
 70
     1
102
RTVSPost2010Prop37
 90
       50
102
RTVSPost2010PropOp37
 70
     1
102
RTVSPost2010Prop38
140
0.0
102
RTVSPost2010PropOp38
 70
     1
102
RTVSPost2010Prop39
140
1.0
102
RTVSPost2010PropOp39
 70
     1
102
RTVSPost2010Prop40
 90
        0
102
RTVSPost2010PropOp40
 70
     1
102
RTVSPost2010Prop41ColorIndex
 90
       18
102
RTVSPost2010Prop41ColorRGB
 90
        0
102
RTVSPost2010PropOp41
 70
     1
102
RTVSPost2010Prop42
 90
       50
102
RTVSPost2010PropOp42
 70
     1
102
RTVSPost2010Prop43
 90
        3
102
RTVSPost2010PropOp43
 70
     1
102
RTVSPost2010Prop44ColorIndex
 90
        5
102
RTVSPost2010Prop44ColorRGB
 90
      255
102
RTVSPost2010PropOp44
 70
     1
102
RTVSPost2010Prop45
280
     0
102
RTVSPost2010PropOp45
 70
     1
102
RTVSPost2010Prop46
 90
       50
102
RTVSPost2010PropOp46
 70
     1
102
RTVSPost2010Prop47
 90
       50
102
RTVSPost2010PropOp47
 70
     1
102
RTVSPost2010Prop48
 90
       50
102
RTVSPost2010PropOp48
 70
     1
102
RTVSPost2010Prop49
280
     0
102
RTVSPost2010PropOp49
 70
     1
102
RTVSPost2010Prop50
 90
       50
102
RTVSPost2010PropOp50
 70
     1
102
RTVSPost2010Prop51ColorIndex
 90
      256
102
RTVSPost2010Prop51ColorRGB
 90
-16777216
102
RTVSPost2010PropOp51
 70
     0
102
RTVSPost2010Prop52
140
1.0
102
RTVSPost2010PropOp52
 70
     0
102
RTVSPost2010Prop53
 90
        2
102
RTVSPost2010PropOp53
 70
     1
102
RTVSPost2010Prop54
  1
strokes_ogs.tif
102
RTVSPost2010PropOp54
 70
     1
102
RTVSPost2010Prop55
280
     0
102
RTVSPost2010PropOp55
 70
     1
102
RTVSPost2010Prop56
140
1.0
102
RTVSPost2010PropOp56
 70
     1
102
RTVSPost2010Prop57
140
1.0
102
RTVSPost2010PropOp57
 70
     1
  0
XRECORD
  5
4F0
102
{ACAD_REACTORS
330
4EF
102
}
330
4EF
100
AcDbXrecord
280
     1
102
RTVSPropertyOp0
 70
     1
102
RTVSPropertyOp1
 70
     1
102
RTVSPropertyOp2
 70
     1
102
RTVSPropertyOp3
 70
     1
102
RTVSPropertyOp4
 70
     1
102
RTVSPropertyOp5
 70
     1
102
RTVSPropertyOp6
 70
     1
102
RTVSPropertyOp7
 70
     1
102
RTVSPropertyOp8
 70
     1
102
RTVSPropertyOp9
 70
     1
102
RTVSPropertyOp10
 70
     1
102
RTVSPropertyOp11
 70
     1
102
RTVSPropertyOp12
 70
     1
102
RTVSPropertyOp13
 70
     1
102
RTVSPropertyOp14
 70
     1
102
RTVSPropertyOp15
 70
     1
102
RTVSPropertyOp16
 70
     1
102
RTVSPropertyOp17
 70
     1
102
RTVSPropertyOp18
 70
     1
102
RTVSPropertyOp19
 70
     1
102
RTVSPropertyOp20
 70
     1
102
RTVSPropertyOp21
 70
     1
102
RTVSPropertyOp22
 70
     1
102
RTVSPropertyOp23
 70
     1
102
RTVSPropertyOp24
 70
     1
102
RTVSPropertyOp25
 70
     1
102
RTVSPropertyOp26
 70
     1
102
RTVSPropertyOp27
 70
     1
102
RTVSPropertyOp28
 70
     1
102
RTVSPropertyOp29
 70
     1
102
RTVSPropertyOp30
 70
     1
102
RTVSPropertyOp31
 70
     1
102
RTVSPropertyOp32
 70
     1
102
RTVSPropertyOp33
 70
     1
102
RTVSPropertyOp34
 70
     1
102
RTVSPropertyOp35
 70
     1
102
RTVSPropertyOp36
 70
     1
102
RTVSPropertyOp37
 70
     1
102
RTVSPropertyOp38
 70
     1
102
RTVSPropertyOp39
 70
     1
102
RTVSPropertyOp40
 70
     1
102
RTVSPropertyOp41
 70
     1
102
RTVSPropertyOp42
 70
     1
102
RTVSPropertyOp43
 70
     1
102
RTVSPropertyOp44
 70
     1
102
RTVSPropertyOp45
 70
     1
102
RTVSPropertyOp46
 70
     1
102
RTVSPropertyOp47
 70
     1
102
RTVSPropertyOp48
 70
     1
102
RTVSPropertyOp49
 70
     1
102
RTVSPropertyOp50
 70
     1
102
RTVSPropertyOp51
 70
     0
102
RTVSPropertyOp52
 70
     0
102
RTVSPropertyOp53
 70
     1
102
RTVSPropertyOp54
 70
     1
102
RTVSPropertyOp55
 70
     1
102
RTVSPropertyOp56
 70
     1
102
RTVSPropertyOp57
 70
     1
102
RTVSPost2010Prop28
280
     0
102
RTVSPost2010PropOp28
 70
     1
102
RTVSPost2010Prop29
280
     1
102
RTVSPost2010PropOp29
 70
     1
102
RTVSPost2010Prop30
280
     1
102
RTVSPost2010PropOp30
 70
     1
102
RTVSPost2010Prop31
280
     0
102
RTVSPost2010PropOp31
 70
     1
102
RTVSPost2010Prop32
280
     0
102
RTVSPost2010PropOp32
 70
     1
102
RTVSPost2010Prop33
280
     0
102
RTVSPost2010PropOp33
 70
     1
102
RTVSPost2010Prop34
280
     0
102
RTVSPost2010PropOp34
 70
     1
102
RTVSPost2010Prop35
280
     0
102
RTVSPost2010PropOp35
 70
     1
102
RTVSPost2010Prop36
280
     0
102
RTVSPost2010PropOp36
 70
     1
102
RTVSPost2010Prop37
 90
       50
102
RTVSPost2010PropOp37
 70
     1
102
RTVSPost2010Prop38
140
0.0
102
RTVSPost2010PropOp38
 70
     1
102
RTVSPost2010Prop39
140
1.0
102
RTVSPost2010PropOp39
 70
     1
102
RTVSPost2010Prop40
 90
        0
102
RTVSPost2010PropOp40
 70
     1
102
RTVSPost2010Prop41ColorIndex
 90
       18
102
RTVSPost2010Prop41ColorRGB
 90
        0
102
RTVSPost2010PropOp41
 70
     1
102
RTVSPost2010Prop42
 90
       50
102
RTVSPost2010PropOp42
 70
     1
102
RTVSPost2010Prop43
 90
        3
102
RTVSPost2010PropOp43
 70
     1
102
RTVSPost2010Prop44ColorIndex
 90
        5
102
RTVSPost2010Prop44ColorRGB
 90
      255
102
RTVSPost2010PropOp44
 70
     1
102
RTVSPost2010Prop45
280
     0
102
RTVSPost2010PropOp45
 70
     1
102
RTVSPost2010Prop46
 90
       50
102
RTVSPost2010PropOp46
 70
     1
102
RTVSPost2010Prop47
 90
       50
102
RTVSPost2010PropOp47
 70
     1
102
RTVSPost2010Prop48
 90
       50
102
RTVSPost2010PropOp48
 70
     1
102
RTVSPost2010Prop49
280
     0
102
RTVSPost2010PropOp49
 70
     1
102
RTVSPost2010Prop50
 90
       50
102
RTVSPost2010PropOp50
 70
     1
102
RTVSPost2010Prop51ColorIndex
 90
      256
102
RTVSPost2010Prop51ColorRGB
 90
-16777216
102
RTVSPost2010PropOp51
 70
     0
102
RTVSPost2010Prop52
140
1.0
102
RTVSPost2010PropOp52
 70
     0
102
RTVSPost2010Prop53
 90
        2
102
RTVSPost2010PropOp53
 70
     1
102
RTVSPost2010Prop54
  1
strokes_ogs.tif
102
RTVSPost2010PropOp54
 70
     1
102
RTVSPost2010Prop55
280
     0
102
RTVSPost2010PropOp55
 70
     1
102
RTVSPost2010Prop56
140
1.0
102
RTVSPost2010PropOp56
 70
     1
102
RTVSPost2010Prop57
140
1.0
102
RTVSPost2010PropOp57
 70
     1
  0
XRECORD
  5
4F2
102
{ACAD_REACTORS
330
4F1
102
}
330
4F1
100
AcDbXrecord
280
     1
102
RTVSPropertyOp0
 70
     1
102
RTVSPropertyOp1
 70
     1
102
RTVSPropertyOp2
 70
     1
102
RTVSPropertyOp3
 70
     1
102
RTVSPropertyOp4
 70
     1
102
RTVSPropertyOp5
 70
     1
102
RTVSPropertyOp6
 70
     1
102
RTVSPropertyOp7
 70
     1
102
RTVSPropertyOp8
 70
     1
102
RTVSPropertyOp9
 70
     1
102
RTVSPropertyOp10
 70
     1
102
RTVSPropertyOp11
 70
     1
102
RTVSPropertyOp12
 70
     1
102
RTVSPropertyOp13
 70
     1
102
RTVSPropertyOp14
 70
     1
102
RTVSPropertyOp15
 70
     1
102
RTVSPropertyOp16
 70
     1
102
RTVSPropertyOp17
 70
     1
102
RTVSPropertyOp18
 70
     1
102
RTVSPropertyOp19
 70
     1
102
RTVSPropertyOp20
 70
     1
102
RTVSPropertyOp21
 70
     1
102
RTVSPropertyOp22
 70
     1
102
RTVSPropertyOp23
 70
     1
102
RTVSPropertyOp24
 70
     1
102
RTVSPropertyOp25
 70
     1
102
RTVSPropertyOp26
 70
     1
102
RTVSPropertyOp27
 70
     1
102
RTVSPropertyOp28
 70
     1
102
RTVSPropertyOp29
 70
     1
102
RTVSPropertyOp30
 70
     1
102
RTVSPropertyOp31
 70
     1
102
RTVSPropertyOp32
 70
     1
102
RTVSPropertyOp33
 70
     1
102
RTVSPropertyOp34
 70
     1
102
RTVSPropertyOp35
 70
     1
102
RTVSPropertyOp36
 70
     1
102
RTVSPropertyOp37
 70
     1
102
RTVSPropertyOp38
 70
     1
102
RTVSPropertyOp39
 70
     1
102
RTVSPropertyOp40
 70
     1
102
RTVSPropertyOp41
 70
     1
102
RTVSPropertyOp42
 70
     1
102
RTVSPropertyOp43
 70
     1
102
RTVSPropertyOp44
 70
     1
102
RTVSPropertyOp45
 70
     1
102
RTVSPropertyOp46
 70
     1
102
RTVSPropertyOp47
 70
     1
102
RTVSPropertyOp48
 70
     1
102
RTVSPropertyOp49
 70
     1
102
RTVSPropertyOp50
 70
     1
102
RTVSPropertyOp51
 70
     0
102
RTVSPropertyOp52
 70
     0
102
RTVSPropertyOp53
 70
     1
102
RTVSPropertyOp54
 70
     1
102
RTVSPropertyOp55
 70
     1
102
RTVSPropertyOp56
 70
     1
102
RTVSPropertyOp57
 70
     1
102
RTVSPost2010Prop28
280
     0
102
RTVSPost2010PropOp28
 70
     1
102
RTVSPost2010Prop29
280
     1
102
RTVSPost2010PropOp29
 70
     1
102
RTVSPost2010Prop30
280
     1
102
RTVSPost2010PropOp30
 70
     1
102
RTVSPost2010Prop31
280
     0
102
RTVSPost2010PropOp31
 70
     1
102
RTVSPost2010Prop32
280
     0
102
RTVSPost2010PropOp32
 70
     1
102
RTVSPost2010Prop33
280
     0
102
RTVSPost2010PropOp33
 70
     1
102
RTVSPost2010Prop34
280
     0
102
RTVSPost2010PropOp34
 70
     1
102
RTVSPost2010Prop35
280
     0
102
RTVSPost2010PropOp35
 70
     1
102
RTVSPost2010Prop36
280
     0
102
RTVSPost2010PropOp36
 70
     1
102
RTVSPost2010Prop37
 90
       50
102
RTVSPost2010PropOp37
 70
     1
102
RTVSPost2010Prop38
140
0.0
102
RTVSPost2010PropOp38
 70
     1
102
RTVSPost2010Prop39
140
1.0
102
RTVSPost2010PropOp39
 70
     1
102
RTVSPost2010Prop40
 90
        0
102
RTVSPost2010PropOp40
 70
     1
102
RTVSPost2010Prop41ColorIndex
 90
       18
102
RTVSPost2010Prop41ColorRGB
 90
        0
102
RTVSPost2010PropOp41
 70
     1
102
RTVSPost2010Prop42
 90
       50
102
RTVSPost2010PropOp42
 70
     1
102
RTVSPost2010Prop43
 90
        3
102
RTVSPost2010PropOp43
 70
     1
102
RTVSPost2010Prop44ColorIndex
 90
        5
102
RTVSPost2010Prop44ColorRGB
 90
      255
102
RTVSPost2010PropOp44
 70
     1
102
RTVSPost2010Prop45
280
     0
102
RTVSPost2010PropOp45
 70
     1
102
RTVSPost2010Prop46
 90
       50
102
RTVSPost2010PropOp46
 70
     1
102
RTVSPost2010Prop47
 90
       50
102
RTVSPost2010PropOp47
 70
     1
102
RTVSPost2010Prop48
 90
       50
102
RTVSPost2010PropOp48
 70
     1
102
RTVSPost2010Prop49
280
     0
102
RTVSPost2010PropOp49
 70
     1
102
RTVSPost2010Prop50
 90
       50
102
RTVSPost2010PropOp50
 70
     1
102
RTVSPost2010Prop51ColorIndex
 90
      256
102
RTVSPost2010Prop51ColorRGB
 90
-16777216
102
RTVSPost2010PropOp51
 70
     0
102
RTVSPost2010Prop52
140
1.0
102
RTVSPost2010PropOp52
 70
     0
102
RTVSPost2010Prop53
 90
        2
102
RTVSPost2010PropOp53
 70
     1
102
RTVSPost2010Prop54
  1
strokes_ogs.tif
102
RTVSPost2010PropOp54
 70
     1
102
RTVSPost2010Prop55
280
     0
102
RTVSPost2010PropOp55
 70
     1
102
RTVSPost2010Prop56
140
1.0
102
RTVSPost2010PropOp56
 70
     1
102
RTVSPost2010Prop57
140
1.0
102
RTVSPost2010PropOp57
 70
     1
  0
XRECORD
  5
502
102
{ACAD_REACTORS
330
501
102
}
330
501
100
AcDbXrecord
280
     1
102
RTVSPropertyOp0
 70
     0
102
RTVSPropertyOp1
 70
     0
102
RTVSPropertyOp2
 70
     0
102
RTVSPropertyOp3
 70
     0
102
RTVSPropertyOp4
 70
     0
102
RTVSPropertyOp5
 70
     0
102
RTVSPropertyOp6
 70
     0
102
RTVSPropertyOp7
 70
     0
102
RTVSPropertyOp8
 70
     0
102
RTVSPropertyOp9
 70
     0
102
RTVSPropertyOp10
 70
     0
102
RTVSPropertyOp11
 70
     0
102
RTVSPropertyOp12
 70
     0
102
RTVSPropertyOp13
 70
     0
102
RTVSPropertyOp14
 70
     2
102
RTVSPropertyOp15
 70
     0
102
RTVSPropertyOp16
 70
     0
102
RTVSPropertyOp17
 70
     0
102
RTVSPropertyOp18
 70
     0
102
RTVSPropertyOp19
 70
     0
102
RTVSPropertyOp20
 70
     0
102
RTVSPropertyOp21
 70
     0
102
RTVSPropertyOp22
 70
     0
102
RTVSPropertyOp23
 70
     0
102
RTVSPropertyOp24
 70
     0
102
RTVSPropertyOp25
 70
     0
102
RTVSPropertyOp26
 70
     0
102
RTVSPropertyOp27
 70
     0
102
RTVSPropertyOp28
 70
     0
102
RTVSPropertyOp29
 70
     0
102
RTVSPropertyOp30
 70
     0
102
RTVSPropertyOp31
 70
     0
102
RTVSPropertyOp32
 70
     0
102
RTVSPropertyOp33
 70
     0
102
RTVSPropertyOp34
 70
     0
102
RTVSPropertyOp35
 70
     0
102
RTVSPropertyOp36
 70
     0
102
RTVSPropertyOp37
 70
     0
102
RTVSPropertyOp38
 70
     0
102
RTVSPropertyOp39
 70
     0
102
RTVSPropertyOp40
 70
     0
102
RTVSPropertyOp41
 70
     0
102
RTVSPropertyOp42
 70
     0
102
RTVSPropertyOp43
 70
     0
102
RTVSPropertyOp44
 70
     0
102
RTVSPropertyOp45
 70
     0
102
RTVSPropertyOp46
 70
     0
102
RTVSPropertyOp47
 70
     0
102
RTVSPropertyOp48
 70
     0
102
RTVSPropertyOp49
 70
     0
102
RTVSPropertyOp50
 70
     0
102
RTVSPropertyOp51
 70
     0
102
RTVSPropertyOp52
 70
     0
102
RTVSPropertyOp53
 70
     0
102
RTVSPropertyOp54
 70
     0
102
RTVSPropertyOp55
 70
     0
102
RTVSPropertyOp56
 70
     0
102
RTVSPropertyOp57
 70
     0
102
RTVSPost2010Prop28
280
     0
102
RTVSPost2010PropOp28
 70
     0
102
RTVSPost2010Prop29
280
     1
102
RTVSPost2010PropOp29
 70
     0
102
RTVSPost2010Prop30
280
     1
102
RTVSPost2010PropOp30
 70
     0
102
RTVSPost2010Prop31
280
     0
102
RTVSPost2010PropOp31
 70
     0
102
RTVSPost2010Prop32
280
     0
102
RTVSPost2010PropOp32
 70
     0
102
RTVSPost2010Prop33
280
     0
102
RTVSPost2010PropOp33
 70
     0
102
RTVSPost2010Prop34
280
     0
102
RTVSPost2010PropOp34
 70
     0
102
RTVSPost2010Prop35
280
     0
102
RTVSPost2010PropOp35
 70
     0
102
RTVSPost2010Prop36
280
     0
102
RTVSPost2010PropOp36
 70
     0
102
RTVSPost2010Prop37
 90
       50
102
RTVSPost2010PropOp37
 70
     0
102
RTVSPost2010Prop38
140
0.0
102
RTVSPost2010PropOp38
 70
     0
102
RTVSPost2010Prop39
140
1.0
102
RTVSPost2010PropOp39
 70
     0
102
RTVSPost2010Prop40
 90
        0
102
RTVSPost2010PropOp40
 70
     0
102
RTVSPost2010Prop41ColorIndex
 90
       18
102
RTVSPost2010Prop41ColorRGB
 90
        0
102
RTVSPost2010PropOp41
 70
     0
102
RTVSPost2010Prop42
 90
       50
102
RTVSPost2010PropOp42
 70
     0
102
RTVSPost2010Prop43
 90
        3
102
RTVSPost2010PropOp43
 70
     0
102
RTVSPost2010Prop44ColorIndex
 90
        5
102
RTVSPost2010Prop44ColorRGB
 90
      255
102
RTVSPost2010PropOp44
 70
     0
102
RTVSPost2010Prop45
280
     0
102
RTVSPost2010PropOp45
 70
     0
102
RTVSPost2010Prop46
 90
       50
102
RTVSPost2010PropOp46
 70
     0
102
RTVSPost2010Prop47
 90
       50
102
RTVSPost2010PropOp47
 70
     0
102
RTVSPost2010Prop48
 90
       50
102
RTVSPost2010PropOp48
 70
     0
102
RTVSPost2010Prop49
280
     0
102
RTVSPost2010PropOp49
 70
     0
102
RTVSPost2010Prop50
 90
       50
102
RTVSPost2010PropOp50
 70
     0
102
RTVSPost2010Prop51ColorIndex
 90
      256
102
RTVSPost2010Prop51ColorRGB
 90
-16777216
102
RTVSPost2010PropOp51
 70
     0
102
RTVSPost2010Prop52
140
1.0
102
RTVSPost2010PropOp52
 70
     0
102
RTVSPost2010Prop53
 90
        2
102
RTVSPost2010PropOp53
 70
     0
102
RTVSPost2010Prop54
  1
strokes_ogs.tif
102
RTVSPost2010PropOp54
 70
     0
102
RTVSPost2010Prop55
280
     0
102
RTVSPost2010PropOp55
 70
     0
102
RTVSPost2010Prop56
140
1.0
102
RTVSPost2010PropOp56
 70
     0
102
RTVSPost2010Prop57
140
1.0
102
RTVSPost2010PropOp57
 70
     0
  0
XRECORD
  5
4FA
102
{ACAD_REACTORS
330
4F9
102
}
330
4F9
100
AcDbXrecord
280
     1
102
RTVSPropertyOp0
 70
     1
102
RTVSPropertyOp1
 70
     1
102
RTVSPropertyOp2
 70
     1
102
RTVSPropertyOp3
 70
     1
102
RTVSPropertyOp4
 70
     1
102
RTVSPropertyOp5
 70
     1
102
RTVSPropertyOp6
 70
     1
102
RTVSPropertyOp7
 70
     1
102
RTVSPropertyOp8
 70
     1
102
RTVSPropertyOp9
 70
     1
102
RTVSPropertyOp10
 70
     1
102
RTVSPropertyOp11
 70
     1
102
RTVSPropertyOp12
 70
     1
102
RTVSPropertyOp13
 70
     1
102
RTVSPropertyOp14
 70
     1
102
RTVSPropertyOp15
 70
     1
102
RTVSPropertyOp16
 70
     1
102
RTVSPropertyOp17
 70
     1
102
RTVSPropertyOp18
 70
     1
102
RTVSPropertyOp19
 70
     1
102
RTVSPropertyOp20
 70
     1
102
RTVSPropertyOp21
 70
     1
102
RTVSPropertyOp22
 70
     1
102
RTVSPropertyOp23
 70
     1
102
RTVSPropertyOp24
 70
     1
102
RTVSPropertyOp25
 70
     1
102
RTVSPropertyOp26
 70
     1
102
RTVSPropertyOp27
 70
     1
102
RTVSPropertyOp28
 70
     1
102
RTVSPropertyOp29
 70
     1
102
RTVSPropertyOp30
 70
     1
102
RTVSPropertyOp31
 70
     1
102
RTVSPropertyOp32
 70
     1
102
RTVSPropertyOp33
 70
     1
102
RTVSPropertyOp34
 70
     1
102
RTVSPropertyOp35
 70
     1
102
RTVSPropertyOp36
 70
     1
102
RTVSPropertyOp37
 70
     1
102
RTVSPropertyOp38
 70
     1
102
RTVSPropertyOp39
 70
     1
102
RTVSPropertyOp40
 70
     1
102
RTVSPropertyOp41
 70
     1
102
RTVSPropertyOp42
 70
     1
102
RTVSPropertyOp43
 70
     1
102
RTVSPropertyOp44
 70
     1
102
RTVSPropertyOp45
 70
     1
102
RTVSPropertyOp46
 70
     1
102
RTVSPropertyOp47
 70
     1
102
RTVSPropertyOp48
 70
     1
102
RTVSPropertyOp49
 70
     1
102
RTVSPropertyOp50
 70
     1
102
RTVSPropertyOp51
 70
     0
102
RTVSPropertyOp52
 70
     0
102
RTVSPropertyOp53
 70
     1
102
RTVSPropertyOp54
 70
     1
102
RTVSPropertyOp55
 70
     1
102
RTVSPropertyOp56
 70
     1
102
RTVSPropertyOp57
 70
     1
102
RTVSPost2010Prop28
280
     0
102
RTVSPost2010PropOp28
 70
     1
102
RTVSPost2010Prop29
280
     1
102
RTVSPost2010PropOp29
 70
     1
102
RTVSPost2010Prop30
280
     1
102
RTVSPost2010PropOp30
 70
     1
102
RTVSPost2010Prop31
280
     0
102
RTVSPost2010PropOp31
 70
     1
102
RTVSPost2010Prop32
280
     0
102
RTVSPost2010PropOp32
 70
     1
102
RTVSPost2010Prop33
280
     0
102
RTVSPost2010PropOp33
 70
     1
102
RTVSPost2010Prop34
280
     0
102
RTVSPost2010PropOp34
 70
     1
102
RTVSPost2010Prop35
280
     0
102
RTVSPost2010PropOp35
 70
     1
102
RTVSPost2010Prop36
280
     0
102
RTVSPost2010PropOp36
 70
     1
102
RTVSPost2010Prop37
 90
       50
102
RTVSPost2010PropOp37
 70
     1
102
RTVSPost2010Prop38
140
0.0
102
RTVSPost2010PropOp38
 70
     1
102
RTVSPost2010Prop39
140
1.0
102
RTVSPost2010PropOp39
 70
     1
102
RTVSPost2010Prop40
 90
        0
102
RTVSPost2010PropOp40
 70
     1
102
RTVSPost2010Prop41ColorIndex
 90
       18
102
RTVSPost2010Prop41ColorRGB
 90
        0
102
RTVSPost2010PropOp41
 70
     1
102
RTVSPost2010Prop42
 90
       50
102
RTVSPost2010PropOp42
 70
     1
102
RTVSPost2010Prop43
 90
        3
102
RTVSPost2010PropOp43
 70
     1
102
RTVSPost2010Prop44ColorIndex
 90
        5
102
RTVSPost2010Prop44ColorRGB
 90
      255
102
RTVSPost2010PropOp44
 70
     1
102
RTVSPost2010Prop45
280
     0
102
RTVSPost2010PropOp45
 70
     1
102
RTVSPost2010Prop46
 90
       50
102
RTVSPost2010PropOp46
 70
     1
102
RTVSPost2010Prop47
 90
       50
102
RTVSPost2010PropOp47
 70
     1
102
RTVSPost2010Prop48
 90
       50
102
RTVSPost2010PropOp48
 70
     1
102
RTVSPost2010Prop49
280
     0
102
RTVSPost2010PropOp49
 70
     1
102
RTVSPost2010Prop50
 90
       50
102
RTVSPost2010PropOp50
 70
     1
102
RTVSPost2010Prop51ColorIndex
 90
      256
102
RTVSPost2010Prop51ColorRGB
 90
-16777216
102
RTVSPost2010PropOp51
 70
     0
102
RTVSPost2010Prop52
140
1.0
102
RTVSPost2010PropOp52
 70
     0
102
RTVSPost2010Prop53
 90
        2
102
RTVSPost2010PropOp53
 70
     1
102
RTVSPost2010Prop54
  1
strokes_ogs.tif
102
RTVSPost2010PropOp54
 70
     1
102
RTVSPost2010Prop55
280
     0
102
RTVSPost2010PropOp55
 70
     1
102
RTVSPost2010Prop56
140
1.0
102
RTVSPost2010PropOp56
 70
     1
102
RTVSPost2010Prop57
140
1.0
102
RTVSPost2010PropOp57
 70
     1
  0
XRECORD
  5
4DE
102
{ACAD_REACTORS
330
4DD
102
}
330
4DD
100
AcDbXrecord
280
     1
102
RTVSPropertyOp0
 70
     1
102
RTVSPropertyOp1
 70
     1
102
RTVSPropertyOp2
 70
     1
102
RTVSPropertyOp3
 70
     1
102
RTVSPropertyOp4
 70
     1
102
RTVSPropertyOp5
 70
     1
102
RTVSPropertyOp6
 70
     1
102
RTVSPropertyOp7
 70
     1
102
RTVSPropertyOp8
 70
     1
102
RTVSPropertyOp9
 70
     1
102
RTVSPropertyOp10
 70
     1
102
RTVSPropertyOp11
 70
     1
102
RTVSPropertyOp12
 70
     1
102
RTVSPropertyOp13
 70
     1
102
RTVSPropertyOp14
 70
     1
102
RTVSPropertyOp15
 70
     1
102
RTVSPropertyOp16
 70
     1
102
RTVSPropertyOp17
 70
     1
102
RTVSPropertyOp18
 70
     1
102
RTVSPropertyOp19
 70
     1
102
RTVSPropertyOp20
 70
     1
102
RTVSPropertyOp21
 70
     1
102
RTVSPropertyOp22
 70
     1
102
RTVSPropertyOp23
 70
     1
102
RTVSPropertyOp24
 70
     1
102
RTVSPropertyOp25
 70
     1
102
RTVSPropertyOp26
 70
     1
102
RTVSPropertyOp27
 70
     1
102
RTVSPropertyOp28
 70
     1
102
RTVSPropertyOp29
 70
     1
102
RTVSPropertyOp30
 70
     1
102
RTVSPropertyOp31
 70
     1
102
RTVSPropertyOp32
 70
     1
102
RTVSPropertyOp33
 70
     1
102
RTVSPropertyOp34
 70
     1
102
RTVSPropertyOp35
 70
     1
102
RTVSPropertyOp36
 70
     1
102
RTVSPropertyOp37
 70
     1
102
RTVSPropertyOp38
 70
     1
102
RTVSPropertyOp39
 70
     1
102
RTVSPropertyOp40
 70
     1
102
RTVSPropertyOp41
 70
     1
102
RTVSPropertyOp42
 70
     1
102
RTVSPropertyOp43
 70
     1
102
RTVSPropertyOp44
 70
     1
102
RTVSPropertyOp45
 70
     1
102
RTVSPropertyOp46
 70
     1
102
RTVSPropertyOp47
 70
     1
102
RTVSPropertyOp48
 70
     1
102
RTVSPropertyOp49
 70
     1
102
RTVSPropertyOp50
 70
     1
102
RTVSPropertyOp51
 70
     0
102
RTVSPropertyOp52
 70
     0
102
RTVSPropertyOp53
 70
     1
102
RTVSPropertyOp54
 70
     1
102
RTVSPropertyOp55
 70
     1
102
RTVSPropertyOp56
 70
     1
102
RTVSPropertyOp57
 70
     1
102
RTVSPost2010Prop28
280
     0
102
RTVSPost2010PropOp28
 70
     1
102
RTVSPost2010Prop29
280
     1
102
RTVSPost2010PropOp29
 70
     1
102
RTVSPost2010Prop30
280
     1
102
RTVSPost2010PropOp30
 70
     1
102
RTVSPost2010Prop31
280
     0
102
RTVSPost2010PropOp31
 70
     1
102
RTVSPost2010Prop32
280
     0
102
RTVSPost2010PropOp32
 70
     1
102
RTVSPost2010Prop33
280
     0
102
RTVSPost2010PropOp33
 70
     1
102
RTVSPost2010Prop34
280
     0
102
RTVSPost2010PropOp34
 70
     1
102
RTVSPost2010Prop35
280
     0
102
RTVSPost2010PropOp35
 70
     1
102
RTVSPost2010Prop36
280
     0
102
RTVSPost2010PropOp36
 70
     1
102
RTVSPost2010Prop37
 90
       50
102
RTVSPost2010PropOp37
 70
     1
102
RTVSPost2010Prop38
140
0.0
102
RTVSPost2010PropOp38
 70
     1
102
RTVSPost2010Prop39
140
1.0
102
RTVSPost2010PropOp39
 70
     1
102
RTVSPost2010Prop40
 90
        0
102
RTVSPost2010PropOp40
 70
     1
102
RTVSPost2010Prop41ColorIndex
 90
       18
102
RTVSPost2010Prop41ColorRGB
 90
        0
102
RTVSPost2010PropOp41
 70
     1
102
RTVSPost2010Prop42
 90
       50
102
RTVSPost2010PropOp42
 70
     1
102
RTVSPost2010Prop43
 90
        3
102
RTVSPost2010PropOp43
 70
     1
102
RTVSPost2010Prop44ColorIndex
 90
        5
102
RTVSPost2010Prop44ColorRGB
 90
      255
102
RTVSPost2010PropOp44
 70
     1
102
RTVSPost2010Prop45
280
     0
102
RTVSPost2010PropOp45
 70
     1
102
RTVSPost2010Prop46
 90
       50
102
RTVSPost2010PropOp46
 70
     1
102
RTVSPost2010Prop47
 90
       50
102
RTVSPost2010PropOp47
 70
     1
102
RTVSPost2010Prop48
 90
       50
102
RTVSPost2010PropOp48
 70
     1
102
RTVSPost2010Prop49
280
     0
102
RTVSPost2010PropOp49
 70
     1
102
RTVSPost2010Prop50
 90
       50
102
RTVSPost2010PropOp50
 70
     1
102
RTVSPost2010Prop51ColorIndex
 90
      256
102
RTVSPost2010Prop51ColorRGB
 90
-16777216
102
RTVSPost2010PropOp51
 70
     0
102
RTVSPost2010Prop52
140
1.0
102
RTVSPost2010PropOp52
 70
     0
102
RTVSPost2010Prop53
 90
        2
102
RTVSPost2010PropOp53
 70
     1
102
RTVSPost2010Prop54
  1
strokes_ogs.tif
102
RTVSPost2010PropOp54
 70
     1
102
RTVSPost2010Prop55
280
     0
102
RTVSPost2010PropOp55
 70
     1
102
RTVSPost2010Prop56
140
1.0
102
RTVSPost2010PropOp56
 70
     1
102
RTVSPost2010Prop57
140
1.0
102
RTVSPost2010PropOp57
 70
     1
  0
XRECORD
  5
4E0
102
{ACAD_REACTORS
330
4DF
102
}
330
4DF
100
AcDbXrecord
280
     1
102
RTVSPropertyOp0
 70
     1
102
RTVSPropertyOp1
 70
     1
102
RTVSPropertyOp2
 70
     1
102
RTVSPropertyOp3
 70
     1
102
RTVSPropertyOp4
 70
     1
102
RTVSPropertyOp5
 70
     1
102
RTVSPropertyOp6
 70
     1
102
RTVSPropertyOp7
 70
     1
102
RTVSPropertyOp8
 70
     1
102
RTVSPropertyOp9
 70
     1
102
RTVSPropertyOp10
 70
     1
102
RTVSPropertyOp11
 70
     1
102
RTVSPropertyOp12
 70
     1
102
RTVSPropertyOp13
 70
     1
102
RTVSPropertyOp14
 70
     1
102
RTVSPropertyOp15
 70
     1
102
RTVSPropertyOp16
 70
     1
102
RTVSPropertyOp17
 70
     1
102
RTVSPropertyOp18
 70
     1
102
RTVSPropertyOp19
 70
     1
102
RTVSPropertyOp20
 70
     1
102
RTVSPropertyOp21
 70
     1
102
RTVSPropertyOp22
 70
     1
102
RTVSPropertyOp23
 70
     1
102
RTVSPropertyOp24
 70
     1
102
RTVSPropertyOp25
 70
     1
102
RTVSPropertyOp26
 70
     1
102
RTVSPropertyOp27
 70
     1
102
RTVSPropertyOp28
 70
     1
102
RTVSPropertyOp29
 70
     1
102
RTVSPropertyOp30
 70
     1
102
RTVSPropertyOp31
 70
     1
102
RTVSPropertyOp32
 70
     1
102
RTVSPropertyOp33
 70
     1
102
RTVSPropertyOp34
 70
     1
102
RTVSPropertyOp35
 70
     1
102
RTVSPropertyOp36
 70
     1
102
RTVSPropertyOp37
 70
     1
102
RTVSPropertyOp38
 70
     1
102
RTVSPropertyOp39
 70
     1
102
RTVSPropertyOp40
 70
     1
102
RTVSPropertyOp41
 70
     1
102
RTVSPropertyOp42
 70
     1
102
RTVSPropertyOp43
 70
     1
102
RTVSPropertyOp44
 70
     1
102
RTVSPropertyOp45
 70
     1
102
RTVSPropertyOp46
 70
     1
102
RTVSPropertyOp47
 70
     1
102
RTVSPropertyOp48
 70
     1
102
RTVSPropertyOp49
 70
     1
102
RTVSPropertyOp50
 70
     1
102
RTVSPropertyOp51
 70
     0
102
RTVSPropertyOp52
 70
     0
102
RTVSPropertyOp53
 70
     1
102
RTVSPropertyOp54
 70
     1
102
RTVSPropertyOp55
 70
     1
102
RTVSPropertyOp56
 70
     1
102
RTVSPropertyOp57
 70
     1
102
RTVSPost2010Prop28
280
     0
102
RTVSPost2010PropOp28
 70
     1
102
RTVSPost2010Prop29
280
     1
102
RTVSPost2010PropOp29
 70
     1
102
RTVSPost2010Prop30
280
     1
102
RTVSPost2010PropOp30
 70
     1
102
RTVSPost2010Prop31
280
     0
102
RTVSPost2010PropOp31
 70
     1
102
RTVSPost2010Prop32
280
     0
102
RTVSPost2010PropOp32
 70
     1
102
RTVSPost2010Prop33
280
     0
102
RTVSPost2010PropOp33
 70
     1
102
RTVSPost2010Prop34
280
     0
102
RTVSPost2010PropOp34
 70
     1
102
RTVSPost2010Prop35
280
     0
102
RTVSPost2010PropOp35
 70
     1
102
RTVSPost2010Prop36
280
     0
102
RTVSPost2010PropOp36
 70
     1
102
RTVSPost2010Prop37
 90
       50
102
RTVSPost2010PropOp37
 70
     1
102
RTVSPost2010Prop38
140
0.0
102
RTVSPost2010PropOp38
 70
     1
102
RTVSPost2010Prop39
140
1.0
102
RTVSPost2010PropOp39
 70
     1
102
RTVSPost2010Prop40
 90
        0
102
RTVSPost2010PropOp40
 70
     1
102
RTVSPost2010Prop41ColorIndex
 90
       18
102
RTVSPost2010Prop41ColorRGB
 90
        0
102
RTVSPost2010PropOp41
 70
     1
102
RTVSPost2010Prop42
 90
       50
102
RTVSPost2010PropOp42
 70
     1
102
RTVSPost2010Prop43
 90
        3
102
RTVSPost2010PropOp43
 70
     1
102
RTVSPost2010Prop44ColorIndex
 90
        5
102
RTVSPost2010Prop44ColorRGB
 90
      255
102
RTVSPost2010PropOp44
 70
     1
102
RTVSPost2010Prop45
280
     0
102
RTVSPost2010PropOp45
 70
     1
102
RTVSPost2010Prop46
 90
       50
102
RTVSPost2010PropOp46
 70
     1
102
RTVSPost2010Prop47
 90
       50
102
RTVSPost2010PropOp47
 70
     1
102
RTVSPost2010Prop48
 90
       50
102
RTVSPost2010PropOp48
 70
     1
102
RTVSPost2010Prop49
280
     0
102
RTVSPost2010PropOp49
 70
     1
102
RTVSPost2010Prop50
 90
       50
102
RTVSPost2010PropOp50
 70
     1
102
RTVSPost2010Prop51ColorIndex
 90
      256
102
RTVSPost2010Prop51ColorRGB
 90
-16777216
102
RTVSPost2010PropOp51
 70
     0
102
RTVSPost2010Prop52
140
1.0
102
RTVSPost2010PropOp52
 70
     0
102
RTVSPost2010Prop53
 90
        2
102
RTVSPost2010PropOp53
 70
     1
102
RTVSPost2010Prop54
  1
strokes_ogs.tif
102
RTVSPost2010PropOp54
 70
     1
102
RTVSPost2010Prop55
280
     0
102
RTVSPost2010PropOp55
 70
     1
102
RTVSPost2010Prop56
140
1.0
102
RTVSPost2010PropOp56
 70
     1
102
RTVSPost2010Prop57
140
1.0
102
RTVSPost2010PropOp57
 70
     1
  0
XRECORD
  5
4E2
102
{ACAD_REACTORS
330
4E1
102
}
330
4E1
100
AcDbXrecord
280
     1
102
RTVSPropertyOp0
 70
     1
102
RTVSPropertyOp1
 70
     1
102
RTVSPropertyOp2
 70
     1
102
RTVSPropertyOp3
 70
     1
102
RTVSPropertyOp4
 70
     1
102
RTVSPropertyOp5
 70
     1
102
RTVSPropertyOp6
 70
     1
102
RTVSPropertyOp7
 70
     1
102
RTVSPropertyOp8
 70
     1
102
RTVSPropertyOp9
 70
     1
102
RTVSPropertyOp10
 70
     1
102
RTVSPropertyOp11
 70
     1
102
RTVSPropertyOp12
 70
     1
102
RTVSPropertyOp13
 70
     1
102
RTVSPropertyOp14
 70
     1
102
RTVSPropertyOp15
 70
     1
102
RTVSPropertyOp16
 70
     1
102
RTVSPropertyOp17
 70
     1
102
RTVSPropertyOp18
 70
     1
102
RTVSPropertyOp19
 70
     1
102
RTVSPropertyOp20
 70
     1
102
RTVSPropertyOp21
 70
     1
102
RTVSPropertyOp22
 70
     1
102
RTVSPropertyOp23
 70
     1
102
RTVSPropertyOp24
 70
     1
102
RTVSPropertyOp25
 70
     1
102
RTVSPropertyOp26
 70
     1
102
RTVSPropertyOp27
 70
     1
102
RTVSPropertyOp28
 70
     1
102
RTVSPropertyOp29
 70
     1
102
RTVSPropertyOp30
 70
     1
102
RTVSPropertyOp31
 70
     1
102
RTVSPropertyOp32
 70
     1
102
RTVSPropertyOp33
 70
     1
102
RTVSPropertyOp34
 70
     1
102
RTVSPropertyOp35
 70
     1
102
RTVSPropertyOp36
 70
     1
102
RTVSPropertyOp37
 70
     1
102
RTVSPropertyOp38
 70
     1
102
RTVSPropertyOp39
 70
     1
102
RTVSPropertyOp40
 70
     1
102
RTVSPropertyOp41
 70
     1
102
RTVSPropertyOp42
 70
     1
102
RTVSPropertyOp43
 70
     1
102
RTVSPropertyOp44
 70
     1
102
RTVSPropertyOp45
 70
     1
102
RTVSPropertyOp46
 70
     1
102
RTVSPropertyOp47
 70
     1
102
RTVSPropertyOp48
 70
     1
102
RTVSPropertyOp49
 70
     1
102
RTVSPropertyOp50
 70
     1
102
RTVSPropertyOp51
 70
     0
102
RTVSPropertyOp52
 70
     0
102
RTVSPropertyOp53
 70
     1
102
RTVSPropertyOp54
 70
     1
102
RTVSPropertyOp55
 70
     1
102
RTVSPropertyOp56
 70
     1
102
RTVSPropertyOp57
 70
     1
102
RTVSPost2010Prop28
280
     0
102
RTVSPost2010PropOp28
 70
     1
102
RTVSPost2010Prop29
280
     1
102
RTVSPost2010PropOp29
 70
     1
102
RTVSPost2010Prop30
280
     1
102
RTVSPost2010PropOp30
 70
     1
102
RTVSPost2010Prop31
280
     0
102
RTVSPost2010PropOp31
 70
     1
102
RTVSPost2010Prop32
280
     0
102
RTVSPost2010PropOp32
 70
     1
102
RTVSPost2010Prop33
280
     0
102
RTVSPost2010PropOp33
 70
     1
102
RTVSPost2010Prop34
280
     0
102
RTVSPost2010PropOp34
 70
     1
102
RTVSPost2010Prop35
280
     0
102
RTVSPost2010PropOp35
 70
     1
102
RTVSPost2010Prop36
280
     0
102
RTVSPost2010PropOp36
 70
     1
102
RTVSPost2010Prop37
 90
       50
102
RTVSPost2010PropOp37
 70
     1
102
RTVSPost2010Prop38
140
0.0
102
RTVSPost2010PropOp38
 70
     1
102
RTVSPost2010Prop39
140
1.0
102
RTVSPost2010PropOp39
 70
     1
102
RTVSPost2010Prop40
 90
        0
102
RTVSPost2010PropOp40
 70
     1
102
RTVSPost2010Prop41ColorIndex
 90
       18
102
RTVSPost2010Prop41ColorRGB
 90
        0
102
RTVSPost2010PropOp41
 70
     1
102
RTVSPost2010Prop42
 90
       50
102
RTVSPost2010PropOp42
 70
     1
102
RTVSPost2010Prop43
 90
        3
102
RTVSPost2010PropOp43
 70
     1
102
RTVSPost2010Prop44ColorIndex
 90
        5
102
RTVSPost2010Prop44ColorRGB
 90
      255
102
RTVSPost2010PropOp44
 70
     1
102
RTVSPost2010Prop45
280
     0
102
RTVSPost2010PropOp45
 70
     1
102
RTVSPost2010Prop46
 90
       50
102
RTVSPost2010PropOp46
 70
     1
102
RTVSPost2010Prop47
 90
       50
102
RTVSPost2010PropOp47
 70
     1
102
RTVSPost2010Prop48
 90
       50
102
RTVSPost2010PropOp48
 70
     1
102
RTVSPost2010Prop49
280
     0
102
RTVSPost2010PropOp49
 70
     1
102
RTVSPost2010Prop50
 90
       50
102
RTVSPost2010PropOp50
 70
     1
102
RTVSPost2010Prop51ColorIndex
 90
      256
102
RTVSPost2010Prop51ColorRGB
 90
-16777216
102
RTVSPost2010PropOp51
 70
     0
102
RTVSPost2010Prop52
140
1.0
102
RTVSPost2010PropOp52
 70
     0
102
RTVSPost2010Prop53
 90
        2
102
RTVSPost2010PropOp53
 70
     1
102
RTVSPost2010Prop54
  1
strokes_ogs.tif
102
RTVSPost2010PropOp54
 70
     1
102
RTVSPost2010Prop55
280
     0
102
RTVSPost2010PropOp55
 70
     1
102
RTVSPost2010Prop56
140
1.0
102
RTVSPost2010PropOp56
 70
     1
102
RTVSPost2010Prop57
140
1.0
102
RTVSPost2010PropOp57
 70
     1
  0
XRECORD
  5
4E4
102
{ACAD_REACTORS
330
4E3
102
}
330
4E3
100
AcDbXrecord
280
     1
102
RTVSPropertyOp0
 70
     1
102
RTVSPropertyOp1
 70
     1
102
RTVSPropertyOp2
 70
     1
102
RTVSPropertyOp3
 70
     1
102
RTVSPropertyOp4
 70
     1
102
RTVSPropertyOp5
 70
     1
102
RTVSPropertyOp6
 70
     1
102
RTVSPropertyOp7
 70
     1
102
RTVSPropertyOp8
 70
     1
102
RTVSPropertyOp9
 70
     1
102
RTVSPropertyOp10
 70
     1
102
RTVSPropertyOp11
 70
     1
102
RTVSPropertyOp12
 70
     1
102
RTVSPropertyOp13
 70
     1
102
RTVSPropertyOp14
 70
     1
102
RTVSPropertyOp15
 70
     1
102
RTVSPropertyOp16
 70
     1
102
RTVSPropertyOp17
 70
     1
102
RTVSPropertyOp18
 70
     1
102
RTVSPropertyOp19
 70
     1
102
RTVSPropertyOp20
 70
     1
102
RTVSPropertyOp21
 70
     1
102
RTVSPropertyOp22
 70
     1
102
RTVSPropertyOp23
 70
     1
102
RTVSPropertyOp24
 70
     1
102
RTVSPropertyOp25
 70
     1
102
RTVSPropertyOp26
 70
     1
102
RTVSPropertyOp27
 70
     1
102
RTVSPropertyOp28
 70
     1
102
RTVSPropertyOp29
 70
     1
102
RTVSPropertyOp30
 70
     1
102
RTVSPropertyOp31
 70
     1
102
RTVSPropertyOp32
 70
     1
102
RTVSPropertyOp33
 70
     1
102
RTVSPropertyOp34
 70
     1
102
RTVSPropertyOp35
 70
     1
102
RTVSPropertyOp36
 70
     1
102
RTVSPropertyOp37
 70
     1
102
RTVSPropertyOp38
 70
     1
102
RTVSPropertyOp39
 70
     1
102
RTVSPropertyOp40
 70
     1
102
RTVSPropertyOp41
 70
     1
102
RTVSPropertyOp42
 70
     1
102
RTVSPropertyOp43
 70
     1
102
RTVSPropertyOp44
 70
     1
102
RTVSPropertyOp45
 70
     1
102
RTVSPropertyOp46
 70
     1
102
RTVSPropertyOp47
 70
     1
102
RTVSPropertyOp48
 70
     1
102
RTVSPropertyOp49
 70
     1
102
RTVSPropertyOp50
 70
     1
102
RTVSPropertyOp51
 70
     0
102
RTVSPropertyOp52
 70
     0
102
RTVSPropertyOp53
 70
     1
102
RTVSPropertyOp54
 70
     1
102
RTVSPropertyOp55
 70
     1
102
RTVSPropertyOp56
 70
     1
102
RTVSPropertyOp57
 70
     1
102
RTVSPost2010Prop28
280
     0
102
RTVSPost2010PropOp28
 70
     1
102
RTVSPost2010Prop29
280
     1
102
RTVSPost2010PropOp29
 70
     1
102
RTVSPost2010Prop30
280
     1
102
RTVSPost2010PropOp30
 70
     1
102
RTVSPost2010Prop31
280
     0
102
RTVSPost2010PropOp31
 70
     1
102
RTVSPost2010Prop32
280
     0
102
RTVSPost2010PropOp32
 70
     1
102
RTVSPost2010Prop33
280
     0
102
RTVSPost2010PropOp33
 70
     1
102
RTVSPost2010Prop34
280
     0
102
RTVSPost2010PropOp34
 70
     1
102
RTVSPost2010Prop35
280
     0
102
RTVSPost2010PropOp35
 70
     1
102
RTVSPost2010Prop36
280
     0
102
RTVSPost2010PropOp36
 70
     1
102
RTVSPost2010Prop37
 90
       50
102
RTVSPost2010PropOp37
 70
     1
102
RTVSPost2010Prop38
140
0.0
102
RTVSPost2010PropOp38
 70
     1
102
RTVSPost2010Prop39
140
1.0
102
RTVSPost2010PropOp39
 70
     1
102
RTVSPost2010Prop40
 90
        0
102
RTVSPost2010PropOp40
 70
     1
102
RTVSPost2010Prop41ColorIndex
 90
       18
102
RTVSPost2010Prop41ColorRGB
 90
        0
102
RTVSPost2010PropOp41
 70
     1
102
RTVSPost2010Prop42
 90
       50
102
RTVSPost2010PropOp42
 70
     1
102
RTVSPost2010Prop43
 90
        3
102
RTVSPost2010PropOp43
 70
     1
102
RTVSPost2010Prop44ColorIndex
 90
        5
102
RTVSPost2010Prop44ColorRGB
 90
      255
102
RTVSPost2010PropOp44
 70
     1
102
RTVSPost2010Prop45
280
     0
102
RTVSPost2010PropOp45
 70
     1
102
RTVSPost2010Prop46
 90
       50
102
RTVSPost2010PropOp46
 70
     1
102
RTVSPost2010Prop47
 90
       50
102
RTVSPost2010PropOp47
 70
     1
102
RTVSPost2010Prop48
 90
       50
102
RTVSPost2010PropOp48
 70
     1
102
RTVSPost2010Prop49
280
     0
102
RTVSPost2010PropOp49
 70
     1
102
RTVSPost2010Prop50
 90
       50
102
RTVSPost2010PropOp50
 70
     1
102
RTVSPost2010Prop51ColorIndex
 90
      256
102
RTVSPost2010Prop51ColorRGB
 90
-16777216
102
RTVSPost2010PropOp51
 70
     0
102
RTVSPost2010Prop52
140
1.0
102
RTVSPost2010PropOp52
 70
     0
102
RTVSPost2010Prop53
 90
        2
102
RTVSPost2010PropOp53
 70
     1
102
RTVSPost2010Prop54
  1
strokes_ogs.tif
102
RTVSPost2010PropOp54
 70
     1
102
RTVSPost2010Prop55
280
     0
102
RTVSPost2010PropOp55
 70
     1
102
RTVSPost2010Prop56
140
1.0
102
RTVSPost2010PropOp56
 70
     1
102
RTVSPost2010Prop57
140
1.0
102
RTVSPost2010PropOp57
 70
     1
  0
XRECORD
  5
4EA
102
{ACAD_REACTORS
330
4E9
102
}
330
4E9
100
AcDbXrecord
280
     1
102
RTVSPropertyOp0
 70
     1
102
RTVSPropertyOp1
 70
     1
102
RTVSPropertyOp2
 70
     1
102
RTVSPropertyOp3
 70
     1
102
RTVSPropertyOp4
 70
     1
102
RTVSPropertyOp5
 70
     1
102
RTVSPropertyOp6
 70
     1
102
RTVSPropertyOp7
 70
     1
102
RTVSPropertyOp8
 70
     1
102
RTVSPropertyOp9
 70
     1
102
RTVSPropertyOp10
 70
     1
102
RTVSPropertyOp11
 70
     1
102
RTVSPropertyOp12
 70
     1
102
RTVSPropertyOp13
 70
     1
102
RTVSPropertyOp14
 70
     1
102
RTVSPropertyOp15
 70
     1
102
RTVSPropertyOp16
 70
     1
102
RTVSPropertyOp17
 70
     1
102
RTVSPropertyOp18
 70
     1
102
RTVSPropertyOp19
 70
     1
102
RTVSPropertyOp20
 70
     1
102
RTVSPropertyOp21
 70
     1
102
RTVSPropertyOp22
 70
     1
102
RTVSPropertyOp23
 70
     1
102
RTVSPropertyOp24
 70
     1
102
RTVSPropertyOp25
 70
     1
102
RTVSPropertyOp26
 70
     1
102
RTVSPropertyOp27
 70
     1
102
RTVSPropertyOp28
 70
     1
102
RTVSPropertyOp29
 70
     1
102
RTVSPropertyOp30
 70
     1
102
RTVSPropertyOp31
 70
     1
102
RTVSPropertyOp32
 70
     1
102
RTVSPropertyOp33
 70
     1
102
RTVSPropertyOp34
 70
     1
102
RTVSPropertyOp35
 70
     1
102
RTVSPropertyOp36
 70
     1
102
RTVSPropertyOp37
 70
     1
102
RTVSPropertyOp38
 70
     1
102
RTVSPropertyOp39
 70
     1
102
RTVSPropertyOp40
 70
     1
102
RTVSPropertyOp41
 70
     1
102
RTVSPropertyOp42
 70
     1
102
RTVSPropertyOp43
 70
     1
102
RTVSPropertyOp44
 70
     1
102
RTVSPropertyOp45
 70
     1
102
RTVSPropertyOp46
 70
     1
102
RTVSPropertyOp47
 70
     1
102
RTVSPropertyOp48
 70
     1
102
RTVSPropertyOp49
 70
     1
102
RTVSPropertyOp50
 70
     1
102
RTVSPropertyOp51
 70
     0
102
RTVSPropertyOp52
 70
     0
102
RTVSPropertyOp53
 70
     1
102
RTVSPropertyOp54
 70
     1
102
RTVSPropertyOp55
 70
     1
102
RTVSPropertyOp56
 70
     1
102
RTVSPropertyOp57
 70
     1
102
RTVSPost2010Prop28
280
     0
102
RTVSPost2010PropOp28
 70
     1
102
RTVSPost2010Prop29
280
     1
102
RTVSPost2010PropOp29
 70
     1
102
RTVSPost2010Prop30
280
     1
102
RTVSPost2010PropOp30
 70
     1
102
RTVSPost2010Prop31
280
     0
102
RTVSPost2010PropOp31
 70
     1
102
RTVSPost2010Prop32
280
     0
102
RTVSPost2010PropOp32
 70
     1
102
RTVSPost2010Prop33
280
     0
102
RTVSPost2010PropOp33
 70
     1
102
RTVSPost2010Prop34
280
     0
102
RTVSPost2010PropOp34
 70
     1
102
RTVSPost2010Prop35
280
     0
102
RTVSPost2010PropOp35
 70
     1
102
RTVSPost2010Prop36
280
     0
102
RTVSPost2010PropOp36
 70
     1
102
RTVSPost2010Prop37
 90
       50
102
RTVSPost2010PropOp37
 70
     1
102
RTVSPost2010Prop38
140
0.0
102
RTVSPost2010PropOp38
 70
     1
102
RTVSPost2010Prop39
140
1.0
102
RTVSPost2010PropOp39
 70
     1
102
RTVSPost2010Prop40
 90
        0
102
RTVSPost2010PropOp40
 70
     1
102
RTVSPost2010Prop41ColorIndex
 90
       18
102
RTVSPost2010Prop41ColorRGB
 90
        0
102
RTVSPost2010PropOp41
 70
     1
102
RTVSPost2010Prop42
 90
       50
102
RTVSPost2010PropOp42
 70
     1
102
RTVSPost2010Prop43
 90
        3
102
RTVSPost2010PropOp43
 70
     1
102
RTVSPost2010Prop44ColorIndex
 90
        5
102
RTVSPost2010Prop44ColorRGB
 90
      255
102
RTVSPost2010PropOp44
 70
     1
102
RTVSPost2010Prop45
280
     0
102
RTVSPost2010PropOp45
 70
     1
102
RTVSPost2010Prop46
 90
       50
102
RTVSPost2010PropOp46
 70
     1
102
RTVSPost2010Prop47
 90
       50
102
RTVSPost2010PropOp47
 70
     1
102
RTVSPost2010Prop48
 90
       50
102
RTVSPost2010PropOp48
 70
     1
102
RTVSPost2010Prop49
280
     0
102
RTVSPost2010PropOp49
 70
     1
102
RTVSPost2010Prop50
 90
       50
102
RTVSPost2010PropOp50
 70
     1
102
RTVSPost2010Prop51ColorIndex
 90
      256
102
RTVSPost2010Prop51ColorRGB
 90
-16777216
102
RTVSPost2010PropOp51
 70
     0
102
RTVSPost2010Prop52
140
1.0
102
RTVSPost2010PropOp52
 70
     0
102
RTVSPost2010Prop53
 90
        2
102
RTVSPost2010PropOp53
 70
     1
102
RTVSPost2010Prop54
  1
strokes_ogs.tif
102
RTVSPost2010PropOp54
 70
     1
102
RTVSPost2010Prop55
280
     0
102
RTVSPost2010PropOp55
 70
     1
102
RTVSPost2010Prop56
140
1.0
102
RTVSPost2010PropOp56
 70
     1
102
RTVSPost2010Prop57
140
1.0
102
RTVSPost2010PropOp57
 70
     1
  0
XRECORD
  5
4FE
102
{ACAD_REACTORS
330
4FD
102
}
330
4FD
100
AcDbXrecord
280
     1
102
RTVSPropertyOp0
 70
     0
102
RTVSPropertyOp1
 70
     0
102
RTVSPropertyOp2
 70
     0
102
RTVSPropertyOp3
 70
     0
102
RTVSPropertyOp4
 70
     0
102
RTVSPropertyOp5
 70
     0
102
RTVSPropertyOp6
 70
     0
102
RTVSPropertyOp7
 70
     0
102
RTVSPropertyOp8
 70
     0
102
RTVSPropertyOp9
 70
     0
102
RTVSPropertyOp10
 70
     0
102
RTVSPropertyOp11
 70
     0
102
RTVSPropertyOp12
 70
     0
102
RTVSPropertyOp13
 70
     0
102
RTVSPropertyOp14
 70
     2
102
RTVSPropertyOp15
 70
     0
102
RTVSPropertyOp16
 70
     0
102
RTVSPropertyOp17
 70
     0
102
RTVSPropertyOp18
 70
     0
102
RTVSPropertyOp19
 70
     0
102
RTVSPropertyOp20
 70
     0
102
RTVSPropertyOp21
 70
     0
102
RTVSPropertyOp22
 70
     0
102
RTVSPropertyOp23
 70
     0
102
RTVSPropertyOp24
 70
     0
102
RTVSPropertyOp25
 70
     0
102
RTVSPropertyOp26
 70
     0
102
RTVSPropertyOp27
 70
     0
102
RTVSPropertyOp28
 70
     0
102
RTVSPropertyOp29
 70
     0
102
RTVSPropertyOp30
 70
     0
102
RTVSPropertyOp31
 70
     0
102
RTVSPropertyOp32
 70
     0
102
RTVSPropertyOp33
 70
     0
102
RTVSPropertyOp34
 70
     0
102
RTVSPropertyOp35
 70
     0
102
RTVSPropertyOp36
 70
     0
102
RTVSPropertyOp37
 70
     0
102
RTVSPropertyOp38
 70
     0
102
RTVSPropertyOp39
 70
     0
102
RTVSPropertyOp40
 70
     0
102
RTVSPropertyOp41
 70
     0
102
RTVSPropertyOp42
 70
     0
102
RTVSPropertyOp43
 70
     0
102
RTVSPropertyOp44
 70
     0
102
RTVSPropertyOp45
 70
     0
102
RTVSPropertyOp46
 70
     0
102
RTVSPropertyOp47
 70
     0
102
RTVSPropertyOp48
 70
     0
102
RTVSPropertyOp49
 70
     0
102
RTVSPropertyOp50
 70
     0
102
RTVSPropertyOp51
 70
     0
102
RTVSPropertyOp52
 70
     0
102
RTVSPropertyOp53
 70
     0
102
RTVSPropertyOp54
 70
     0
102
RTVSPropertyOp55
 70
     0
102
RTVSPropertyOp56
 70
     0
102
RTVSPropertyOp57
 70
     0
102
RTVSPost2010Prop28
280
     0
102
RTVSPost2010PropOp28
 70
     0
102
RTVSPost2010Prop29
280
     1
102
RTVSPost2010PropOp29
 70
     0
102
RTVSPost2010Prop30
280
     1
102
RTVSPost2010PropOp30
 70
     0
102
RTVSPost2010Prop31
280
     0
102
RTVSPost2010PropOp31
 70
     0
102
RTVSPost2010Prop32
280
     0
102
RTVSPost2010PropOp32
 70
     0
102
RTVSPost2010Prop33
280
     0
102
RTVSPost2010PropOp33
 70
     0
102
RTVSPost2010Prop34
280
     0
102
RTVSPost2010PropOp34
 70
     0
102
RTVSPost2010Prop35
280
     0
102
RTVSPost2010PropOp35
 70
     0
102
RTVSPost2010Prop36
280
     0
102
RTVSPost2010PropOp36
 70
     0
102
RTVSPost2010Prop37
 90
       50
102
RTVSPost2010PropOp37
 70
     0
102
RTVSPost2010Prop38
140
0.0
102
RTVSPost2010PropOp38
 70
     0
102
RTVSPost2010Prop39
140
1.0
102
RTVSPost2010PropOp39
 70
     0
102
RTVSPost2010Prop40
 90
        0
102
RTVSPost2010PropOp40
 70
     0
102
RTVSPost2010Prop41ColorIndex
 90
       18
102
RTVSPost2010Prop41ColorRGB
 90
        0
102
RTVSPost2010PropOp41
 70
     0
102
RTVSPost2010Prop42
 90
       50
102
RTVSPost2010PropOp42
 70
     0
102
RTVSPost2010Prop43
 90
        3
102
RTVSPost2010PropOp43
 70
     0
102
RTVSPost2010Prop44ColorIndex
 90
        5
102
RTVSPost2010Prop44ColorRGB
 90
      255
102
RTVSPost2010PropOp44
 70
     0
102
RTVSPost2010Prop45
280
     0
102
RTVSPost2010PropOp45
 70
     0
102
RTVSPost2010Prop46
 90
       50
102
RTVSPost2010PropOp46
 70
     0
102
RTVSPost2010Prop47
 90
       50
102
RTVSPost2010PropOp47
 70
     0
102
RTVSPost2010Prop48
 90
       50
102
RTVSPost2010PropOp48
 70
     0
102
RTVSPost2010Prop49
280
     0
102
RTVSPost2010PropOp49
 70
     0
102
RTVSPost2010Prop50
 90
       50
102
RTVSPost2010PropOp50
 70
     0
102
RTVSPost2010Prop51ColorIndex
 90
      256
102
RTVSPost2010Prop51ColorRGB
 90
-16777216
102
RTVSPost2010PropOp51
 70
     0
102
RTVSPost2010Prop52
140
1.0
102
RTVSPost2010PropOp52
 70
     0
102
RTVSPost2010Prop53
 90
        2
102
RTVSPost2010PropOp53
 70
     0
102
RTVSPost2010Prop54
  1
strokes_ogs.tif
102
RTVSPost2010PropOp54
 70
     0
102
RTVSPost2010Prop55
280
     0
102
RTVSPost2010PropOp55
 70
     0
102
RTVSPost2010Prop56
140
1.0
102
RTVSPost2010PropOp56
 70
     0
102
RTVSPost2010Prop57
140
1.0
102
RTVSPost2010PropOp57
 70
     0
  0
XRECORD
  5
4F8
102
{ACAD_REACTORS
330
4F7
102
}
330
4F7
100
AcDbXrecord
280
     1
102
RTVSPropertyOp0
 70
     1
102
RTVSPropertyOp1
 70
     1
102
RTVSPropertyOp2
 70
     1
102
RTVSPropertyOp3
 70
     1
102
RTVSPropertyOp4
 70
     1
102
RTVSPropertyOp5
 70
     1
102
RTVSPropertyOp6
 70
     1
102
RTVSPropertyOp7
 70
     1
102
RTVSPropertyOp8
 70
     1
102
RTVSPropertyOp9
 70
     1
102
RTVSPropertyOp10
 70
     1
102
RTVSPropertyOp11
 70
     1
102
RTVSPropertyOp12
 70
     1
102
RTVSPropertyOp13
 70
     1
102
RTVSPropertyOp14
 70
     1
102
RTVSPropertyOp15
 70
     1
102
RTVSPropertyOp16
 70
     1
102
RTVSPropertyOp17
 70
     1
102
RTVSPropertyOp18
 70
     1
102
RTVSPropertyOp19
 70
     1
102
RTVSPropertyOp20
 70
     1
102
RTVSPropertyOp21
 70
     1
102
RTVSPropertyOp22
 70
     1
102
RTVSPropertyOp23
 70
     1
102
RTVSPropertyOp24
 70
     1
102
RTVSPropertyOp25
 70
     1
102
RTVSPropertyOp26
 70
     1
102
RTVSPropertyOp27
 70
     1
102
RTVSPropertyOp28
 70
     1
102
RTVSPropertyOp29
 70
     1
102
RTVSPropertyOp30
 70
     1
102
RTVSPropertyOp31
 70
     1
102
RTVSPropertyOp32
 70
     1
102
RTVSPropertyOp33
 70
     1
102
RTVSPropertyOp34
 70
     1
102
RTVSPropertyOp35
 70
     1
102
RTVSPropertyOp36
 70
     1
102
RTVSPropertyOp37
 70
     1
102
RTVSPropertyOp38
 70
     1
102
RTVSPropertyOp39
 70
     1
102
RTVSPropertyOp40
 70
     1
102
RTVSPropertyOp41
 70
     1
102
RTVSPropertyOp42
 70
     1
102
RTVSPropertyOp43
 70
     1
102
RTVSPropertyOp44
 70
     1
102
RTVSPropertyOp45
 70
     1
102
RTVSPropertyOp46
 70
     1
102
RTVSPropertyOp47
 70
     1
102
RTVSPropertyOp48
 70
     1
102
RTVSPropertyOp49
 70
     1
102
RTVSPropertyOp50
 70
     1
102
RTVSPropertyOp51
 70
     0
102
RTVSPropertyOp52
 70
     0
102
RTVSPropertyOp53
 70
     1
102
RTVSPropertyOp54
 70
     1
102
RTVSPropertyOp55
 70
     1
102
RTVSPropertyOp56
 70
     1
102
RTVSPropertyOp57
 70
     1
102
RTVSPost2010Prop28
280
     0
102
RTVSPost2010PropOp28
 70
     1
102
RTVSPost2010Prop29
280
     1
102
RTVSPost2010PropOp29
 70
     1
102
RTVSPost2010Prop30
280
     1
102
RTVSPost2010PropOp30
 70
     1
102
RTVSPost2010Prop31
280
     0
102
RTVSPost2010PropOp31
 70
     1
102
RTVSPost2010Prop32
280
     0
102
RTVSPost2010PropOp32
 70
     1
102
RTVSPost2010Prop33
280
     0
102
RTVSPost2010PropOp33
 70
     1
102
RTVSPost2010Prop34
280
     0
102
RTVSPost2010PropOp34
 70
     1
102
RTVSPost2010Prop35
280
     0
102
RTVSPost2010PropOp35
 70
     1
102
RTVSPost2010Prop36
280
     0
102
RTVSPost2010PropOp36
 70
     1
102
RTVSPost2010Prop37
 90
       50
102
RTVSPost2010PropOp37
 70
     1
102
RTVSPost2010Prop38
140
0.0
102
RTVSPost2010PropOp38
 70
     1
102
RTVSPost2010Prop39
140
1.0
102
RTVSPost2010PropOp39
 70
     1
102
RTVSPost2010Prop40
 90
        0
102
RTVSPost2010PropOp40
 70
     1
102
RTVSPost2010Prop41ColorIndex
 90
       18
102
RTVSPost2010Prop41ColorRGB
 90
        0
102
RTVSPost2010PropOp41
 70
     1
102
RTVSPost2010Prop42
 90
       50
102
RTVSPost2010PropOp42
 70
     1
102
RTVSPost2010Prop43
 90
        3
102
RTVSPost2010PropOp43
 70
     1
102
RTVSPost2010Prop44ColorIndex
 90
        5
102
RTVSPost2010Prop44ColorRGB
 90
      255
102
RTVSPost2010PropOp44
 70
     1
102
RTVSPost2010Prop45
280
     0
102
RTVSPost2010PropOp45
 70
     1
102
RTVSPost2010Prop46
 90
       50
102
RTVSPost2010PropOp46
 70
     1
102
RTVSPost2010Prop47
 90
       50
102
RTVSPost2010PropOp47
 70
     1
102
RTVSPost2010Prop48
 90
       50
102
RTVSPost2010PropOp48
 70
     1
102
RTVSPost2010Prop49
280
     0
102
RTVSPost2010PropOp49
 70
     1
102
RTVSPost2010Prop50
 90
       50
102
RTVSPost2010PropOp50
 70
     1
102
RTVSPost2010Prop51ColorIndex
 90
      256
102
RTVSPost2010Prop51ColorRGB
 90
-16777216
102
RTVSPost2010PropOp51
 70
     0
102
RTVSPost2010Prop52
140
1.0
102
RTVSPost2010PropOp52
 70
     0
102
RTVSPost2010Prop53
 90
        2
102
RTVSPost2010PropOp53
 70
     1
102
RTVSPost2010Prop54
  1
strokes_ogs.tif
102
RTVSPost2010PropOp54
 70
     1
102
RTVSPost2010Prop55
280
     0
102
RTVSPost2010PropOp55
 70
     1
102
RTVSPost2010Prop56
140
1.0
102
RTVSPost2010PropOp56
 70
     1
102
RTVSPost2010Prop57
140
1.0
102
RTVSPost2010PropOp57
 70
     1
  0
XRECORD
  5
500
102
{ACAD_REACTORS
330
4FF
102
}
330
4FF
100
AcDbXrecord
280
     1
102
RTVSPropertyOp0
 70
     0
102
RTVSPropertyOp1
 70
     0
102
RTVSPropertyOp2
 70
     0
102
RTVSPropertyOp3
 70
     0
102
RTVSPropertyOp4
 70
     0
102
RTVSPropertyOp5
 70
     0
102
RTVSPropertyOp6
 70
     0
102
RTVSPropertyOp7
 70
     0
102
RTVSPropertyOp8
 70
     0
102
RTVSPropertyOp9
 70
     0
102
RTVSPropertyOp10
 70
     0
102
RTVSPropertyOp11
 70
     0
102
RTVSPropertyOp12
 70
     0
102
RTVSPropertyOp13
 70
     0
102
RTVSPropertyOp14
 70
     2
102
RTVSPropertyOp15
 70
     0
102
RTVSPropertyOp16
 70
     0
102
RTVSPropertyOp17
 70
     0
102
RTVSPropertyOp18
 70
     0
102
RTVSPropertyOp19
 70
     0
102
RTVSPropertyOp20
 70
     0
102
RTVSPropertyOp21
 70
     0
102
RTVSPropertyOp22
 70
     0
102
RTVSPropertyOp23
 70
     0
102
RTVSPropertyOp24
 70
     0
102
RTVSPropertyOp25
 70
     0
102
RTVSPropertyOp26
 70
     0
102
RTVSPropertyOp27
 70
     0
102
RTVSPropertyOp28
 70
     0
102
RTVSPropertyOp29
 70
     0
102
RTVSPropertyOp30
 70
     0
102
RTVSPropertyOp31
 70
     0
102
RTVSPropertyOp32
 70
     0
102
RTVSPropertyOp33
 70
     0
102
RTVSPropertyOp34
 70
     0
102
RTVSPropertyOp35
 70
     0
102
RTVSPropertyOp36
 70
     0
102
RTVSPropertyOp37
 70
     0
102
RTVSPropertyOp38
 70
     0
102
RTVSPropertyOp39
 70
     0
102
RTVSPropertyOp40
 70
     0
102
RTVSPropertyOp41
 70
     0
102
RTVSPropertyOp42
 70
     0
102
RTVSPropertyOp43
 70
     0
102
RTVSPropertyOp44
 70
     0
102
RTVSPropertyOp45
 70
     0
102
RTVSPropertyOp46
 70
     0
102
RTVSPropertyOp47
 70
     0
102
RTVSPropertyOp48
 70
     0
102
RTVSPropertyOp49
 70
     0
102
RTVSPropertyOp50
 70
     0
102
RTVSPropertyOp51
 70
     0
102
RTVSPropertyOp52
 70
     0
102
RTVSPropertyOp53
 70
     0
102
RTVSPropertyOp54
 70
     0
102
RTVSPropertyOp55
 70
     0
102
RTVSPropertyOp56
 70
     0
102
RTVSPropertyOp57
 70
     0
102
RTVSPost2010Prop28
280
     0
102
RTVSPost2010PropOp28
 70
     0
102
RTVSPost2010Prop29
280
     1
102
RTVSPost2010PropOp29
 70
     0
102
RTVSPost2010Prop30
280
     1
102
RTVSPost2010PropOp30
 70
     0
102
RTVSPost2010Prop31
280
     0
102
RTVSPost2010PropOp31
 70
     0
102
RTVSPost2010Prop32
280
     0
102
RTVSPost2010PropOp32
 70
     0
102
RTVSPost2010Prop33
280
     0
102
RTVSPost2010PropOp33
 70
     0
102
RTVSPost2010Prop34
280
     0
102
RTVSPost2010PropOp34
 70
     0
102
RTVSPost2010Prop35
280
     0
102
RTVSPost2010PropOp35
 70
     0
102
RTVSPost2010Prop36
280
     0
102
RTVSPost2010PropOp36
 70
     0
102
RTVSPost2010Prop37
 90
       50
102
RTVSPost2010PropOp37
 70
     0
102
RTVSPost2010Prop38
140
0.0
102
RTVSPost2010PropOp38
 70
     0
102
RTVSPost2010Prop39
140
1.0
102
RTVSPost2010PropOp39
 70
     0
102
RTVSPost2010Prop40
 90
        0
102
RTVSPost2010PropOp40
 70
     0
102
RTVSPost2010Prop41ColorIndex
 90
       18
102
RTVSPost2010Prop41ColorRGB
 90
        0
102
RTVSPost2010PropOp41
 70
     0
102
RTVSPost2010Prop42
 90
       50
102
RTVSPost2010PropOp42
 70
     0
102
RTVSPost2010Prop43
 90
        3
102
RTVSPost2010PropOp43
 70
     0
102
RTVSPost2010Prop44ColorIndex
 90
        5
102
RTVSPost2010Prop44ColorRGB
 90
      255
102
RTVSPost2010PropOp44
 70
     0
102
RTVSPost2010Prop45
280
     0
102
RTVSPost2010PropOp45
 70
     0
102
RTVSPost2010Prop46
 90
       50
102
RTVSPost2010PropOp46
 70
     0
102
RTVSPost2010Prop47
 90
       50
102
RTVSPost2010PropOp47
 70
     0
102
RTVSPost2010Prop48
 90
       50
102
RTVSPost2010PropOp48
 70
     0
102
RTVSPost2010Prop49
280
     0
102
RTVSPost2010PropOp49
 70
     0
102
RTVSPost2010Prop50
 90
       50
102
RTVSPost2010PropOp50
 70
     0
102
RTVSPost2010Prop51ColorIndex
 90
      256
102
RTVSPost2010Prop51ColorRGB
 90
-16777216
102
RTVSPost2010PropOp51
 70
     0
102
RTVSPost2010Prop52
140
1.0
102
RTVSPost2010PropOp52
 70
     0
102
RTVSPost2010Prop53
 90
        2
102
RTVSPost2010PropOp53
 70
     0
102
RTVSPost2010Prop54
  1
strokes_ogs.tif
102
RTVSPost2010PropOp54
 70
     0
102
RTVSPost2010Prop55
280
     0
102
RTVSPost2010PropOp55
 70
     0
102
RTVSPost2010Prop56
140
1.0
102
RTVSPost2010PropOp56
 70
     0
102
RTVSPost2010Prop57
140
1.0
102
RTVSPost2010PropOp57
 70
     0
  0
XRECORD
  5
4EE
102
{ACAD_REACTORS
330
4ED
102
}
330
4ED
100
AcDbXrecord
280
     1
102
RTVSPropertyOp0
 70
     1
102
RTVSPropertyOp1
 70
     1
102
RTVSPropertyOp2
 70
     1
102
RTVSPropertyOp3
 70
     1
102
RTVSPropertyOp4
 70
     1
102
RTVSPropertyOp5
 70
     1
102
RTVSPropertyOp6
 70
     1
102
RTVSPropertyOp7
 70
     1
102
RTVSPropertyOp8
 70
     1
102
RTVSPropertyOp9
 70
     1
102
RTVSPropertyOp10
 70
     1
102
RTVSPropertyOp11
 70
     1
102
RTVSPropertyOp12
 70
     1
102
RTVSPropertyOp13
 70
     1
102
RTVSPropertyOp14
 70
     1
102
RTVSPropertyOp15
 70
     1
102
RTVSPropertyOp16
 70
     1
102
RTVSPropertyOp17
 70
     1
102
RTVSPropertyOp18
 70
     1
102
RTVSPropertyOp19
 70
     1
102
RTVSPropertyOp20
 70
     1
102
RTVSPropertyOp21
 70
     1
102
RTVSPropertyOp22
 70
     1
102
RTVSPropertyOp23
 70
     1
102
RTVSPropertyOp24
 70
     1
102
RTVSPropertyOp25
 70
     1
102
RTVSPropertyOp26
 70
     1
102
RTVSPropertyOp27
 70
     1
102
RTVSPropertyOp28
 70
     1
102
RTVSPropertyOp29
 70
     1
102
RTVSPropertyOp30
 70
     1
102
RTVSPropertyOp31
 70
     1
102
RTVSPropertyOp32
 70
     1
102
RTVSPropertyOp33
 70
     1
102
RTVSPropertyOp34
 70
     1
102
RTVSPropertyOp35
 70
     1
102
RTVSPropertyOp36
 70
     1
102
RTVSPropertyOp37
 70
     1
102
RTVSPropertyOp38
 70
     1
102
RTVSPropertyOp39
 70
     1
102
RTVSPropertyOp40
 70
     1
102
RTVSPropertyOp41
 70
     1
102
RTVSPropertyOp42
 70
     1
102
RTVSPropertyOp43
 70
     1
102
RTVSPropertyOp44
 70
     1
102
RTVSPropertyOp45
 70
     1
102
RTVSPropertyOp46
 70
     1
102
RTVSPropertyOp47
 70
     1
102
RTVSPropertyOp48
 70
     1
102
RTVSPropertyOp49
 70
     1
102
RTVSPropertyOp50
 70
     1
102
RTVSPropertyOp51
 70
     0
102
RTVSPropertyOp52
 70
     0
102
RTVSPropertyOp53
 70
     1
102
RTVSPropertyOp54
 70
     1
102
RTVSPropertyOp55
 70
     1
102
RTVSPropertyOp56
 70
     1
102
RTVSPropertyOp57
 70
     1
102
RTVSPost2010Prop28
280
     0
102
RTVSPost2010PropOp28
 70
     1
102
RTVSPost2010Prop29
280
     1
102
RTVSPost2010PropOp29
 70
     1
102
RTVSPost2010Prop30
280
     1
102
RTVSPost2010PropOp30
 70
     1
102
RTVSPost2010Prop31
280
     0
102
RTVSPost2010PropOp31
 70
     1
102
RTVSPost2010Prop32
280
     0
102
RTVSPost2010PropOp32
 70
     1
102
RTVSPost2010Prop33
280
     0
102
RTVSPost2010PropOp33
 70
     1
102
RTVSPost2010Prop34
280
     0
102
RTVSPost2010PropOp34
 70
     1
102
RTVSPost2010Prop35
280
     0
102
RTVSPost2010PropOp35
 70
     1
102
RTVSPost2010Prop36
280
     0
102
RTVSPost2010PropOp36
 70
     1
102
RTVSPost2010Prop37
 90
       50
102
RTVSPost2010PropOp37
 70
     1
102
RTVSPost2010Prop38
140
0.0
102
RTVSPost2010PropOp38
 70
     1
102
RTVSPost2010Prop39
140
1.0
102
RTVSPost2010PropOp39
 70
     1
102
RTVSPost2010Prop40
 90
        0
102
RTVSPost2010PropOp40
 70
     1
102
RTVSPost2010Prop41ColorIndex
 90
       18
102
RTVSPost2010Prop41ColorRGB
 90
        0
102
RTVSPost2010PropOp41
 70
     1
102
RTVSPost2010Prop42
 90
       50
102
RTVSPost2010PropOp42
 70
     1
102
RTVSPost2010Prop43
 90
        3
102
RTVSPost2010PropOp43
 70
     1
102
RTVSPost2010Prop44ColorIndex
 90
        5
102
RTVSPost2010Prop44ColorRGB
 90
      255
102
RTVSPost2010PropOp44
 70
     1
102
RTVSPost2010Prop45
280
     0
102
RTVSPost2010PropOp45
 70
     1
102
RTVSPost2010Prop46
 90
       50
102
RTVSPost2010PropOp46
 70
     1
102
RTVSPost2010Prop47
 90
       50
102
RTVSPost2010PropOp47
 70
     1
102
RTVSPost2010Prop48
 90
       50
102
RTVSPost2010PropOp48
 70
     1
102
RTVSPost2010Prop49
280
     0
102
RTVSPost2010PropOp49
 70
     1
102
RTVSPost2010Prop50
 90
       50
102
RTVSPost2010PropOp50
 70
     1
102
RTVSPost2010Prop51ColorIndex
 90
      256
102
RTVSPost2010Prop51ColorRGB
 90
-16777216
102
RTVSPost2010PropOp51
 70
     0
102
RTVSPost2010Prop52
140
1.0
102
RTVSPost2010PropOp52
 70
     0
102
RTVSPost2010Prop53
 90
        2
102
RTVSPost2010PropOp53
 70
     1
102
RTVSPost2010Prop54
  1
strokes_ogs.tif
102
RTVSPost2010PropOp54
 70
     1
102
RTVSPost2010Prop55
280
     0
102
RTVSPost2010PropOp55
 70
     1
102
RTVSPost2010Prop56
140
1.0
102
RTVSPost2010PropOp56
 70
     1
102
RTVSPost2010Prop57
140
1.0
102
RTVSPost2010PropOp57
 70
     1
  0
XRECORD
  5
50C
102
{ACAD_REACTORS
330
50B
102
}
330
50B
100
AcDbXrecord
280
     1
102
RTVSPropertyOp0
 70
     1
102
RTVSPropertyOp1
 70
     1
102
RTVSPropertyOp2
 70
     1
102
RTVSPropertyOp3
 70
     1
102
RTVSPropertyOp4
 70
     1
102
RTVSPropertyOp5
 70
     1
102
RTVSPropertyOp6
 70
     1
102
RTVSPropertyOp7
 70
     1
102
RTVSPropertyOp8
 70
     1
102
RTVSPropertyOp9
 70
     1
102
RTVSPropertyOp10
 70
     1
102
RTVSPropertyOp11
 70
     1
102
RTVSPropertyOp12
 70
     1
102
RTVSPropertyOp13
 70
     1
102
RTVSPropertyOp14
 70
     1
102
RTVSPropertyOp15
 70
     1
102
RTVSPropertyOp16
 70
     1
102
RTVSPropertyOp17
 70
     1
102
RTVSPropertyOp18
 70
     1
102
RTVSPropertyOp19
 70
     1
102
RTVSPropertyOp20
 70
     1
102
RTVSPropertyOp21
 70
     1
102
RTVSPropertyOp22
 70
     1
102
RTVSPropertyOp23
 70
     1
102
RTVSPropertyOp24
 70
     1
102
RTVSPropertyOp25
 70
     1
102
RTVSPropertyOp26
 70
     1
102
RTVSPropertyOp27
 70
     1
102
RTVSPropertyOp28
 70
     1
102
RTVSPropertyOp29
 70
     1
102
RTVSPropertyOp30
 70
     1
102
RTVSPropertyOp31
 70
     1
102
RTVSPropertyOp32
 70
     1
102
RTVSPropertyOp33
 70
     1
102
RTVSPropertyOp34
 70
     1
102
RTVSPropertyOp35
 70
     1
102
RTVSPropertyOp36
 70
     1
102
RTVSPropertyOp37
 70
     1
102
RTVSPropertyOp38
 70
     1
102
RTVSPropertyOp39
 70
     1
102
RTVSPropertyOp40
 70
     1
102
RTVSPropertyOp41
 70
     1
102
RTVSPropertyOp42
 70
     1
102
RTVSPropertyOp43
 70
     1
102
RTVSPropertyOp44
 70
     1
102
RTVSPropertyOp45
 70
     1
102
RTVSPropertyOp46
 70
     1
102
RTVSPropertyOp47
 70
     1
102
RTVSPropertyOp48
 70
     1
102
RTVSPropertyOp49
 70
     1
102
RTVSPropertyOp50
 70
     1
102
RTVSPropertyOp51
 70
     0
102
RTVSPropertyOp52
 70
     0
102
RTVSPropertyOp53
 70
     1
102
RTVSPropertyOp54
 70
     1
102
RTVSPropertyOp55
 70
     1
102
RTVSPropertyOp56
 70
     1
102
RTVSPropertyOp57
 70
     1
102
RTVSPost2010Prop28
280
     0
102
RTVSPost2010PropOp28
 70
     1
102
RTVSPost2010Prop29
280
     1
102
RTVSPost2010PropOp29
 70
     1
102
RTVSPost2010Prop30
280
     1
102
RTVSPost2010PropOp30
 70
     1
102
RTVSPost2010Prop31
280
     0
102
RTVSPost2010PropOp31
 70
     1
102
RTVSPost2010Prop32
280
     0
102
RTVSPost2010PropOp32
 70
     1
102
RTVSPost2010Prop33
280
     0
102
RTVSPost2010PropOp33
 70
     1
102
RTVSPost2010Prop34
280
     0
102
RTVSPost2010PropOp34
 70
     1
102
RTVSPost2010Prop35
280
     0
102
RTVSPost2010PropOp35
 70
     1
102
RTVSPost2010Prop36
280
     0
102
RTVSPost2010PropOp36
 70
     1
102
RTVSPost2010Prop37
 90
       50
102
RTVSPost2010PropOp37
 70
     1
102
RTVSPost2010Prop38
140
0.0
102
RTVSPost2010PropOp38
 70
     1
102
RTVSPost2010Prop39
140
1.0
102
RTVSPost2010PropOp39
 70
     1
102
RTVSPost2010Prop40
 90
        0
102
RTVSPost2010PropOp40
 70
     1
102
RTVSPost2010Prop41ColorIndex
 90
       18
102
RTVSPost2010Prop41ColorRGB
 90
        0
102
RTVSPost2010PropOp41
 70
     1
102
RTVSPost2010Prop42
 90
       50
102
RTVSPost2010PropOp42
 70
     1
102
RTVSPost2010Prop43
 90
        3
102
RTVSPost2010PropOp43
 70
     1
102
RTVSPost2010Prop44ColorIndex
 90
        5
102
RTVSPost2010Prop44ColorRGB
 90
      255
102
RTVSPost2010PropOp44
 70
     1
102
RTVSPost2010Prop45
280
     0
102
RTVSPost2010PropOp45
 70
     1
102
RTVSPost2010Prop46
 90
       50
102
RTVSPost2010PropOp46
 70
     1
102
RTVSPost2010Prop47
 90
       50
102
RTVSPost2010PropOp47
 70
     1
102
RTVSPost2010Prop48
 90
       50
102
RTVSPost2010PropOp48
 70
     1
102
RTVSPost2010Prop49
280
     0
102
RTVSPost2010PropOp49
 70
     1
102
RTVSPost2010Prop50
 90
       50
102
RTVSPost2010PropOp50
 70
     1
102
RTVSPost2010Prop51ColorIndex
 90
      256
102
RTVSPost2010Prop51ColorRGB
 90
-16777216
102
RTVSPost2010PropOp51
 70
     0
102
RTVSPost2010Prop52
140
1.0
102
RTVSPost2010PropOp52
 70
     0
102
RTVSPost2010Prop53
 90
        2
102
RTVSPost2010PropOp53
 70
     1
102
RTVSPost2010Prop54
  1
strokes_ogs.tif
102
RTVSPost2010PropOp54
 70
     1
102
RTVSPost2010Prop55
280
     0
102
RTVSPost2010PropOp55
 70
     1
102
RTVSPost2010Prop56
140
1.0
102
RTVSPost2010PropOp56
 70
     1
102
RTVSPost2010Prop57
140
1.0
102
RTVSPost2010PropOp57
 70
     1
  0
XRECORD
  5
50A
102
{ACAD_REACTORS
330
509
102
}
330
509
100
AcDbXrecord
280
     1
102
RTVSPropertyOp0
 70
     1
102
RTVSPropertyOp1
 70
     1
102
RTVSPropertyOp2
 70
     1
102
RTVSPropertyOp3
 70
     1
102
RTVSPropertyOp4
 70
     1
102
RTVSPropertyOp5
 70
     1
102
RTVSPropertyOp6
 70
     1
102
RTVSPropertyOp7
 70
     1
102
RTVSPropertyOp8
 70
     1
102
RTVSPropertyOp9
 70
     1
102
RTVSPropertyOp10
 70
     1
102
RTVSPropertyOp11
 70
     1
102
RTVSPropertyOp12
 70
     1
102
RTVSPropertyOp13
 70
     1
102
RTVSPropertyOp14
 70
     1
102
RTVSPropertyOp15
 70
     1
102
RTVSPropertyOp16
 70
     1
102
RTVSPropertyOp17
 70
     1
102
RTVSPropertyOp18
 70
     1
102
RTVSPropertyOp19
 70
     1
102
RTVSPropertyOp20
 70
     1
102
RTVSPropertyOp21
 70
     1
102
RTVSPropertyOp22
 70
     1
102
RTVSPropertyOp23
 70
     1
102
RTVSPropertyOp24
 70
     1
102
RTVSPropertyOp25
 70
     1
102
RTVSPropertyOp26
 70
     1
102
RTVSPropertyOp27
 70
     1
102
RTVSPropertyOp28
 70
     1
102
RTVSPropertyOp29
 70
     1
102
RTVSPropertyOp30
 70
     1
102
RTVSPropertyOp31
 70
     1
102
RTVSPropertyOp32
 70
     1
102
RTVSPropertyOp33
 70
     1
102
RTVSPropertyOp34
 70
     1
102
RTVSPropertyOp35
 70
     1
102
RTVSPropertyOp36
 70
     1
102
RTVSPropertyOp37
 70
     1
102
RTVSPropertyOp38
 70
     1
102
RTVSPropertyOp39
 70
     1
102
RTVSPropertyOp40
 70
     1
102
RTVSPropertyOp41
 70
     1
102
RTVSPropertyOp42
 70
     1
102
RTVSPropertyOp43
 70
     1
102
RTVSPropertyOp44
 70
     1
102
RTVSPropertyOp45
 70
     1
102
RTVSPropertyOp46
 70
     1
102
RTVSPropertyOp47
 70
     1
102
RTVSPropertyOp48
 70
     1
102
RTVSPropertyOp49
 70
     1
102
RTVSPropertyOp50
 70
     1
102
RTVSPropertyOp51
 70
     0
102
RTVSPropertyOp52
 70
     0
102
RTVSPropertyOp53
 70
     1
102
RTVSPropertyOp54
 70
     1
102
RTVSPropertyOp55
 70
     1
102
RTVSPropertyOp56
 70
     1
102
RTVSPropertyOp57
 70
     1
102
RTVSPost2010Prop28
280
     0
102
RTVSPost2010PropOp28
 70
     1
102
RTVSPost2010Prop29
280
     1
102
RTVSPost2010PropOp29
 70
     1
102
RTVSPost2010Prop30
280
     1
102
RTVSPost2010PropOp30
 70
     1
102
RTVSPost2010Prop31
280
     0
102
RTVSPost2010PropOp31
 70
     1
102
RTVSPost2010Prop32
280
     0
102
RTVSPost2010PropOp32
 70
     1
102
RTVSPost2010Prop33
280
     0
102
RTVSPost2010PropOp33
 70
     1
102
RTVSPost2010Prop34
280
     0
102
RTVSPost2010PropOp34
 70
     1
102
RTVSPost2010Prop35
280
     0
102
RTVSPost2010PropOp35
 70
     1
102
RTVSPost2010Prop36
280
     0
102
RTVSPost2010PropOp36
 70
     1
102
RTVSPost2010Prop37
 90
       50
102
RTVSPost2010PropOp37
 70
     1
102
RTVSPost2010Prop38
140
0.0
102
RTVSPost2010PropOp38
 70
     1
102
RTVSPost2010Prop39
140
1.0
102
RTVSPost2010PropOp39
 70
     1
102
RTVSPost2010Prop40
 90
        0
102
RTVSPost2010PropOp40
 70
     1
102
RTVSPost2010Prop41ColorIndex
 90
       18
102
RTVSPost2010Prop41ColorRGB
 90
        0
102
RTVSPost2010PropOp41
 70
     1
102
RTVSPost2010Prop42
 90
       50
102
RTVSPost2010PropOp42
 70
     1
102
RTVSPost2010Prop43
 90
        3
102
RTVSPost2010PropOp43
 70
     1
102
RTVSPost2010Prop44ColorIndex
 90
        5
102
RTVSPost2010Prop44ColorRGB
 90
      255
102
RTVSPost2010PropOp44
 70
     1
102
RTVSPost2010Prop45
280
     0
102
RTVSPost2010PropOp45
 70
     1
102
RTVSPost2010Prop46
 90
       50
102
RTVSPost2010PropOp46
 70
     1
102
RTVSPost2010Prop47
 90
       50
102
RTVSPost2010PropOp47
 70
     1
102
RTVSPost2010Prop48
 90
       50
102
RTVSPost2010PropOp48
 70
     1
102
RTVSPost2010Prop49
280
     0
102
RTVSPost2010PropOp49
 70
     1
102
RTVSPost2010Prop50
 90
       50
102
RTVSPost2010PropOp50
 70
     1
102
RTVSPost2010Prop51ColorIndex
 90
      256
102
RTVSPost2010Prop51ColorRGB
 90
-16777216
102
RTVSPost2010PropOp51
 70
     0
102
RTVSPost2010Prop52
140
1.0
102
RTVSPost2010PropOp52
 70
     0
102
RTVSPost2010Prop53
 90
        2
102
RTVSPost2010PropOp53
 70
     1
102
RTVSPost2010Prop54
  1
strokes_ogs.tif
102
RTVSPost2010PropOp54
 70
     1
102
RTVSPost2010Prop55
280
     0
102
RTVSPost2010PropOp55
 70
     1
102
RTVSPost2010Prop56
140
1.0
102
RTVSPost2010PropOp56
 70
     1
102
RTVSPost2010Prop57
140
1.0
102
RTVSPost2010PropOp57
 70
     1
  0
XRECORD
  5
504
102
{ACAD_REACTORS
330
503
102
}
330
503
100
AcDbXrecord
280
     1
102
RTVSPropertyOp0
 70
     1
102
RTVSPropertyOp1
 70
     1
102
RTVSPropertyOp2
 70
     1
102
RTVSPropertyOp3
 70
     1
102
RTVSPropertyOp4
 70
     1
102
RTVSPropertyOp5
 70
     1
102
RTVSPropertyOp6
 70
     1
102
RTVSPropertyOp7
 70
     1
102
RTVSPropertyOp8
 70
     1
102
RTVSPropertyOp9
 70
     1
102
RTVSPropertyOp10
 70
     1
102
RTVSPropertyOp11
 70
     1
102
RTVSPropertyOp12
 70
     1
102
RTVSPropertyOp13
 70
     1
102
RTVSPropertyOp14
 70
     1
102
RTVSPropertyOp15
 70
     1
102
RTVSPropertyOp16
 70
     1
102
RTVSPropertyOp17
 70
     1
102
RTVSPropertyOp18
 70
     1
102
RTVSPropertyOp19
 70
     1
102
RTVSPropertyOp20
 70
     1
102
RTVSPropertyOp21
 70
     1
102
RTVSPropertyOp22
 70
     1
102
RTVSPropertyOp23
 70
     1
102
RTVSPropertyOp24
 70
     1
102
RTVSPropertyOp25
 70
     1
102
RTVSPropertyOp26
 70
     1
102
RTVSPropertyOp27
 70
     1
102
RTVSPropertyOp28
 70
     1
102
RTVSPropertyOp29
 70
     1
102
RTVSPropertyOp30
 70
     1
102
RTVSPropertyOp31
 70
     1
102
RTVSPropertyOp32
 70
     1
102
RTVSPropertyOp33
 70
     1
102
RTVSPropertyOp34
 70
     1
102
RTVSPropertyOp35
 70
     1
102
RTVSPropertyOp36
 70
     1
102
RTVSPropertyOp37
 70
     1
102
RTVSPropertyOp38
 70
     1
102
RTVSPropertyOp39
 70
     1
102
RTVSPropertyOp40
 70
     1
102
RTVSPropertyOp41
 70
     1
102
RTVSPropertyOp42
 70
     1
102
RTVSPropertyOp43
 70
     1
102
RTVSPropertyOp44
 70
     1
102
RTVSPropertyOp45
 70
     1
102
RTVSPropertyOp46
 70
     1
102
RTVSPropertyOp47
 70
     1
102
RTVSPropertyOp48
 70
     1
102
RTVSPropertyOp49
 70
     1
102
RTVSPropertyOp50
 70
     1
102
RTVSPropertyOp51
 70
     0
102
RTVSPropertyOp52
 70
     0
102
RTVSPropertyOp53
 70
     1
102
RTVSPropertyOp54
 70
     1
102
RTVSPropertyOp55
 70
     1
102
RTVSPropertyOp56
 70
     1
102
RTVSPropertyOp57
 70
     1
102
RTVSPost2010Prop28
280
     0
102
RTVSPost2010PropOp28
 70
     1
102
RTVSPost2010Prop29
280
     1
102
RTVSPost2010PropOp29
 70
     1
102
RTVSPost2010Prop30
280
     1
102
RTVSPost2010PropOp30
 70
     1
102
RTVSPost2010Prop31
280
     0
102
RTVSPost2010PropOp31
 70
     1
102
RTVSPost2010Prop32
280
     0
102
RTVSPost2010PropOp32
 70
     1
102
RTVSPost2010Prop33
280
     0
102
RTVSPost2010PropOp33
 70
     1
102
RTVSPost2010Prop34
280
     0
102
RTVSPost2010PropOp34
 70
     1
102
RTVSPost2010Prop35
280
     0
102
RTVSPost2010PropOp35
 70
     1
102
RTVSPost2010Prop36
280
     0
102
RTVSPost2010PropOp36
 70
     1
102
RTVSPost2010Prop37
 90
       50
102
RTVSPost2010PropOp37
 70
     1
102
RTVSPost2010Prop38
140
0.0
102
RTVSPost2010PropOp38
 70
     1
102
RTVSPost2010Prop39
140
1.0
102
RTVSPost2010PropOp39
 70
     1
102
RTVSPost2010Prop40
 90
        0
102
RTVSPost2010PropOp40
 70
     1
102
RTVSPost2010Prop41ColorIndex
 90
       18
102
RTVSPost2010Prop41ColorRGB
 90
        0
102
RTVSPost2010PropOp41
 70
     1
102
RTVSPost2010Prop42
 90
       50
102
RTVSPost2010PropOp42
 70
     1
102
RTVSPost2010Prop43
 90
        3
102
RTVSPost2010PropOp43
 70
     1
102
RTVSPost2010Prop44ColorIndex
 90
        5
102
RTVSPost2010Prop44ColorRGB
 90
      255
102
RTVSPost2010PropOp44
 70
     1
102
RTVSPost2010Prop45
280
     0
102
RTVSPost2010PropOp45
 70
     1
102
RTVSPost2010Prop46
 90
       50
102
RTVSPost2010PropOp46
 70
     1
102
RTVSPost2010Prop47
 90
       50
102
RTVSPost2010PropOp47
 70
     1
102
RTVSPost2010Prop48
 90
       50
102
RTVSPost2010PropOp48
 70
     1
102
RTVSPost2010Prop49
280
     0
102
RTVSPost2010PropOp49
 70
     1
102
RTVSPost2010Prop50
 90
       50
102
RTVSPost2010PropOp50
 70
     1
102
RTVSPost2010Prop51ColorIndex
 90
      256
102
RTVSPost2010Prop51ColorRGB
 90
-16777216
102
RTVSPost2010PropOp51
 70
     0
102
RTVSPost2010Prop52
140
1.0
102
RTVSPost2010PropOp52
 70
     0
102
RTVSPost2010Prop53
 90
        2
102
RTVSPost2010PropOp53
 70
     1
102
RTVSPost2010Prop54
  1
strokes_ogs.tif
102
RTVSPost2010PropOp54
 70
     1
102
RTVSPost2010Prop55
280
     0
102
RTVSPost2010PropOp55
 70
     1
102
RTVSPost2010Prop56
140
1.0
102
RTVSPost2010PropOp56
 70
     1
102
RTVSPost2010Prop57
140
1.0
102
RTVSPost2010PropOp57
 70
     1
  0
XRECORD
  5
506
102
{ACAD_REACTORS
330
505
102
}
330
505
100
AcDbXrecord
280
     1
102
RTVSPropertyOp0
 70
     1
102
RTVSPropertyOp1
 70
     1
102
RTVSPropertyOp2
 70
     1
102
RTVSPropertyOp3
 70
     1
102
RTVSPropertyOp4
 70
     1
102
RTVSPropertyOp5
 70
     1
102
RTVSPropertyOp6
 70
     1
102
RTVSPropertyOp7
 70
     1
102
RTVSPropertyOp8
 70
     1
102
RTVSPropertyOp9
 70
     1
102
RTVSPropertyOp10
 70
     1
102
RTVSPropertyOp11
 70
     1
102
RTVSPropertyOp12
 70
     1
102
RTVSPropertyOp13
 70
     1
102
RTVSPropertyOp14
 70
     1
102
RTVSPropertyOp15
 70
     1
102
RTVSPropertyOp16
 70
     1
102
RTVSPropertyOp17
 70
     1
102
RTVSPropertyOp18
 70
     1
102
RTVSPropertyOp19
 70
     1
102
RTVSPropertyOp20
 70
     1
102
RTVSPropertyOp21
 70
     1
102
RTVSPropertyOp22
 70
     1
102
RTVSPropertyOp23
 70
     1
102
RTVSPropertyOp24
 70
     1
102
RTVSPropertyOp25
 70
     1
102
RTVSPropertyOp26
 70
     1
102
RTVSPropertyOp27
 70
     1
102
RTVSPropertyOp28
 70
     1
102
RTVSPropertyOp29
 70
     1
102
RTVSPropertyOp30
 70
     1
102
RTVSPropertyOp31
 70
     1
102
RTVSPropertyOp32
 70
     1
102
RTVSPropertyOp33
 70
     1
102
RTVSPropertyOp34
 70
     1
102
RTVSPropertyOp35
 70
     1
102
RTVSPropertyOp36
 70
     1
102
RTVSPropertyOp37
 70
     1
102
RTVSPropertyOp38
 70
     1
102
RTVSPropertyOp39
 70
     1
102
RTVSPropertyOp40
 70
     1
102
RTVSPropertyOp41
 70
     1
102
RTVSPropertyOp42
 70
     1
102
RTVSPropertyOp43
 70
     1
102
RTVSPropertyOp44
 70
     1
102
RTVSPropertyOp45
 70
     1
102
RTVSPropertyOp46
 70
     1
102
RTVSPropertyOp47
 70
     1
102
RTVSPropertyOp48
 70
     1
102
RTVSPropertyOp49
 70
     1
102
RTVSPropertyOp50
 70
     1
102
RTVSPropertyOp51
 70
     0
102
RTVSPropertyOp52
 70
     0
102
RTVSPropertyOp53
 70
     1
102
RTVSPropertyOp54
 70
     1
102
RTVSPropertyOp55
 70
     1
102
RTVSPropertyOp56
 70
     1
102
RTVSPropertyOp57
 70
     1
102
RTVSPost2010Prop28
280
     0
102
RTVSPost2010PropOp28
 70
     1
102
RTVSPost2010Prop29
280
     1
102
RTVSPost2010PropOp29
 70
     1
102
RTVSPost2010Prop30
280
     1
102
RTVSPost2010PropOp30
 70
     1
102
RTVSPost2010Prop31
280
     0
102
RTVSPost2010PropOp31
 70
     1
102
RTVSPost2010Prop32
280
     0
102
RTVSPost2010PropOp32
 70
     1
102
RTVSPost2010Prop33
280
     0
102
RTVSPost2010PropOp33
 70
     1
102
RTVSPost2010Prop34
280
     0
102
RTVSPost2010PropOp34
 70
     1
102
RTVSPost2010Prop35
280
     0
102
RTVSPost2010PropOp35
 70
     1
102
RTVSPost2010Prop36
280
     0
102
RTVSPost2010PropOp36
 70
     1
102
RTVSPost2010Prop37
 90
       50
102
RTVSPost2010PropOp37
 70
     1
102
RTVSPost2010Prop38
140
0.0
102
RTVSPost2010PropOp38
 70
     1
102
RTVSPost2010Prop39
140
1.0
102
RTVSPost2010PropOp39
 70
     1
102
RTVSPost2010Prop40
 90
        0
102
RTVSPost2010PropOp40
 70
     1
102
RTVSPost2010Prop41ColorIndex
 90
       18
102
RTVSPost2010Prop41ColorRGB
 90
        0
102
RTVSPost2010PropOp41
 70
     1
102
RTVSPost2010Prop42
 90
       50
102
RTVSPost2010PropOp42
 70
     1
102
RTVSPost2010Prop43
 90
        3
102
RTVSPost2010PropOp43
 70
     1
102
RTVSPost2010Prop44ColorIndex
 90
        5
102
RTVSPost2010Prop44ColorRGB
 90
      255
102
RTVSPost2010PropOp44
 70
     1
102
RTVSPost2010Prop45
280
     0
102
RTVSPost2010PropOp45
 70
     1
102
RTVSPost2010Prop46
 90
       50
102
RTVSPost2010PropOp46
 70
     1
102
RTVSPost2010Prop47
 90
       50
102
RTVSPost2010PropOp47
 70
     1
102
RTVSPost2010Prop48
 90
       50
102
RTVSPost2010PropOp48
 70
     1
102
RTVSPost2010Prop49
280
     0
102
RTVSPost2010PropOp49
 70
     1
102
RTVSPost2010Prop50
 90
       50
102
RTVSPost2010PropOp50
 70
     1
102
RTVSPost2010Prop51ColorIndex
 90
      256
102
RTVSPost2010Prop51ColorRGB
 90
-16777216
102
RTVSPost2010PropOp51
 70
     0
102
RTVSPost2010Prop52
140
1.0
102
RTVSPost2010PropOp52
 70
     0
102
RTVSPost2010Prop53
 90
        2
102
RTVSPost2010PropOp53
 70
     1
102
RTVSPost2010Prop54
  1
strokes_ogs.tif
102
RTVSPost2010PropOp54
 70
     1
102
RTVSPost2010Prop55
280
     0
102
RTVSPost2010PropOp55
 70
     1
102
RTVSPost2010Prop56
140
1.0
102
RTVSPost2010PropOp56
 70
     1
102
RTVSPost2010Prop57
140
1.0
102
RTVSPost2010PropOp57
 70
     1
  0
XRECORD
  5
4F6
102
{ACAD_REACTORS
330
4F5
102
}
330
4F5
100
AcDbXrecord
280
     1
102
RTVSPropertyOp0
 70
     1
102
RTVSPropertyOp1
 70
     1
102
RTVSPropertyOp2
 70
     1
102
RTVSPropertyOp3
 70
     1
102
RTVSPropertyOp4
 70
     1
102
RTVSPropertyOp5
 70
     1
102
RTVSPropertyOp6
 70
     1
102
RTVSPropertyOp7
 70
     1
102
RTVSPropertyOp8
 70
     1
102
RTVSPropertyOp9
 70
     1
102
RTVSPropertyOp10
 70
     1
102
RTVSPropertyOp11
 70
     1
102
RTVSPropertyOp12
 70
     1
102
RTVSPropertyOp13
 70
     1
102
RTVSPropertyOp14
 70
     1
102
RTVSPropertyOp15
 70
     1
102
RTVSPropertyOp16
 70
     1
102
RTVSPropertyOp17
 70
     1
102
RTVSPropertyOp18
 70
     1
102
RTVSPropertyOp19
 70
     1
102
RTVSPropertyOp20
 70
     1
102
RTVSPropertyOp21
 70
     1
102
RTVSPropertyOp22
 70
     1
102
RTVSPropertyOp23
 70
     1
102
RTVSPropertyOp24
 70
     1
102
RTVSPropertyOp25
 70
     1
102
RTVSPropertyOp26
 70
     1
102
RTVSPropertyOp27
 70
     1
102
RTVSPropertyOp28
 70
     1
102
RTVSPropertyOp29
 70
     1
102
RTVSPropertyOp30
 70
     1
102
RTVSPropertyOp31
 70
     1
102
RTVSPropertyOp32
 70
     1
102
RTVSPropertyOp33
 70
     1
102
RTVSPropertyOp34
 70
     1
102
RTVSPropertyOp35
 70
     1
102
RTVSPropertyOp36
 70
     1
102
RTVSPropertyOp37
 70
     1
102
RTVSPropertyOp38
 70
     1
102
RTVSPropertyOp39
 70
     1
102
RTVSPropertyOp40
 70
     1
102
RTVSPropertyOp41
 70
     1
102
RTVSPropertyOp42
 70
     1
102
RTVSPropertyOp43
 70
     1
102
RTVSPropertyOp44
 70
     1
102
RTVSPropertyOp45
 70
     1
102
RTVSPropertyOp46
 70
     1
102
RTVSPropertyOp47
 70
     1
102
RTVSPropertyOp48
 70
     1
102
RTVSPropertyOp49
 70
     1
102
RTVSPropertyOp50
 70
     1
102
RTVSPropertyOp51
 70
     0
102
RTVSPropertyOp52
 70
     0
102
RTVSPropertyOp53
 70
     1
102
RTVSPropertyOp54
 70
     1
102
RTVSPropertyOp55
 70
     1
102
RTVSPropertyOp56
 70
     1
102
RTVSPropertyOp57
 70
     1
102
RTVSPost2010Prop28
280
     0
102
RTVSPost2010PropOp28
 70
     1
102
RTVSPost2010Prop29
280
     1
102
RTVSPost2010PropOp29
 70
     1
102
RTVSPost2010Prop30
280
     1
102
RTVSPost2010PropOp30
 70
     1
102
RTVSPost2010Prop31
280
     0
102
RTVSPost2010PropOp31
 70
     1
102
RTVSPost2010Prop32
280
     0
102
RTVSPost2010PropOp32
 70
     1
102
RTVSPost2010Prop33
280
     0
102
RTVSPost2010PropOp33
 70
     1
102
RTVSPost2010Prop34
280
     0
102
RTVSPost2010PropOp34
 70
     1
102
RTVSPost2010Prop35
280
     0
102
RTVSPost2010PropOp35
 70
     1
102
RTVSPost2010Prop36
280
     0
102
RTVSPost2010PropOp36
 70
     1
102
RTVSPost2010Prop37
 90
       50
102
RTVSPost2010PropOp37
 70
     1
102
RTVSPost2010Prop38
140
0.0
102
RTVSPost2010PropOp38
 70
     1
102
RTVSPost2010Prop39
140
1.0
102
RTVSPost2010PropOp39
 70
     1
102
RTVSPost2010Prop40
 90
        0
102
RTVSPost2010PropOp40
 70
     1
102
RTVSPost2010Prop41ColorIndex
 90
       18
102
RTVSPost2010Prop41ColorRGB
 90
        0
102
RTVSPost2010PropOp41
 70
     1
102
RTVSPost2010Prop42
 90
       50
102
RTVSPost2010PropOp42
 70
     1
102
RTVSPost2010Prop43
 90
        3
102
RTVSPost2010PropOp43
 70
     1
102
RTVSPost2010Prop44ColorIndex
 90
        5
102
RTVSPost2010Prop44ColorRGB
 90
      255
102
RTVSPost2010PropOp44
 70
     1
102
RTVSPost2010Prop45
280
     0
102
RTVSPost2010PropOp45
 70
     1
102
RTVSPost2010Prop46
 90
       50
102
RTVSPost2010PropOp46
 70
     1
102
RTVSPost2010Prop47
 90
       50
102
RTVSPost2010PropOp47
 70
     1
102
RTVSPost2010Prop48
 90
       50
102
RTVSPost2010PropOp48
 70
     1
102
RTVSPost2010Prop49
280
     0
102
RTVSPost2010PropOp49
 70
     1
102
RTVSPost2010Prop50
 90
       50
102
RTVSPost2010PropOp50
 70
     1
102
RTVSPost2010Prop51ColorIndex
 90
      256
102
RTVSPost2010Prop51ColorRGB
 90
-16777216
102
RTVSPost2010PropOp51
 70
     0
102
RTVSPost2010Prop52
140
1.0
102
RTVSPost2010PropOp52
 70
     0
102
RTVSPost2010Prop53
 90
        2
102
RTVSPost2010PropOp53
 70
     1
102
RTVSPost2010Prop54
  1
strokes_ogs.tif
102
RTVSPost2010PropOp54
 70
     1
102
RTVSPost2010Prop55
280
     0
102
RTVSPost2010PropOp55
 70
     1
102
RTVSPost2010Prop56
140
1.0
102
RTVSPost2010PropOp56
 70
     1
102
RTVSPost2010Prop57
140
1.0
102
RTVSPost2010PropOp57
 70
     1
  0
XRECORD
  5
4E8
102
{ACAD_REACTORS
330
4E7
102
}
330
4E7
100
AcDbXrecord
280
     1
102
RTVSPropertyOp0
 70
     1
102
RTVSPropertyOp1
 70
     1
102
RTVSPropertyOp2
 70
     1
102
RTVSPropertyOp3
 70
     1
102
RTVSPropertyOp4
 70
     1
102
RTVSPropertyOp5
 70
     1
102
RTVSPropertyOp6
 70
     1
102
RTVSPropertyOp7
 70
     1
102
RTVSPropertyOp8
 70
     1
102
RTVSPropertyOp9
 70
     1
102
RTVSPropertyOp10
 70
     1
102
RTVSPropertyOp11
 70
     1
102
RTVSPropertyOp12
 70
     1
102
RTVSPropertyOp13
 70
     1
102
RTVSPropertyOp14
 70
     1
102
RTVSPropertyOp15
 70
     1
102
RTVSPropertyOp16
 70
     1
102
RTVSPropertyOp17
 70
     1
102
RTVSPropertyOp18
 70
     1
102
RTVSPropertyOp19
 70
     1
102
RTVSPropertyOp20
 70
     1
102
RTVSPropertyOp21
 70
     1
102
RTVSPropertyOp22
 70
     1
102
RTVSPropertyOp23
 70
     1
102
RTVSPropertyOp24
 70
     1
102
RTVSPropertyOp25
 70
     1
102
RTVSPropertyOp26
 70
     1
102
RTVSPropertyOp27
 70
     1
102
RTVSPropertyOp28
 70
     1
102
RTVSPropertyOp29
 70
     1
102
RTVSPropertyOp30
 70
     1
102
RTVSPropertyOp31
 70
     1
102
RTVSPropertyOp32
 70
     1
102
RTVSPropertyOp33
 70
     1
102
RTVSPropertyOp34
 70
     1
102
RTVSPropertyOp35
 70
     1
102
RTVSPropertyOp36
 70
     1
102
RTVSPropertyOp37
 70
     1
102
RTVSPropertyOp38
 70
     1
102
RTVSPropertyOp39
 70
     1
102
RTVSPropertyOp40
 70
     1
102
RTVSPropertyOp41
 70
     1
102
RTVSPropertyOp42
 70
     1
102
RTVSPropertyOp43
 70
     1
102
RTVSPropertyOp44
 70
     1
102
RTVSPropertyOp45
 70
     1
102
RTVSPropertyOp46
 70
     1
102
RTVSPropertyOp47
 70
     1
102
RTVSPropertyOp48
 70
     1
102
RTVSPropertyOp49
 70
     1
102
RTVSPropertyOp50
 70
     1
102
RTVSPropertyOp51
 70
     0
102
RTVSPropertyOp52
 70
     0
102
RTVSPropertyOp53
 70
     1
102
RTVSPropertyOp54
 70
     1
102
RTVSPropertyOp55
 70
     1
102
RTVSPropertyOp56
 70
     1
102
RTVSPropertyOp57
 70
     1
102
RTVSPost2010Prop28
280
     0
102
RTVSPost2010PropOp28
 70
     1
102
RTVSPost2010Prop29
280
     1
102
RTVSPost2010PropOp29
 70
     1
102
RTVSPost2010Prop30
280
     1
102
RTVSPost2010PropOp30
 70
     1
102
RTVSPost2010Prop31
280
     0
102
RTVSPost2010PropOp31
 70
     1
102
RTVSPost2010Prop32
280
     0
102
RTVSPost2010PropOp32
 70
     1
102
RTVSPost2010Prop33
280
     0
102
RTVSPost2010PropOp33
 70
     1
102
RTVSPost2010Prop34
280
     0
102
RTVSPost2010PropOp34
 70
     1
102
RTVSPost2010Prop35
280
     0
102
RTVSPost2010PropOp35
 70
     1
102
RTVSPost2010Prop36
280
     0
102
RTVSPost2010PropOp36
 70
     1
102
RTVSPost2010Prop37
 90
       50
102
RTVSPost2010PropOp37
 70
     1
102
RTVSPost2010Prop38
140
0.0
102
RTVSPost2010PropOp38
 70
     1
102
RTVSPost2010Prop39
140
1.0
102
RTVSPost2010PropOp39
 70
     1
102
RTVSPost2010Prop40
 90
        0
102
RTVSPost2010PropOp40
 70
     1
102
RTVSPost2010Prop41ColorIndex
 90
       18
102
RTVSPost2010Prop41ColorRGB
 90
        0
102
RTVSPost2010PropOp41
 70
     1
102
RTVSPost2010Prop42
 90
       50
102
RTVSPost2010PropOp42
 70
     1
102
RTVSPost2010Prop43
 90
        3
102
RTVSPost2010PropOp43
 70
     1
102
RTVSPost2010Prop44ColorIndex
 90
        5
102
RTVSPost2010Prop44ColorRGB
 90
      255
102
RTVSPost2010PropOp44
 70
     1
102
RTVSPost2010Prop45
280
     0
102
RTVSPost2010PropOp45
 70
     1
102
RTVSPost2010Prop46
 90
       50
102
RTVSPost2010PropOp46
 70
     1
102
RTVSPost2010Prop47
 90
       50
102
RTVSPost2010PropOp47
 70
     1
102
RTVSPost2010Prop48
 90
       50
102
RTVSPost2010PropOp48
 70
     1
102
RTVSPost2010Prop49
280
     0
102
RTVSPost2010PropOp49
 70
     1
102
RTVSPost2010Prop50
 90
       50
102
RTVSPost2010PropOp50
 70
     1
102
RTVSPost2010Prop51ColorIndex
 90
      256
102
RTVSPost2010Prop51ColorRGB
 90
-16777216
102
RTVSPost2010PropOp51
 70
     0
102
RTVSPost2010Prop52
140
1.0
102
RTVSPost2010PropOp52
 70
     0
102
RTVSPost2010Prop53
 90
        2
102
RTVSPost2010PropOp53
 70
     1
102
RTVSPost2010Prop54
  1
strokes_ogs.tif
102
RTVSPost2010PropOp54
 70
     1
102
RTVSPost2010Prop55
280
     0
102
RTVSPost2010PropOp55
 70
     1
102
RTVSPost2010Prop56
140
1.0
102
RTVSPost2010PropOp56
 70
     1
102
RTVSPost2010Prop57
140
1.0
102
RTVSPost2010PropOp57
 70
     1
  0
XRECORD
  5
508
102
{ACAD_REACTORS
330
507
102
}
330
507
100
AcDbXrecord
280
     1
102
RTVSPropertyOp0
 70
     1
102
RTVSPropertyOp1
 70
     1
102
RTVSPropertyOp2
 70
     1
102
RTVSPropertyOp3
 70
     1
102
RTVSPropertyOp4
 70
     1
102
RTVSPropertyOp5
 70
     1
102
RTVSPropertyOp6
 70
     1
102
RTVSPropertyOp7
 70
     1
102
RTVSPropertyOp8
 70
     1
102
RTVSPropertyOp9
 70
     1
102
RTVSPropertyOp10
 70
     1
102
RTVSPropertyOp11
 70
     1
102
RTVSPropertyOp12
 70
     1
102
RTVSPropertyOp13
 70
     1
102
RTVSPropertyOp14
 70
     1
102
RTVSPropertyOp15
 70
     1
102
RTVSPropertyOp16
 70
     1
102
RTVSPropertyOp17
 70
     1
102
RTVSPropertyOp18
 70
     1
102
RTVSPropertyOp19
 70
     1
102
RTVSPropertyOp20
 70
     1
102
RTVSPropertyOp21
 70
     1
102
RTVSPropertyOp22
 70
     1
102
RTVSPropertyOp23
 70
     1
102
RTVSPropertyOp24
 70
     1
102
RTVSPropertyOp25
 70
     1
102
RTVSPropertyOp26
 70
     1
102
RTVSPropertyOp27
 70
     1
102
RTVSPropertyOp28
 70
     1
102
RTVSPropertyOp29
 70
     1
102
RTVSPropertyOp30
 70
     1
102
RTVSPropertyOp31
 70
     1
102
RTVSPropertyOp32
 70
     1
102
RTVSPropertyOp33
 70
     1
102
RTVSPropertyOp34
 70
     1
102
RTVSPropertyOp35
 70
     1
102
RTVSPropertyOp36
 70
     1
102
RTVSPropertyOp37
 70
     1
102
RTVSPropertyOp38
 70
     1
102
RTVSPropertyOp39
 70
     1
102
RTVSPropertyOp40
 70
     1
102
RTVSPropertyOp41
 70
     1
102
RTVSPropertyOp42
 70
     1
102
RTVSPropertyOp43
 70
     1
102
RTVSPropertyOp44
 70
     1
102
RTVSPropertyOp45
 70
     1
102
RTVSPropertyOp46
 70
     1
102
RTVSPropertyOp47
 70
     1
102
RTVSPropertyOp48
 70
     1
102
RTVSPropertyOp49
 70
     1
102
RTVSPropertyOp50
 70
     1
102
RTVSPropertyOp51
 70
     0
102
RTVSPropertyOp52
 70
     0
102
RTVSPropertyOp53
 70
     1
102
RTVSPropertyOp54
 70
     1
102
RTVSPropertyOp55
 70
     1
102
RTVSPropertyOp56
 70
     1
102
RTVSPropertyOp57
 70
     1
102
RTVSPost2010Prop28
280
     0
102
RTVSPost2010PropOp28
 70
     1
102
RTVSPost2010Prop29
280
     1
102
RTVSPost2010PropOp29
 70
     1
102
RTVSPost2010Prop30
280
     1
102
RTVSPost2010PropOp30
 70
     1
102
RTVSPost2010Prop31
280
     0
102
RTVSPost2010PropOp31
 70
     1
102
RTVSPost2010Prop32
280
     0
102
RTVSPost2010PropOp32
 70
     1
102
RTVSPost2010Prop33
280
     0
102
RTVSPost2010PropOp33
 70
     1
102
RTVSPost2010Prop34
280
     0
102
RTVSPost2010PropOp34
 70
     1
102
RTVSPost2010Prop35
280
     0
102
RTVSPost2010PropOp35
 70
     1
102
RTVSPost2010Prop36
280
     0
102
RTVSPost2010PropOp36
 70
     1
102
RTVSPost2010Prop37
 90
       50
102
RTVSPost2010PropOp37
 70
     1
102
RTVSPost2010Prop38
140
0.0
102
RTVSPost2010PropOp38
 70
     1
102
RTVSPost2010Prop39
140
1.0
102
RTVSPost2010PropOp39
 70
     1
102
RTVSPost2010Prop40
 90
        0
102
RTVSPost2010PropOp40
 70
     1
102
RTVSPost2010Prop41ColorIndex
 90
       18
102
RTVSPost2010Prop41ColorRGB
 90
        0
102
RTVSPost2010PropOp41
 70
     1
102
RTVSPost2010Prop42
 90
       50
102
RTVSPost2010PropOp42
 70
     1
102
RTVSPost2010Prop43
 90
        3
102
RTVSPost2010PropOp43
 70
     1
102
RTVSPost2010Prop44ColorIndex
 90
        5
102
RTVSPost2010Prop44ColorRGB
 90
      255
102
RTVSPost2010PropOp44
 70
     1
102
RTVSPost2010Prop45
280
     0
102
RTVSPost2010PropOp45
 70
     1
102
RTVSPost2010Prop46
 90
       50
102
RTVSPost2010PropOp46
 70
     1
102
RTVSPost2010Prop47
 90
       50
102
RTVSPost2010PropOp47
 70
     1
102
RTVSPost2010Prop48
 90
       50
102
RTVSPost2010PropOp48
 70
     1
102
RTVSPost2010Prop49
280
     0
102
RTVSPost2010PropOp49
 70
     1
102
RTVSPost2010Prop50
 90
       50
102
RTVSPost2010PropOp50
 70
     1
102
RTVSPost2010Prop51ColorIndex
 90
      256
102
RTVSPost2010Prop51ColorRGB
 90
-16777216
102
RTVSPost2010PropOp51
 70
     0
102
RTVSPost2010Prop52
140
1.0
102
RTVSPost2010PropOp52
 70
     0
102
RTVSPost2010Prop53
 90
        2
102
RTVSPost2010PropOp53
 70
     1
102
RTVSPost2010Prop54
  1
strokes_ogs.tif
102
RTVSPost2010PropOp54
 70
     1
102
RTVSPost2010Prop55
280
     0
102
RTVSPost2010PropOp55
 70
     1
102
RTVSPost2010Prop56
140
1.0
102
RTVSPost2010PropOp56
 70
     1
102
RTVSPost2010Prop57
140
1.0
102
RTVSPost2010PropOp57
 70
     1
  0
ENDSEC
  0
EOF
