  0
SECTION
  2
HEADER
  9
$ACADVER
  1
AC1015
  9
$ACADMAINTVER
 70
     6
  9
$DWGCODEPAGE
  3
ANSI_932
  9
$INSBASE
 10
0.0
 20
0.0
 30
0.0
  9
$EXTMIN
 10
0.0
 20
0.0
 30
0.0
  9
$EXTMAX
 10
25230.0
 20
17820.0
 30
0.0
  9
$LIMMIN
 10
0.0
 20
0.0
  9
$LIMMAX
 10
30276.0
 20
21384.0
  9
$ORTHOMODE
 70
     0
  9
$REGENMODE
 70
     1
  9
$FILLMODE
 70
     1
  9
$QTEXTMODE
 70
     0
  9
$MIRRTEXT
 70
     1
  9
$LTSCALE
 40
350.0
  9
$ATTMODE
 70
     1
  9
$TEXTSIZE
 40
0.2
  9
$TRACEWID
 40
0.05
  9
$TEXTSTYLE
  7
Standard
  9
$CLAYER
  8
0
  9
$CELTYPE
  6
ByLayer
  9
$CECOLOR
 62
   256
  9
$CELTSCALE
 40
1.0
  9
$DISPSILH
 70
     0
  9
$DIMSCALE
 40
30.0
  9
$DIMASZ
 40
0.18
  9
$DIMEXO
 40
0.0625
  9
$DIMDLI
 40
0.38
  9
$DIMRND
 40
0.0
  9
$DIMDLE
 40
0.0
  9
$DIMEXE
 40
0.18
  9
$DIMTP
 40
0.0
  9
$DIMTM
 40
0.0
  9
$DIMTXT
 40
0.18
  9
$DIMCEN
 40
0.09
  9
$DIMTSZ
 40
0.0
  9
$DIMTOL
 70
     0
  9
$DIMLIM
 70
     0
  9
$DIMTIH
 70
     1
  9
$DIMTOH
 70
     1
  9
$DIMSE1
 70
     0
  9
$DIMSE2
 70
     0
  9
$DIMTAD
 70
     0
  9
$DIMZIN
 70
     0
  9
$DIMBLK
  1

  9
$DIMASO
 70
     1
  9
$DIMSHO
 70
     1
  9
$DIMPOST
  1

  9
$DIMAPOST
  1

  9
$DIMALT
 70
     0
  9
$DIMALTD
 70
     2
  9
$DIMALTF
 40
25.4
  9
$DIMLFAC
 40
1.0
  9
$DIMTOFL
 70
     0
  9
$DIMTVP
 40
0.0
  9
$DIMTIX
 70
     0
  9
$DIMSOXD
 70
     0
  9
$DIMSAH
 70
     0
  9
$DIMBLK1
  1

  9
$DIMBLK2
  1

  9
$DIMSTYLE
  2
Standard
  9
$DIMCLRD
 70
     0
  9
$DIMCLRE
 70
     0
  9
$DIMCLRT
 70
     0
  9
$DIMTFAC
 40
1.0
  9
$DIMGAP
 40
0.09
  9
$DIMJUST
 70
     0
  9
$DIMSD1
 70
     0
  9
$DIMSD2
 70
     0
  9
$DIMTOLJ
 70
     1
  9
$DIMTZIN
 70
     0
  9
$DIMALTZ
 70
     0
  9
$DIMALTTZ
 70
     0
  9
$DIMUPT
 70
     0
  9
$DIMDEC
 70
     4
  9
$DIMTDEC
 70
     4
  9
$DIMALTU
 70
     2
  9
$DIMALTTD
 70
     2
  9
$DIMTXSTY
  7
Standard
  9
$DIMAUNIT
 70
     0
  9
$DIMADEC
 70
     0
  9
$DIMALTRND
 40
0.0
  9
$DIMAZIN
 70
     0
  9
$DIMDSEP
 70
    46
  9
$DIMATFIT
 70
     3
  9
$DIMFRAC
 70
     0
  9
$DIMLDRBLK
  1

  9
$DIMLUNIT
 70
     2
  9
$DIMLWD
 70
    -2
  9
$DIMLWE
 70
    -2
  9
$DIMTMOVE
 70
     0
  9
$LUNITS
 70
     2
  9
$LUPREC
 70
     4
  9
$SKETCHINC
 40
0.1
  9
$FILLETRAD
 40
0.5
  9
$AUNITS
 70
     0
  9
$AUPREC
 70
     0
  9
$MENU
  1
.
  9
$ELEVATION
 40
0.0
  9
$PELEVATION
 40
0.0
  9
$THICKNESS
 40
0.0
  9
$LIMCHECK
 70
     0
  9
$CHAMFERA
 40
0.0
  9
$CHAMFERB
 40
0.0
  9
$CHAMFERC
 40
0.0
  9
$CHAMFERD
 40
0.0
  9
$SKPOLY
 70
     0
  9
$TDCREATE
 40
2460342.09994213
  9
$TDUCREATE
 40
2460341.72494213
  9
$TDUPDATE
 40
2460341.724943924
  9
$TDUUPDATE
 40
2460341.349943924
  9
$TDINDWG
 40
0.0000000116
  9
$TDUSRTIMER
 40
0.0000000116
  9
$USRTIMER
 70
     1
  9
$ANGBASE
 50
0.0
  9
$ANGDIR
 70
     0
  9
$PDMODE
 70
     0
  9
$PDSIZE
 40
0.0
  9
$PLINEWID
 40
0.0
  9
$SPLFRAME
 70
     0
  9
$SPLINETYPE
 70
     6
  9
$SPLINESEGS
 70
     8
  9
$HANDSEED
  5
4E6
  9
$SURFTAB1
 70
     6
  9
$SURFTAB2
 70
     6
  9
$SURFTYPE
 70
     6
  9
$SURFU
 70
     6
  9
$SURFV
 70
     6
  9
$UCSBASE
  2

  9
$UCSNAME
  2

  9
$UCSORG
 10
0.0
 20
0.0
 30
0.0
  9
$UCSXDIR
 10
1.0
 20
0.0
 30
0.0
  9
$UCSYDIR
 10
0.0
 20
1.0
 30
0.0
  9
$UCSORTHOREF
  2

  9
$UCSORTHOVIEW
 70
     0
  9
$UCSORGTOP
 10
0.0
 20
0.0
 30
0.0
  9
$UCSORGBOTTOM
 10
0.0
 20
0.0
 30
0.0
  9
$UCSORGLEFT
 10
0.0
 20
0.0
 30
0.0
  9
$UCSORGRIGHT
 10
0.0
 20
0.0
 30
0.0
  9
$UCSORGFRONT
 10
0.0
 20
0.0
 30
0.0
  9
$UCSORGBACK
 10
0.0
 20
0.0
 30
0.0
  9
$PUCSBASE
  2

  9
$PUCSNAME
  2

  9
$PUCSORG
 10
0.0
 20
0.0
 30
0.0
  9
$PUCSXDIR
 10
1.0
 20
0.0
 30
0.0
  9
$PUCSYDIR
 10
0.0
 20
1.0
 30
0.0
  9
$PUCSORTHOREF
  2

  9
$PUCSORTHOVIEW
 70
     0
  9
$PUCSORGTOP
 10
0.0
 20
0.0
 30
0.0
  9
$PUCSORGBOTTOM
 10
0.0
 20
0.0
 30
0.0
  9
$PUCSORGLEFT
 10
0.0
 20
0.0
 30
0.0
  9
$PUCSORGRIGHT
 10
0.0
 20
0.0
 30
0.0
  9
$PUCSORGFRONT
 10
0.0
 20
0.0
 30
0.0
  9
$PUCSORGBACK
 10
0.0
 20
0.0
 30
0.0
  9
$USERI1
 70
     0
  9
$USERI2
 70
     0
  9
$USERI3
 70
     0
  9
$USERI4
 70
     0
  9
$USERI5
 70
     0
  9
$USERR1
 40
0.0
  9
$USERR2
 40
0.0
  9
$USERR3
 40
0.0
  9
$USERR4
 40
0.0
  9
$USERR5
 40
0.0
  9
$WORLDVIEW
 70
     1
  9
$SHADEDGE
 70
     3
  9
$SHADEDIF
 70
    70
  9
$TILEMODE
 70
     1
  9
$MAXACTVP
 70
    64
  9
$PINSBASE
 10
0.0
 20
0.0
 30
0.0
  9
$PLIMCHECK
 70
     0
  9
$PEXTMIN
 10
0.0
 20
0.0
 30
0.0
  9
$PEXTMAX
 10
12.0
 20
9.0
 30
0.0
  9
$PLIMMIN
 10
0.0
 20
0.0
  9
$PLIMMAX
 10
12.0
 20
9.0
  9
$UNITMODE
 70
     0
  9
$VISRETAIN
 70
     1
  9
$PLINEGEN
 70
     0
  9
$PSLTSCALE
 70
     1
  9
$TREEDEPTH
 70
  3020
  9
$CMLSTYLE
  2
Standard
  9
$CMLJUST
 70
     0
  9
$CMLSCALE
 40
1.0
  9
$PROXYGRAPHICS
 70
     1
  9
$MEASUREMENT
 70
     1
  9
$CELWEIGHT
370
    -1
  9
$ENDCAPS
280
     0
  9
$JOINSTYLE
280
     0
  9
$LWDISPLAY
290
     0
  9
$INSUNITS
 70
     4
  9
$HYPERLINKBASE
  1

  9
$STYLESHEET
  1

  9
$XEDIT
290
     1
  9
$CEPSNTYPE
380
     0
  9
$PSTYLEMODE
290
     1
  9
$FINGERPRINTGUID
  2
{3ef90d47-b4b9-4a73-a4cf-d7797069ea24}
  9
$VERSIONGUID
  2
{FAEB1C32-E019-11D5-929B-00C0DF256EC4}
  9
$EXTNAMES
290
     1
  9
$PSVPSCALE
 40
0.0
  9
$OLESTARTUP
290
     0
  0
ENDSEC
  0
SECTION
  2
CLASSES
  0
CLASS
  1
ACDBDICTIONARYWDFLT
  2
AcDbDictionaryWithDefault
  3
ObjectDBX Classes
 90
        0
280
     0
281
     0
  0
CLASS
  1
VISUALSTYLE
  2
AcDbVisualStyle
  3
ObjectDBX Classes
 90
     4095
280
     0
281
     0
  0
CLASS
  1
MATERIAL
  2
AcDbMaterial
  3
ObjectDBX Classes
 90
     1153
280
     0
281
     0
  0
CLASS
  1
SCALE
  2
AcDbScale
  3
ObjectDBX Classes
 90
     1153
280
     0
281
     0
  0
CLASS
  1
TABLESTYLE
  2
AcDbTableStyle
  3
ObjectDBX Classes
 90
     4095
280
     0
281
     0
  0
CLASS
  1
MLEADERSTYLE
  2
AcDbMLeaderStyle
  3
ACDB_MLEADERSTYLE_CLASS
 90
     4095
280
     0
281
     0
  0
CLASS
  1
SUN
  2
AcDbSun
  3
SCENEOE
 90
     1153
280
     0
281
     0
  0
CLASS
  1
DICTIONARYVAR
  2
AcDbDictionaryVar
  3
ObjectDBX Classes
 90
        0
280
     0
281
     0
  0
CLASS
  1
ACDBPLACEHOLDER
  2
AcDbPlaceHolder
  3
ObjectDBX Classes
 90
        0
280
     0
281
     0
  0
CLASS
  1
LAYOUT
  2
AcDbLayout
  3
ObjectDBX Classes
 90
        0
280
     0
281
     0
  0
ENDSEC
  0
SECTION
  2
TABLES
  0
TABLE
  2
VPORT
  5
8
102
{ACAD_XDICTIONARY
360
4A9
102
}
330
0
100
AcDbSymbolTable
 70
     1
  0
VPORT
  5
29
330
8
100
AcDbSymbolTableRecord
100
AcDbViewportTableRecord
  2
*Active
 70
     0
 10
0.0
 20
0.0
 11
1.0
 21
1.0
 12
8410.0
 22
8910.0
 13
0.0
 23
0.0
 14
1.0
 24
1.0
 15
0.0
 25
0.0
 16
0.0
 26
0.0
 36
1.0
 17
0.0
 27
0.0
 37
0.0
 40
17820.0
 41
0.688564
 42
50.0
 43
0.0
 44
0.0
 50
0.0
 51
0.0
 71
     0
 72
   100
 73
     1
 74
     3
 75
     0
 76
     0
 77
     0
 78
     0
281
     0
 65
     0
110
0.0
120
0.0
130
0.0
111
1.0
121
0.0
131
0.0
112
0.0
122
1.0
132
0.0
 79
     0
146
0.0
  0
ENDTAB
  0
TABLE
  2
LTYPE
  5
5
330
0
100
AcDbSymbolTable
 70
     3
  0
LTYPE
  5
14
330
5
100
AcDbSymbolTableRecord
100
AcDbLinetypeTableRecord
  2
ByBlock
 70
     0
  3

 72
    65
 73
     0
 40
0.0
  0
LTYPE
  5
15
330
5
100
AcDbSymbolTableRecord
100
AcDbLinetypeTableRecord
  2
ByLayer
 70
     0
  3

 72
    65
 73
     0
 40
0.0
  0
LTYPE
  5
16
330
5
100
AcDbSymbolTableRecord
100
AcDbLinetypeTableRecord
  2
Continuous
 70
     0
  3
Solid line
 72
    65
 73
     0
 40
0.0
  0
LTYPE
  5
B1
330
5
100
AcDbSymbolTableRecord
100
AcDbLinetypeTableRecord
  2
DASHED2
 70
     0
  3
_ _ _ _ _ _ _ _ _ _ _ _ _ _ _ _ _ _ _
 72
    65
 73
     2
 40
0.375
 49
0.25
 74
     0
 49
-0.125
 74
     0
  0
LTYPE
  5
B3
330
5
100
AcDbSymbolTableRecord
100
AcDbLinetypeTableRecord
  2
CENTER2
 70
     0
  3
___ _ ___ _ ___ _ ___ _ ___ _ ___ _ _
 72
    65
 73
     4
 40
1.125
 49
0.75
 74
     0
 49
-0.125
 74
     0
 49
0.125
 74
     0
 49
-0.125
 74
     0
  0
ENDTAB
  0
TABLE
  2
LAYER
  5
2
330
0
100
AcDbSymbolTable
 70
     8
  0
LAYER
  5
10
330
2
100
AcDbSymbolTableRecord
100
AcDbLayerTableRecord
  2
0
 70
     0
 62
     7
  6
Continuous
370
    -3
390
F
  0
LAYER
  5
B0
330
2
100
AcDbSymbolTableRecord
100
AcDbLayerTableRecord
  2
寸法
 70
     0
 62
     2
  6
Continuous
370
     5
390
F
  0
LAYER
  5
B2
330
2
100
AcDbSymbolTableRecord
100
AcDbLayerTableRecord
  2
06-ダクト内線
 70
     0
 62
     6
  6
DASHED2
370
     9
390
F
  0
LAYER
  5
B4
330
2
100
AcDbSymbolTableRecord
100
AcDbLayerTableRecord
  2
04-ダクトセンター
 70
     0
 62
     1
  6
CENTER2
370
     5
390
F
  0
LAYER
  5
B5
330
2
100
AcDbSymbolTableRecord
100
AcDbLayerTableRecord
  2
05-ダクト外線
 70
     0
 62
     4
  6
Continuous
370
    13
390
F
  0
LAYER
  5
B6
330
2
100
AcDbSymbolTableRecord
100
AcDbLayerTableRecord
  2
03-文字-2
 70
     0
 62
     7
  6
Continuous
370
     5
390
F
  0
LAYER
  5
B7
330
2
100
AcDbSymbolTableRecord
100
AcDbLayerTableRecord
  2
Defpoints
 70
     0
 62
    98
  6
Continuous
290
     0
370
    -3
390
F
  0
LAYER
  5
B8
330
2
100
AcDbSymbolTableRecord
100
AcDbLayerTableRecord
  2
シンボル
 70
     0
 62
     7
  6
Continuous
370
     5
390
F
  0
ENDTAB
  0
TABLE
  2
STYLE
  5
3
330
0
100
AcDbSymbolTable
 70
     4
  0
STYLE
  5
11
330
3
100
AcDbSymbolTableRecord
100
AcDbTextStyleTableRecord
  2
Standard
 70
     0
 40
0.0
 41
1.0
 50
0.0
 71
     0
 42
0.2
  3
txt
  4
extfont2
  0
STYLE
  5
6E
330
3
100
AcDbSymbolTableRecord
100
AcDbTextStyleTableRecord
  2
MONOSTYLE-H
 70
     0
 40
0.0
 41
1.0
 50
0.0
 71
     0
 42
0.2
  3
monotxt
  4
extfont2
  0
STYLE
  5
6F
330
3
100
AcDbSymbolTableRecord
100
AcDbTextStyleTableRecord
  2
TATEGAKI
 70
     4
 40
0.0
 41
1.0
 50
0.0
 71
     0
 42
0.2
  3
txt
  4
@extfont2
  0
STYLE
  5
70
330
3
100
AcDbSymbolTableRecord
100
AcDbTextStyleTableRecord
  2
MONOSTYLE-V
 70
     4
 40
0.0
 41
1.0
 50
0.0
 71
     0
 42
0.2
  3
monotxt
  4
@extfont2
  0
ENDTAB
  0
TABLE
  2
VIEW
  5
6
330
0
100
AcDbSymbolTable
 70
     0
  0
ENDTAB
  0
TABLE
  2
UCS
  5
7
330
0
100
AcDbSymbolTable
 70
     0
  0
ENDTAB
  0
TABLE
  2
APPID
  5
9
330
0
100
AcDbSymbolTable
 70
     2
  0
APPID
  5
12
330
9
100
AcDbSymbolTableRecord
100
AcDbRegAppTableRecord
  2
ACAD
 70
     0
  0
APPID
  5
4E3
330
9
100
AcDbSymbolTableRecord
100
AcDbRegAppTableRecord
  2
ACAD_MLEADERVER
 70
     0
  0
ENDTAB
  0
TABLE
  2
DIMSTYLE
  5
A
330
0
100
AcDbSymbolTable
 70
     1
100
AcDbDimStyleTable
  0
DIMSTYLE
105
27
330
A
100
AcDbSymbolTableRecord
100
AcDbDimStyleTableRecord
  2
Standard
 70
     0
178
     0
340
11
  0
ENDTAB
  0
TABLE
  2
BLOCK_RECORD
  5
1
330
0
100
AcDbSymbolTable
 70
    64
  0
BLOCK_RECORD
  5
1F
330
1
100
AcDbSymbolTableRecord
100
AcDbBlockTableRecord
  2
*Model_Space
340
22
  0
BLOCK_RECORD
  5
1B
330
1
100
AcDbSymbolTableRecord
100
AcDbBlockTableRecord
  2
*Paper_Space
340
1E
  0
BLOCK_RECORD
  5
D8
330
1
100
AcDbSymbolTableRecord
100
AcDbBlockTableRecord
  2
INS-DRBGF
340
0
102
{BLKREFS
331
DB
102
}
  0
BLOCK_RECORD
  5
E2
330
1
100
AcDbSymbolTableRecord
100
AcDbBlockTableRecord
  2
INS-DP1X4
340
0
102
{BLKREFS
331
E5
102
}
  0
BLOCK_RECORD
  5
EC
330
1
100
AcDbSymbolTableRecord
100
AcDbBlockTableRecord
  2
INS-D8AKV
340
0
102
{BLKREFS
331
EF
102
}
  0
BLOCK_RECORD
  5
F4
330
1
100
AcDbSymbolTableRecord
100
AcDbBlockTableRecord
  2
INS-D4BMN
340
0
102
{BLKREFS
331
F7
102
}
  0
BLOCK_RECORD
  5
131
330
1
100
AcDbSymbolTableRecord
100
AcDbBlockTableRecord
  2
INS-D6SXV
340
0
102
{BLKREFS
331
134
102
}
  0
BLOCK_RECORD
  5
13B
330
1
100
AcDbSymbolTableRecord
100
AcDbBlockTableRecord
  2
INS-D510W
340
0
102
{BLKREFS
331
13E
102
}
  0
BLOCK_RECORD
  5
145
330
1
100
AcDbSymbolTableRecord
100
AcDbBlockTableRecord
  2
INS-D66OD
340
0
102
{BLKREFS
331
148
102
}
  0
BLOCK_RECORD
  5
14D
330
1
100
AcDbSymbolTableRecord
100
AcDbBlockTableRecord
  2
INS-DZL7V
340
0
102
{BLKREFS
331
150
102
}
  0
BLOCK_RECORD
  5
16D
330
1
100
AcDbSymbolTableRecord
100
AcDbBlockTableRecord
  2
INS-D6OLI
340
0
102
{BLKREFS
331
170
102
}
  0
BLOCK_RECORD
  5
177
330
1
100
AcDbSymbolTableRecord
100
AcDbBlockTableRecord
  2
INS-D3U2F
340
0
102
{BLKREFS
331
17A
102
}
  0
BLOCK_RECORD
  5
181
330
1
100
AcDbSymbolTableRecord
100
AcDbBlockTableRecord
  2
INS-D799B
340
0
102
{BLKREFS
331
184
102
}
  0
BLOCK_RECORD
  5
189
330
1
100
AcDbSymbolTableRecord
100
AcDbBlockTableRecord
  2
INS-D6K4O
340
0
102
{BLKREFS
331
18C
102
}
  0
BLOCK_RECORD
  5
1A9
330
1
100
AcDbSymbolTableRecord
100
AcDbBlockTableRecord
  2
INS-D5V5R
340
0
102
{BLKREFS
331
1AC
102
}
  0
BLOCK_RECORD
  5
1B3
330
1
100
AcDbSymbolTableRecord
100
AcDbBlockTableRecord
  2
INS-D79IC
340
0
102
{BLKREFS
331
1B6
102
}
  0
BLOCK_RECORD
  5
1BD
330
1
100
AcDbSymbolTableRecord
100
AcDbBlockTableRecord
  2
INS-D7X52
340
0
102
{BLKREFS
331
1C0
102
}
  0
BLOCK_RECORD
  5
1C5
330
1
100
AcDbSymbolTableRecord
100
AcDbBlockTableRecord
  2
INS-D8W5G
340
0
102
{BLKREFS
331
1C8
102
}
  0
BLOCK_RECORD
  5
1E5
330
1
100
AcDbSymbolTableRecord
100
AcDbBlockTableRecord
  2
INS-DQADP
340
0
102
{BLKREFS
331
1E8
102
}
  0
BLOCK_RECORD
  5
1EF
330
1
100
AcDbSymbolTableRecord
100
AcDbBlockTableRecord
  2
INS-DEBCD
340
0
102
{BLKREFS
331
1F2
102
}
  0
BLOCK_RECORD
  5
1F9
330
1
100
AcDbSymbolTableRecord
100
AcDbBlockTableRecord
  2
INS-D4KG6
340
0
102
{BLKREFS
331
1FC
102
}
  0
BLOCK_RECORD
  5
201
330
1
100
AcDbSymbolTableRecord
100
AcDbBlockTableRecord
  2
INS-D47P4
340
0
102
{BLKREFS
331
204
102
}
  0
BLOCK_RECORD
  5
221
330
1
100
AcDbSymbolTableRecord
100
AcDbBlockTableRecord
  2
INS-D66P8
340
0
102
{BLKREFS
331
224
102
}
  0
BLOCK_RECORD
  5
22B
330
1
100
AcDbSymbolTableRecord
100
AcDbBlockTableRecord
  2
INS-D8J52
340
0
102
{BLKREFS
331
22E
102
}
  0
BLOCK_RECORD
  5
235
330
1
100
AcDbSymbolTableRecord
100
AcDbBlockTableRecord
  2
INS-DR7WJ
340
0
102
{BLKREFS
331
238
102
}
  0
BLOCK_RECORD
  5
23D
330
1
100
AcDbSymbolTableRecord
100
AcDbBlockTableRecord
  2
INS-D3RIW
340
0
102
{BLKREFS
331
240
102
}
  0
BLOCK_RECORD
  5
25D
330
1
100
AcDbSymbolTableRecord
100
AcDbBlockTableRecord
  2
INS-D7JH8
340
0
102
{BLKREFS
331
260
102
}
  0
BLOCK_RECORD
  5
267
330
1
100
AcDbSymbolTableRecord
100
AcDbBlockTableRecord
  2
INS-DCF7A
340
0
102
{BLKREFS
331
26A
102
}
  0
BLOCK_RECORD
  5
271
330
1
100
AcDbSymbolTableRecord
100
AcDbBlockTableRecord
  2
INS-DO5WJ
340
0
102
{BLKREFS
331
274
102
}
  0
BLOCK_RECORD
  5
279
330
1
100
AcDbSymbolTableRecord
100
AcDbBlockTableRecord
  2
INS-D5WJ7
340
0
102
{BLKREFS
331
27C
102
}
  0
BLOCK_RECORD
  5
299
330
1
100
AcDbSymbolTableRecord
100
AcDbBlockTableRecord
  2
INS-DGK5E
340
0
102
{BLKREFS
331
29C
102
}
  0
BLOCK_RECORD
  5
2A3
330
1
100
AcDbSymbolTableRecord
100
AcDbBlockTableRecord
  2
INS-DOX5G
340
0
102
{BLKREFS
331
2A6
102
}
  0
BLOCK_RECORD
  5
2AD
330
1
100
AcDbSymbolTableRecord
100
AcDbBlockTableRecord
  2
INS-DZIYU
340
0
102
{BLKREFS
331
2B0
102
}
  0
BLOCK_RECORD
  5
2B5
330
1
100
AcDbSymbolTableRecord
100
AcDbBlockTableRecord
  2
INS-D5I98
340
0
102
{BLKREFS
331
2B8
102
}
  0
BLOCK_RECORD
  5
2D5
330
1
100
AcDbSymbolTableRecord
100
AcDbBlockTableRecord
  2
INS-D8D8F
340
0
102
{BLKREFS
331
2D8
102
}
  0
BLOCK_RECORD
  5
2DF
330
1
100
AcDbSymbolTableRecord
100
AcDbBlockTableRecord
  2
INS-DJAD0
340
0
102
{BLKREFS
331
2E2
102
}
  0
BLOCK_RECORD
  5
2E9
330
1
100
AcDbSymbolTableRecord
100
AcDbBlockTableRecord
  2
INS-D4XZZ
340
0
102
{BLKREFS
331
2EC
102
}
  0
BLOCK_RECORD
  5
2F1
330
1
100
AcDbSymbolTableRecord
100
AcDbBlockTableRecord
  2
INS-D4Z86
340
0
102
{BLKREFS
331
2F4
102
}
  0
BLOCK_RECORD
  5
311
330
1
100
AcDbSymbolTableRecord
100
AcDbBlockTableRecord
  2
INS-D94NW
340
0
102
{BLKREFS
331
314
102
}
  0
BLOCK_RECORD
  5
31B
330
1
100
AcDbSymbolTableRecord
100
AcDbBlockTableRecord
  2
INS-D8DN6
340
0
102
{BLKREFS
331
31E
102
}
  0
BLOCK_RECORD
  5
325
330
1
100
AcDbSymbolTableRecord
100
AcDbBlockTableRecord
  2
INS-D8UPD
340
0
102
{BLKREFS
331
328
102
}
  0
BLOCK_RECORD
  5
32D
330
1
100
AcDbSymbolTableRecord
100
AcDbBlockTableRecord
  2
INS-D5SJW
340
0
102
{BLKREFS
331
330
102
}
  0
BLOCK_RECORD
  5
343
330
1
100
AcDbSymbolTableRecord
100
AcDbBlockTableRecord
  2
INS-D3MPO
340
0
102
{BLKREFS
331
346
102
}
  0
BLOCK_RECORD
  5
34D
330
1
100
AcDbSymbolTableRecord
100
AcDbBlockTableRecord
  2
INS-D7XZK
340
0
102
{BLKREFS
331
350
102
}
  0
BLOCK_RECORD
  5
357
330
1
100
AcDbSymbolTableRecord
100
AcDbBlockTableRecord
  2
INS-D8RP6
340
0
102
{BLKREFS
331
35A
102
}
  0
BLOCK_RECORD
  5
35F
330
1
100
AcDbSymbolTableRecord
100
AcDbBlockTableRecord
  2
INS-DNNOS
340
0
102
{BLKREFS
331
362
102
}
  0
BLOCK_RECORD
  5
37F
330
1
100
AcDbSymbolTableRecord
100
AcDbBlockTableRecord
  2
INS-DLX5I
340
0
102
{BLKREFS
331
382
102
}
  0
BLOCK_RECORD
  5
389
330
1
100
AcDbSymbolTableRecord
100
AcDbBlockTableRecord
  2
INS-D7DQV
340
0
102
{BLKREFS
331
38C
102
}
  0
BLOCK_RECORD
  5
393
330
1
100
AcDbSymbolTableRecord
100
AcDbBlockTableRecord
  2
INS-DSAIC
340
0
102
{BLKREFS
331
396
102
}
  0
BLOCK_RECORD
  5
39B
330
1
100
AcDbSymbolTableRecord
100
AcDbBlockTableRecord
  2
INS-D93JO
340
0
102
{BLKREFS
331
39E
102
}
  0
BLOCK_RECORD
  5
3BB
330
1
100
AcDbSymbolTableRecord
100
AcDbBlockTableRecord
  2
INS-D4W31
340
0
102
{BLKREFS
331
3BE
102
}
  0
BLOCK_RECORD
  5
3C5
330
1
100
AcDbSymbolTableRecord
100
AcDbBlockTableRecord
  2
INS-D5R72
340
0
102
{BLKREFS
331
3C8
102
}
  0
BLOCK_RECORD
  5
3CF
330
1
100
AcDbSymbolTableRecord
100
AcDbBlockTableRecord
  2
INS-DX9M5
340
0
102
{BLKREFS
331
3D2
102
}
  0
BLOCK_RECORD
  5
3D7
330
1
100
AcDbSymbolTableRecord
100
AcDbBlockTableRecord
  2
INS-D6RF5
340
0
102
{BLKREFS
331
3DA
102
}
  0
BLOCK_RECORD
  5
3F7
330
1
100
AcDbSymbolTableRecord
100
AcDbBlockTableRecord
  2
INS-D8JC3
340
0
102
{BLKREFS
331
3FA
102
}
  0
BLOCK_RECORD
  5
401
330
1
100
AcDbSymbolTableRecord
100
AcDbBlockTableRecord
  2
INS-DJBEG
340
0
102
{BLKREFS
331
404
102
}
  0
BLOCK_RECORD
  5
40B
330
1
100
AcDbSymbolTableRecord
100
AcDbBlockTableRecord
  2
INS-D8NJ7
340
0
102
{BLKREFS
331
40E
102
}
  0
BLOCK_RECORD
  5
413
330
1
100
AcDbSymbolTableRecord
100
AcDbBlockTableRecord
  2
INS-D85HI
340
0
102
{BLKREFS
331
416
102
}
  0
BLOCK_RECORD
  5
433
330
1
100
AcDbSymbolTableRecord
100
AcDbBlockTableRecord
  2
INS-D70QF
340
0
102
{BLKREFS
331
436
102
}
  0
BLOCK_RECORD
  5
43D
330
1
100
AcDbSymbolTableRecord
100
AcDbBlockTableRecord
  2
INS-DXXSJ
340
0
102
{BLKREFS
331
440
102
}
  0
BLOCK_RECORD
  5
447
330
1
100
AcDbSymbolTableRecord
100
AcDbBlockTableRecord
  2
INS-DRJNF
340
0
102
{BLKREFS
331
44A
102
}
  0
BLOCK_RECORD
  5
44F
330
1
100
AcDbSymbolTableRecord
100
AcDbBlockTableRecord
  2
INS-DQ13F
340
0
102
{BLKREFS
331
452
102
}
  0
BLOCK_RECORD
  5
46F
330
1
100
AcDbSymbolTableRecord
100
AcDbBlockTableRecord
  2
INS-D5ZZ5
340
0
102
{BLKREFS
331
472
102
}
  0
BLOCK_RECORD
  5
479
330
1
100
AcDbSymbolTableRecord
100
AcDbBlockTableRecord
  2
INS-D8IRS
340
0
102
{BLKREFS
331
47C
102
}
  0
BLOCK_RECORD
  5
483
330
1
100
AcDbSymbolTableRecord
100
AcDbBlockTableRecord
  2
INS-DB2EL
340
0
102
{BLKREFS
331
486
102
}
  0
BLOCK_RECORD
  5
48B
330
1
100
AcDbSymbolTableRecord
100
AcDbBlockTableRecord
  2
INS-DZ4BF
340
0
102
{BLKREFS
331
48E
102
}
  0
ENDTAB
  0
ENDSEC
  0
SECTION
  2
BLOCKS
  0
BLOCK
  5
20
330
1F
100
AcDbEntity
  8
0
100
AcDbBlockBegin
  2
*Model_Space
 70
     0
 10
0.0
 20
0.0
 30
0.0
  3
*Model_Space
  1

  0
ENDBLK
  5
21
330
1F
100
AcDbEntity
  8
0
100
AcDbBlockEnd
  0
BLOCK
  5
1C
330
1B
100
AcDbEntity
 67
     1
  8
0
100
AcDbBlockBegin
  2
*Paper_Space
 70
     0
 10
0.0
 20
0.0
 30
0.0
  3
*Paper_Space
  1

  0
ENDBLK
  5
1D
330
1B
100
AcDbEntity
 67
     1
  8
0
100
AcDbBlockEnd
  0
BLOCK
  5
D9
330
D8
100
AcDbEntity
  8
0
100
AcDbBlockBegin
  2
INS-DRBGF
 70
     0
 10
0.0
 20
0.0
 30
0.0
  3
INS-DRBGF
  1

  0
TEXT
  5
DC
330
D8
100
AcDbEntity
  8
寸法
  6
Continuous
100
AcDbText
 10
-31.69988477612787
 20
-32.28000000000363
 30
0.0
 40
19.982
  1
φ73
 50
90.0
 41
1.056781492035411
 72
     1
 11
-31.69988477612787
 21
-0.000000000003638
 31
0.0
100
AcDbText
  0
LINE
  5
DD
330
D8
100
AcDbEntity
  8
寸法
  6
Continuous
100
AcDbLine
 10
55.30011522387213
 20
-36.50000000000364
 30
0.0
 11
-21.69988477612787
 21
-36.50000000000364
 31
0.0
  0
LINE
  5
DE
330
D8
100
AcDbEntity
  8
寸法
  6
Continuous
100
AcDbLine
 10
55.30011522387213
 20
36.49999999999636
 30
0.0
 11
-21.69988477612787
 21
36.49999999999636
 31
0.0
  0
LINE
  5
DF
330
D8
100
AcDbEntity
  8
寸法
  6
Continuous
100
AcDbLine
 10
-21.69988477612787
 20
36.49999999999636
 30
0.0
 11
-21.69988477612787
 21
-36.50000000000364
 31
0.0
  0
LWPOLYLINE
  5
E0
330
D8
100
AcDbEntity
  8
寸法
  6
Continuous
100
AcDbPolyline
 90
        3
 70
     0
 43
0.0
 10
-24.28807522715215
 20
26.84074173710542
 10
-21.69988477612787
 20
36.49999999999636
 10
-19.1116943251036
 20
26.84074173710542
  0
LWPOLYLINE
  5
E1
330
D8
100
AcDbEntity
  8
寸法
  6
Continuous
100
AcDbPolyline
 90
        3
 70
     0
 43
0.0
 10
-19.1116943251036
 20
-26.84074173711269
 10
-21.69988477612787
 20
-36.50000000000364
 10
-24.28807522715215
 20
-26.84074173711269
  0
ENDBLK
  5
DA
330
D8
100
AcDbEntity
  8
0
100
AcDbBlockEnd
  0
BLOCK
  5
E3
330
E2
100
AcDbEntity
  8
0
100
AcDbBlockBegin
  2
INS-DP1X4
 70
     0
 10
0.0
 20
0.0
 30
0.0
  3
INS-DP1X4
  1

  0
TEXT
  5
E6
330
E2
100
AcDbEntity
  8
寸法
  6
Continuous
100
AcDbText
 10
-28.53988477612715
 20
28.54999999999563
 30
0.0
 40
19.982
  1
60
 41
1.089505144794249
 72
     1
 11
-9.999884776127146
 21
28.54999999999563
 31
0.0
100
AcDbText
  0
LINE
  5
E7
330
E2
100
AcDbEntity
  8
寸法
  6
Continuous
100
AcDbLine
 10
30.00011522387285
 20
-51.15000000000509
 30
0.0
 11
30.00011522387285
 21
18.84999999999491
 31
0.0
  0
LINE
  5
E8
330
E2
100
AcDbEntity
  8
寸法
  6
Continuous
100
AcDbLine
 10
-29.99988477612715
 20
-52.15000000000509
 30
0.0
 11
-29.99988477612715
 21
18.84999999999491
 31
0.0
  0
LINE
  5
E9
330
E2
100
AcDbEntity
  8
寸法
  6
Continuous
100
AcDbLine
 10
-29.99988477612715
 20
18.84999999999491
 30
0.0
 11
30.00011522387285
 21
18.84999999999491
 31
0.0
  0
LWPOLYLINE
  5
EA
330
E2
100
AcDbEntity
  8
寸法
  6
Continuous
100
AcDbPolyline
 90
        3
 70
     0
 43
0.0
 10
-20.3406265132362
 20
16.26180954897063
 10
-29.99988477612715
 20
18.84999999999491
 10
-20.3406265132362
 20
21.43819045101918
  0
LWPOLYLINE
  5
EB
330
E2
100
AcDbEntity
  8
寸法
  6
Continuous
100
AcDbPolyline
 90
        3
 70
     0
 43
0.0
 10
20.34085696098191
 20
21.43819045101918
 10
30.00011522387285
 20
18.84999999999491
 10
20.34085696098191
 20
16.26180954897063
  0
ENDBLK
  5
E4
330
E2
100
AcDbEntity
  8
0
100
AcDbBlockEnd
  0
BLOCK
  5
ED
330
EC
100
AcDbEntity
  8
0
100
AcDbBlockBegin
  2
INS-D8AKV
 70
     0
 10
0.0
 20
0.0
 30
0.0
  3
INS-D8AKV
  1

  0
TEXT
  5
F0
330
EC
100
AcDbEntity
  8
寸法
  6
Continuous
100
AcDbText
 10
-15.17988477612714
 20
28.19999999999709
 30
0.0
 40
19.982
  1
10
 41
1.089505144794249
 72
     1
 11
0.0001152238728537
 21
28.19999999999709
 31
0.0
100
AcDbText
  0
LINE
  5
F1
330
EC
100
AcDbEntity
  8
寸法
  6
Continuous
100
AcDbLine
 10
5.000115223872854
 20
-51.80000000000291
 30
0.0
 11
5.000115223872854
 21
18.19999999999709
 31
0.0
  0
LINE
  5
F2
330
EC
100
AcDbEntity
  8
寸法
  6
Continuous
100
AcDbLine
 10
-4.999884776127146
 20
-51.80000000000291
 30
0.0
 11
-4.999884776127146
 21
18.19999999999709
 31
0.0
  0
LINE
  5
F3
330
EC
100
AcDbEntity
  8
寸法
  6
Continuous
100
AcDbLine
 10
-4.999884776127146
 20
18.19999999999709
 30
0.0
 11
5.000115223872854
 21
18.19999999999709
 31
0.0
  0
ENDBLK
  5
EE
330
EC
100
AcDbEntity
  8
0
100
AcDbBlockEnd
  0
BLOCK
  5
F5
330
F4
100
AcDbEntity
  8
0
100
AcDbBlockBegin
  2
INS-D4BMN
 70
     0
 10
0.0
 20
0.0
 30
0.0
  3
INS-D4BMN
  1

  0
TEXT
  5
F8
330
F4
100
AcDbEntity
  8
寸法
  6
Continuous
100
AcDbText
 10
-6.309884776127582
 20
28.54999999999563
 30
0.0
 40
19.982
  1
60
 41
1.089505144794249
 72
     1
 11
12.23011522387242
 21
28.54999999999563
 31
0.0
100
AcDbText
  0
LINE
  5
F9
330
F4
100
AcDbEntity
  8
寸法
  6
Continuous
100
AcDbLine
 10
29.23011522387242
 20
-52.15000000000509
 30
0.0
 11
29.23011522387242
 21
18.84999999999491
 31
0.0
  0
LINE
  5
FA
330
F4
100
AcDbEntity
  8
寸法
  6
Continuous
100
AcDbLine
 10
-30.76988477612758
 20
-51.15000000000509
 30
0.0
 11
-30.76988477612758
 21
18.84999999999491
 31
0.0
  0
LINE
  5
FB
330
F4
100
AcDbEntity
  8
寸法
  6
Continuous
100
AcDbLine
 10
-30.76988477612758
 20
18.84999999999491
 30
0.0
 11
29.23011522387242
 21
18.84999999999491
 31
0.0
  0
LWPOLYLINE
  5
FC
330
F4
100
AcDbEntity
  8
寸法
  6
Continuous
100
AcDbPolyline
 90
        3
 70
     0
 43
0.0
 10
-21.11062651323664
 20
16.26180954897063
 10
-30.76988477612758
 20
18.84999999999491
 10
-21.11062651323664
 20
21.43819045101918
  0
LWPOLYLINE
  5
FD
330
F4
100
AcDbEntity
  8
寸法
  6
Continuous
100
AcDbPolyline
 90
        3
 70
     0
 43
0.0
 10
19.57085696098147
 20
21.43819045101918
 10
29.23011522387242
 20
18.84999999999491
 10
19.57085696098147
 20
16.26180954897063
  0
ENDBLK
  5
F6
330
F4
100
AcDbEntity
  8
0
100
AcDbBlockEnd
  0
BLOCK
  5
132
330
131
100
AcDbEntity
  8
0
100
AcDbBlockBegin
  2
INS-D6SXV
 70
     0
 10
0.0
 20
0.0
 30
0.0
  3
INS-D6SXV
  1

  0
TEXT
  5
135
330
131
100
AcDbEntity
  8
寸法
  6
Continuous
100
AcDbText
 10
-31.69988477612787
 20
-32.28000000000363
 30
0.0
 40
19.982
  1
φ98
 50
90.0
 41
1.056781492035411
 72
     1
 11
-31.69988477612787
 21
-0.000000000003638
 31
0.0
100
AcDbText
  0
LINE
  5
136
330
131
100
AcDbEntity
  8
寸法
  6
Continuous
100
AcDbLine
 10
55.30011522387213
 20
-49.00000000000364
 30
0.0
 11
-21.69988477612787
 21
-49.00000000000364
 31
0.0
  0
LINE
  5
137
330
131
100
AcDbEntity
  8
寸法
  6
Continuous
100
AcDbLine
 10
55.30011522387213
 20
48.99999999999636
 30
0.0
 11
-21.69988477612787
 21
48.99999999999636
 31
0.0
  0
LINE
  5
138
330
131
100
AcDbEntity
  8
寸法
  6
Continuous
100
AcDbLine
 10
-21.69988477612787
 20
48.99999999999636
 30
0.0
 11
-21.69988477612787
 21
-49.00000000000364
 31
0.0
  0
LWPOLYLINE
  5
139
330
131
100
AcDbEntity
  8
寸法
  6
Continuous
100
AcDbPolyline
 90
        3
 70
     0
 43
0.0
 10
-24.28807522715215
 20
39.34074173710542
 10
-21.69988477612787
 20
48.99999999999636
 10
-19.1116943251036
 20
39.34074173710542
  0
LWPOLYLINE
  5
13A
330
131
100
AcDbEntity
  8
寸法
  6
Continuous
100
AcDbPolyline
 90
        3
 70
     0
 43
0.0
 10
-19.1116943251036
 20
-39.34074173711269
 10
-21.69988477612787
 20
-49.00000000000364
 10
-24.28807522715215
 20
-39.34074173711269
  0
ENDBLK
  5
133
330
131
100
AcDbEntity
  8
0
100
AcDbBlockEnd
  0
BLOCK
  5
13C
330
13B
100
AcDbEntity
  8
0
100
AcDbBlockBegin
  2
INS-D510W
 70
     0
 10
0.0
 20
0.0
 30
0.0
  3
INS-D510W
  1

  0
TEXT
  5
13F
330
13B
100
AcDbEntity
  8
寸法
  6
Continuous
100
AcDbText
 10
-28.53988477612715
 20
28.54999999999563
 30
0.0
 40
19.982
  1
60
 41
1.089505144794249
 72
     1
 11
-9.999884776127146
 21
28.54999999999563
 31
0.0
100
AcDbText
  0
LINE
  5
140
330
13B
100
AcDbEntity
  8
寸法
  6
Continuous
100
AcDbLine
 10
30.00011522387285
 20
-51.15000000000509
 30
0.0
 11
30.00011522387285
 21
18.84999999999491
 31
0.0
  0
LINE
  5
141
330
13B
100
AcDbEntity
  8
寸法
  6
Continuous
100
AcDbLine
 10
-29.99988477612715
 20
-52.15000000000509
 30
0.0
 11
-29.99988477612715
 21
18.84999999999491
 31
0.0
  0
LINE
  5
142
330
13B
100
AcDbEntity
  8
寸法
  6
Continuous
100
AcDbLine
 10
-29.99988477612715
 20
18.84999999999491
 30
0.0
 11
30.00011522387285
 21
18.84999999999491
 31
0.0
  0
LWPOLYLINE
  5
143
330
13B
100
AcDbEntity
  8
寸法
  6
Continuous
100
AcDbPolyline
 90
        3
 70
     0
 43
0.0
 10
-20.3406265132362
 20
16.26180954897063
 10
-29.99988477612715
 20
18.84999999999491
 10
-20.3406265132362
 20
21.43819045101918
  0
LWPOLYLINE
  5
144
330
13B
100
AcDbEntity
  8
寸法
  6
Continuous
100
AcDbPolyline
 90
        3
 70
     0
 43
0.0
 10
20.34085696098191
 20
21.43819045101918
 10
30.00011522387285
 20
18.84999999999491
 10
20.34085696098191
 20
16.26180954897063
  0
ENDBLK
  5
13D
330
13B
100
AcDbEntity
  8
0
100
AcDbBlockEnd
  0
BLOCK
  5
146
330
145
100
AcDbEntity
  8
0
100
AcDbBlockBegin
  2
INS-D66OD
 70
     0
 10
0.0
 20
0.0
 30
0.0
  3
INS-D66OD
  1

  0
TEXT
  5
149
330
145
100
AcDbEntity
  8
寸法
  6
Continuous
100
AcDbText
 10
-15.17988477612714
 20
28.19999999999709
 30
0.0
 40
19.982
  1
10
 41
1.089505144794249
 72
     1
 11
0.0001152238728537
 21
28.19999999999709
 31
0.0
100
AcDbText
  0
LINE
  5
14A
330
145
100
AcDbEntity
  8
寸法
  6
Continuous
100
AcDbLine
 10
5.000115223872854
 20
-51.80000000000291
 30
0.0
 11
5.000115223872854
 21
18.19999999999709
 31
0.0
  0
LINE
  5
14B
330
145
100
AcDbEntity
  8
寸法
  6
Continuous
100
AcDbLine
 10
-4.999884776127146
 20
-51.80000000000291
 30
0.0
 11
-4.999884776127146
 21
18.19999999999709
 31
0.0
  0
LINE
  5
14C
330
145
100
AcDbEntity
  8
寸法
  6
Continuous
100
AcDbLine
 10
-4.999884776127146
 20
18.19999999999709
 30
0.0
 11
5.000115223872854
 21
18.19999999999709
 31
0.0
  0
ENDBLK
  5
147
330
145
100
AcDbEntity
  8
0
100
AcDbBlockEnd
  0
BLOCK
  5
14E
330
14D
100
AcDbEntity
  8
0
100
AcDbBlockBegin
  2
INS-DZL7V
 70
     0
 10
0.0
 20
0.0
 30
0.0
  3
INS-DZL7V
  1

  0
TEXT
  5
151
330
14D
100
AcDbEntity
  8
寸法
  6
Continuous
100
AcDbText
 10
-6.309884776127582
 20
28.54999999999563
 30
0.0
 40
19.982
  1
60
 41
1.089505144794249
 72
     1
 11
12.23011522387242
 21
28.54999999999563
 31
0.0
100
AcDbText
  0
LINE
  5
152
330
14D
100
AcDbEntity
  8
寸法
  6
Continuous
100
AcDbLine
 10
29.23011522387242
 20
-52.15000000000509
 30
0.0
 11
29.23011522387242
 21
18.84999999999491
 31
0.0
  0
LINE
  5
153
330
14D
100
AcDbEntity
  8
寸法
  6
Continuous
100
AcDbLine
 10
-30.76988477612758
 20
-51.15000000000509
 30
0.0
 11
-30.76988477612758
 21
18.84999999999491
 31
0.0
  0
LINE
  5
154
330
14D
100
AcDbEntity
  8
寸法
  6
Continuous
100
AcDbLine
 10
-30.76988477612758
 20
18.84999999999491
 30
0.0
 11
29.23011522387242
 21
18.84999999999491
 31
0.0
  0
LWPOLYLINE
  5
155
330
14D
100
AcDbEntity
  8
寸法
  6
Continuous
100
AcDbPolyline
 90
        3
 70
     0
 43
0.0
 10
-21.11062651323664
 20
16.26180954897063
 10
-30.76988477612758
 20
18.84999999999491
 10
-21.11062651323664
 20
21.43819045101918
  0
LWPOLYLINE
  5
156
330
14D
100
AcDbEntity
  8
寸法
  6
Continuous
100
AcDbPolyline
 90
        3
 70
     0
 43
0.0
 10
19.57085696098147
 20
21.43819045101918
 10
29.23011522387242
 20
18.84999999999491
 10
19.57085696098147
 20
16.26180954897063
  0
ENDBLK
  5
14F
330
14D
100
AcDbEntity
  8
0
100
AcDbBlockEnd
  0
BLOCK
  5
16E
330
16D
100
AcDbEntity
  8
0
100
AcDbBlockBegin
  2
INS-D6OLI
 70
     0
 10
0.0
 20
0.0
 30
0.0
  3
INS-D6OLI
  1

  0
TEXT
  5
171
330
16D
100
AcDbEntity
  8
寸法
  6
Continuous
100
AcDbText
 10
-31.69988477612787
 20
-39.06000000000365
 30
0.0
 40
19.982
  1
φ123
 50
90.0
 41
1.041145908602337
 72
     1
 11
-31.69988477612787
 21
-0.0000000000036451
 31
0.0
100
AcDbText
  0
LINE
  5
172
330
16D
100
AcDbEntity
  8
寸法
  6
Continuous
100
AcDbLine
 10
55.30011522387213
 20
-61.50000000000364
 30
0.0
 11
-21.69988477612787
 21
-61.50000000000364
 31
0.0
  0
LINE
  5
173
330
16D
100
AcDbEntity
  8
寸法
  6
Continuous
100
AcDbLine
 10
55.30011522387213
 20
61.49999999999636
 30
0.0
 11
-21.69988477612787
 21
61.49999999999636
 31
0.0
  0
LINE
  5
174
330
16D
100
AcDbEntity
  8
寸法
  6
Continuous
100
AcDbLine
 10
-21.69988477612787
 20
61.49999999999636
 30
0.0
 11
-21.69988477612787
 21
-61.50000000000364
 31
0.0
  0
LWPOLYLINE
  5
175
330
16D
100
AcDbEntity
  8
寸法
  6
Continuous
100
AcDbPolyline
 90
        3
 70
     0
 43
0.0
 10
-24.28807522715215
 20
51.84074173710542
 10
-21.69988477612787
 20
61.49999999999636
 10
-19.1116943251036
 20
51.84074173710542
  0
LWPOLYLINE
  5
176
330
16D
100
AcDbEntity
  8
寸法
  6
Continuous
100
AcDbPolyline
 90
        3
 70
     0
 43
0.0
 10
-19.1116943251036
 20
-51.84074173711269
 10
-21.69988477612787
 20
-61.50000000000364
 10
-24.28807522715215
 20
-51.84074173711269
  0
ENDBLK
  5
16F
330
16D
100
AcDbEntity
  8
0
100
AcDbBlockEnd
  0
BLOCK
  5
178
330
177
100
AcDbEntity
  8
0
100
AcDbBlockBegin
  2
INS-D3U2F
 70
     0
 10
0.0
 20
0.0
 30
0.0
  3
INS-D3U2F
  1

  0
TEXT
  5
17B
330
177
100
AcDbEntity
  8
寸法
  6
Continuous
100
AcDbText
 10
-28.53988477612715
 20
28.54999999999563
 30
0.0
 40
19.982
  1
60
 41
1.089505144794249
 72
     1
 11
-9.999884776127146
 21
28.54999999999563
 31
0.0
100
AcDbText
  0
LINE
  5
17C
330
177
100
AcDbEntity
  8
寸法
  6
Continuous
100
AcDbLine
 10
30.00011522387285
 20
-51.15000000000509
 30
0.0
 11
30.00011522387285
 21
18.84999999999491
 31
0.0
  0
LINE
  5
17D
330
177
100
AcDbEntity
  8
寸法
  6
Continuous
100
AcDbLine
 10
-29.99988477612715
 20
-52.15000000000509
 30
0.0
 11
-29.99988477612715
 21
18.84999999999491
 31
0.0
  0
LINE
  5
17E
330
177
100
AcDbEntity
  8
寸法
  6
Continuous
100
AcDbLine
 10
-29.99988477612715
 20
18.84999999999491
 30
0.0
 11
30.00011522387285
 21
18.84999999999491
 31
0.0
  0
LWPOLYLINE
  5
17F
330
177
100
AcDbEntity
  8
寸法
  6
Continuous
100
AcDbPolyline
 90
        3
 70
     0
 43
0.0
 10
-20.3406265132362
 20
16.26180954897063
 10
-29.99988477612715
 20
18.84999999999491
 10
-20.3406265132362
 20
21.43819045101918
  0
LWPOLYLINE
  5
180
330
177
100
AcDbEntity
  8
寸法
  6
Continuous
100
AcDbPolyline
 90
        3
 70
     0
 43
0.0
 10
20.34085696098191
 20
21.43819045101918
 10
30.00011522387285
 20
18.84999999999491
 10
20.34085696098191
 20
16.26180954897063
  0
ENDBLK
  5
179
330
177
100
AcDbEntity
  8
0
100
AcDbBlockEnd
  0
BLOCK
  5
182
330
181
100
AcDbEntity
  8
0
100
AcDbBlockBegin
  2
INS-D799B
 70
     0
 10
0.0
 20
0.0
 30
0.0
  3
INS-D799B
  1

  0
TEXT
  5
185
330
181
100
AcDbEntity
  8
寸法
  6
Continuous
100
AcDbText
 10
-15.17988477612714
 20
28.19999999999709
 30
0.0
 40
19.982
  1
10
 41
1.089505144794249
 72
     1
 11
0.0001152238728537
 21
28.19999999999709
 31
0.0
100
AcDbText
  0
LINE
  5
186
330
181
100
AcDbEntity
  8
寸法
  6
Continuous
100
AcDbLine
 10
5.000115223872854
 20
-51.80000000000291
 30
0.0
 11
5.000115223872854
 21
18.19999999999709
 31
0.0
  0
LINE
  5
187
330
181
100
AcDbEntity
  8
寸法
  6
Continuous
100
AcDbLine
 10
-4.999884776127146
 20
-51.80000000000291
 30
0.0
 11
-4.999884776127146
 21
18.19999999999709
 31
0.0
  0
LINE
  5
188
330
181
100
AcDbEntity
  8
寸法
  6
Continuous
100
AcDbLine
 10
-4.999884776127146
 20
18.19999999999709
 30
0.0
 11
5.000115223872854
 21
18.19999999999709
 31
0.0
  0
ENDBLK
  5
183
330
181
100
AcDbEntity
  8
0
100
AcDbBlockEnd
  0
BLOCK
  5
18A
330
189
100
AcDbEntity
  8
0
100
AcDbBlockBegin
  2
INS-D6K4O
 70
     0
 10
0.0
 20
0.0
 30
0.0
  3
INS-D6K4O
  1

  0
TEXT
  5
18D
330
189
100
AcDbEntity
  8
寸法
  6
Continuous
100
AcDbText
 10
-6.309884776127582
 20
28.54999999999563
 30
0.0
 40
19.982
  1
60
 41
1.089505144794249
 72
     1
 11
12.23011522387242
 21
28.54999999999563
 31
0.0
100
AcDbText
  0
LINE
  5
18E
330
189
100
AcDbEntity
  8
寸法
  6
Continuous
100
AcDbLine
 10
29.23011522387242
 20
-52.15000000000509
 30
0.0
 11
29.23011522387242
 21
18.84999999999491
 31
0.0
  0
LINE
  5
18F
330
189
100
AcDbEntity
  8
寸法
  6
Continuous
100
AcDbLine
 10
-30.76988477612758
 20
-51.15000000000509
 30
0.0
 11
-30.76988477612758
 21
18.84999999999491
 31
0.0
  0
LINE
  5
190
330
189
100
AcDbEntity
  8
寸法
  6
Continuous
100
AcDbLine
 10
-30.76988477612758
 20
18.84999999999491
 30
0.0
 11
29.23011522387242
 21
18.84999999999491
 31
0.0
  0
LWPOLYLINE
  5
191
330
189
100
AcDbEntity
  8
寸法
  6
Continuous
100
AcDbPolyline
 90
        3
 70
     0
 43
0.0
 10
-21.11062651323664
 20
16.26180954897063
 10
-30.76988477612758
 20
18.84999999999491
 10
-21.11062651323664
 20
21.43819045101918
  0
LWPOLYLINE
  5
192
330
189
100
AcDbEntity
  8
寸法
  6
Continuous
100
AcDbPolyline
 90
        3
 70
     0
 43
0.0
 10
19.57085696098147
 20
21.43819045101918
 10
29.23011522387242
 20
18.84999999999491
 10
19.57085696098147
 20
16.26180954897063
  0
ENDBLK
  5
18B
330
189
100
AcDbEntity
  8
0
100
AcDbBlockEnd
  0
BLOCK
  5
1AA
330
1A9
100
AcDbEntity
  8
0
100
AcDbBlockBegin
  2
INS-D5V5R
 70
     0
 10
0.0
 20
0.0
 30
0.0
  3
INS-D5V5R
  1

  0
TEXT
  5
1AD
330
1A9
100
AcDbEntity
  8
寸法
  6
Continuous
100
AcDbText
 10
-31.69988477612787
 20
-39.06000000000365
 30
0.0
 40
19.982
  1
φ148
 50
90.0
 41
1.041145908602337
 72
     1
 11
-31.69988477612787
 21
-0.0000000000036451
 31
0.0
100
AcDbText
  0
LINE
  5
1AE
330
1A9
100
AcDbEntity
  8
寸法
  6
Continuous
100
AcDbLine
 10
55.30011522387213
 20
-74.00000000000364
 30
0.0
 11
-21.69988477612787
 21
-74.00000000000364
 31
0.0
  0
LINE
  5
1AF
330
1A9
100
AcDbEntity
  8
寸法
  6
Continuous
100
AcDbLine
 10
55.30011522387213
 20
73.99999999999636
 30
0.0
 11
-21.69988477612787
 21
73.99999999999636
 31
0.0
  0
LINE
  5
1B0
330
1A9
100
AcDbEntity
  8
寸法
  6
Continuous
100
AcDbLine
 10
-21.69988477612787
 20
73.99999999999636
 30
0.0
 11
-21.69988477612787
 21
-74.00000000000364
 31
0.0
  0
LWPOLYLINE
  5
1B1
330
1A9
100
AcDbEntity
  8
寸法
  6
Continuous
100
AcDbPolyline
 90
        3
 70
     0
 43
0.0
 10
-24.28807522715215
 20
64.34074173710542
 10
-21.69988477612787
 20
73.99999999999636
 10
-19.1116943251036
 20
64.34074173710542
  0
LWPOLYLINE
  5
1B2
330
1A9
100
AcDbEntity
  8
寸法
  6
Continuous
100
AcDbPolyline
 90
        3
 70
     0
 43
0.0
 10
-19.1116943251036
 20
-64.3407417371127
 10
-21.69988477612787
 20
-74.00000000000364
 10
-24.28807522715215
 20
-64.3407417371127
  0
ENDBLK
  5
1AB
330
1A9
100
AcDbEntity
  8
0
100
AcDbBlockEnd
  0
BLOCK
  5
1B4
330
1B3
100
AcDbEntity
  8
0
100
AcDbBlockBegin
  2
INS-D79IC
 70
     0
 10
0.0
 20
0.0
 30
0.0
  3
INS-D79IC
  1

  0
TEXT
  5
1B7
330
1B3
100
AcDbEntity
  8
寸法
  6
Continuous
100
AcDbText
 10
-26.03988477612715
 20
28.54999999999563
 30
0.0
 40
19.982
  1
60
 41
1.089505144794249
 72
     1
 11
-7.499884776127146
 21
28.54999999999563
 31
0.0
100
AcDbText
  0
LINE
  5
1B8
330
1B3
100
AcDbEntity
  8
寸法
  6
Continuous
100
AcDbLine
 10
30.00011522387285
 20
-51.15000000000509
 30
0.0
 11
30.00011522387285
 21
18.84999999999491
 31
0.0
  0
LINE
  5
1B9
330
1B3
100
AcDbEntity
  8
寸法
  6
Continuous
100
AcDbLine
 10
-29.99988477612715
 20
-52.15000000000509
 30
0.0
 11
-29.99988477612715
 21
18.84999999999491
 31
0.0
  0
LINE
  5
1BA
330
1B3
100
AcDbEntity
  8
寸法
  6
Continuous
100
AcDbLine
 10
-29.99988477612715
 20
18.84999999999491
 30
0.0
 11
30.00011522387285
 21
18.84999999999491
 31
0.0
  0
LWPOLYLINE
  5
1BB
330
1B3
100
AcDbEntity
  8
寸法
  6
Continuous
100
AcDbPolyline
 90
        3
 70
     0
 43
0.0
 10
-20.3406265132362
 20
16.26180954897063
 10
-29.99988477612715
 20
18.84999999999491
 10
-20.3406265132362
 20
21.43819045101918
  0
LWPOLYLINE
  5
1BC
330
1B3
100
AcDbEntity
  8
寸法
  6
Continuous
100
AcDbPolyline
 90
        3
 70
     0
 43
0.0
 10
20.34085696098191
 20
21.43819045101918
 10
30.00011522387285
 20
18.84999999999491
 10
20.34085696098191
 20
16.26180954897063
  0
ENDBLK
  5
1B5
330
1B3
100
AcDbEntity
  8
0
100
AcDbBlockEnd
  0
BLOCK
  5
1BE
330
1BD
100
AcDbEntity
  8
0
100
AcDbBlockBegin
  2
INS-D7X52
 70
     0
 10
0.0
 20
0.0
 30
0.0
  3
INS-D7X52
  1

  0
TEXT
  5
1C1
330
1BD
100
AcDbEntity
  8
寸法
  6
Continuous
100
AcDbText
 10
-15.17988477612714
 20
28.19999999999709
 30
0.0
 40
19.982
  1
10
 41
1.089505144794249
 72
     1
 11
0.0001152238728537
 21
28.19999999999709
 31
0.0
100
AcDbText
  0
LINE
  5
1C2
330
1BD
100
AcDbEntity
  8
寸法
  6
Continuous
100
AcDbLine
 10
5.000115223872854
 20
-51.80000000000291
 30
0.0
 11
5.000115223872854
 21
18.19999999999709
 31
0.0
  0
LINE
  5
1C3
330
1BD
100
AcDbEntity
  8
寸法
  6
Continuous
100
AcDbLine
 10
-4.999884776127146
 20
-51.80000000000291
 30
0.0
 11
-4.999884776127146
 21
18.19999999999709
 31
0.0
  0
LINE
  5
1C4
330
1BD
100
AcDbEntity
  8
寸法
  6
Continuous
100
AcDbLine
 10
-4.999884776127146
 20
18.19999999999709
 30
0.0
 11
5.000115223872854
 21
18.19999999999709
 31
0.0
  0
ENDBLK
  5
1BF
330
1BD
100
AcDbEntity
  8
0
100
AcDbBlockEnd
  0
BLOCK
  5
1C6
330
1C5
100
AcDbEntity
  8
0
100
AcDbBlockBegin
  2
INS-D8W5G
 70
     0
 10
0.0
 20
0.0
 30
0.0
  3
INS-D8W5G
  1

  0
TEXT
  5
1C9
330
1C5
100
AcDbEntity
  8
寸法
  6
Continuous
100
AcDbText
 10
-11.03988477612351
 20
28.54999999999563
 30
0.0
 40
19.982
  1
60
 41
1.089505144794249
 72
     1
 11
7.500115223876492
 21
28.54999999999563
 31
0.0
100
AcDbText
  0
LINE
  5
1CA
330
1C5
100
AcDbEntity
  8
寸法
  6
Continuous
100
AcDbLine
 10
30.00011522387285
 20
-52.15000000000509
 30
0.0
 11
30.00011522387285
 21
18.84999999999491
 31
0.0
  0
LINE
  5
1CB
330
1C5
100
AcDbEntity
  8
寸法
  6
Continuous
100
AcDbLine
 10
-29.99988477612715
 20
-51.15000000000509
 30
0.0
 11
-29.99988477612715
 21
18.84999999999491
 31
0.0
  0
LINE
  5
1CC
330
1C5
100
AcDbEntity
  8
寸法
  6
Continuous
100
AcDbLine
 10
-29.99988477612715
 20
18.84999999999491
 30
0.0
 11
30.00011522387285
 21
18.84999999999491
 31
0.0
  0
LWPOLYLINE
  5
1CD
330
1C5
100
AcDbEntity
  8
寸法
  6
Continuous
100
AcDbPolyline
 90
        3
 70
     0
 43
0.0
 10
-20.3406265132362
 20
16.26180954897063
 10
-29.99988477612715
 20
18.84999999999491
 10
-20.3406265132362
 20
21.43819045101918
  0
LWPOLYLINE
  5
1CE
330
1C5
100
AcDbEntity
  8
寸法
  6
Continuous
100
AcDbPolyline
 90
        3
 70
     0
 43
0.0
 10
20.34085696098191
 20
21.43819045101918
 10
30.00011522387285
 20
18.84999999999491
 10
20.34085696098191
 20
16.26180954897063
  0
ENDBLK
  5
1C7
330
1C5
100
AcDbEntity
  8
0
100
AcDbBlockEnd
  0
BLOCK
  5
1E6
330
1E5
100
AcDbEntity
  8
0
100
AcDbBlockBegin
  2
INS-DQADP
 70
     0
 10
0.0
 20
0.0
 30
0.0
  3
INS-DQADP
  1

  0
TEXT
  5
1E9
330
1E5
100
AcDbEntity
  8
寸法
  6
Continuous
100
AcDbText
 10
-31.69988477612787
 20
-39.06000000000365
 30
0.0
 40
19.982
  1
φ173
 50
90.0
 41
1.041145908602337
 72
     1
 11
-31.69988477612787
 21
-0.0000000000036451
 31
0.0
100
AcDbText
  0
LINE
  5
1EA
330
1E5
100
AcDbEntity
  8
寸法
  6
Continuous
100
AcDbLine
 10
55.30011522387213
 20
-86.50000000000364
 30
0.0
 11
-21.69988477612787
 21
-86.50000000000364
 31
0.0
  0
LINE
  5
1EB
330
1E5
100
AcDbEntity
  8
寸法
  6
Continuous
100
AcDbLine
 10
55.30011522387213
 20
86.49999999999636
 30
0.0
 11
-21.69988477612787
 21
86.49999999999636
 31
0.0
  0
LINE
  5
1EC
330
1E5
100
AcDbEntity
  8
寸法
  6
Continuous
100
AcDbLine
 10
-21.69988477612787
 20
86.49999999999636
 30
0.0
 11
-21.69988477612787
 21
-86.50000000000364
 31
0.0
  0
LWPOLYLINE
  5
1ED
330
1E5
100
AcDbEntity
  8
寸法
  6
Continuous
100
AcDbPolyline
 90
        3
 70
     0
 43
0.0
 10
-24.28807522715215
 20
76.84074173710542
 10
-21.69988477612787
 20
86.49999999999636
 10
-19.1116943251036
 20
76.84074173710542
  0
LWPOLYLINE
  5
1EE
330
1E5
100
AcDbEntity
  8
寸法
  6
Continuous
100
AcDbPolyline
 90
        3
 70
     0
 43
0.0
 10
-19.1116943251036
 20
-76.8407417371127
 10
-21.69988477612787
 20
-86.50000000000364
 10
-24.28807522715215
 20
-76.8407417371127
  0
ENDBLK
  5
1E7
330
1E5
100
AcDbEntity
  8
0
100
AcDbBlockEnd
  0
BLOCK
  5
1F0
330
1EF
100
AcDbEntity
  8
0
100
AcDbBlockBegin
  2
INS-DEBCD
 70
     0
 10
0.0
 20
0.0
 30
0.0
  3
INS-DEBCD
  1

  0
TEXT
  5
1F3
330
1EF
100
AcDbEntity
  8
寸法
  6
Continuous
100
AcDbText
 10
-25.53988477612715
 20
28.54999999999563
 30
0.0
 40
19.982
  1
60
 41
1.089505144794249
 72
     1
 11
-6.999884776127146
 21
28.54999999999563
 31
0.0
100
AcDbText
  0
LINE
  5
1F4
330
1EF
100
AcDbEntity
  8
寸法
  6
Continuous
100
AcDbLine
 10
30.00011522387285
 20
-51.15000000000509
 30
0.0
 11
30.00011522387285
 21
18.84999999999491
 31
0.0
  0
LINE
  5
1F5
330
1EF
100
AcDbEntity
  8
寸法
  6
Continuous
100
AcDbLine
 10
-29.99988477612715
 20
-52.15000000000509
 30
0.0
 11
-29.99988477612715
 21
18.84999999999491
 31
0.0
  0
LINE
  5
1F6
330
1EF
100
AcDbEntity
  8
寸法
  6
Continuous
100
AcDbLine
 10
-29.99988477612715
 20
18.84999999999491
 30
0.0
 11
30.00011522387285
 21
18.84999999999491
 31
0.0
  0
LWPOLYLINE
  5
1F7
330
1EF
100
AcDbEntity
  8
寸法
  6
Continuous
100
AcDbPolyline
 90
        3
 70
     0
 43
0.0
 10
-20.3406265132362
 20
16.26180954897063
 10
-29.99988477612715
 20
18.84999999999491
 10
-20.3406265132362
 20
21.43819045101918
  0
LWPOLYLINE
  5
1F8
330
1EF
100
AcDbEntity
  8
寸法
  6
Continuous
100
AcDbPolyline
 90
        3
 70
     0
 43
0.0
 10
20.34085696098191
 20
21.43819045101918
 10
30.00011522387285
 20
18.84999999999491
 10
20.34085696098191
 20
16.26180954897063
  0
ENDBLK
  5
1F1
330
1EF
100
AcDbEntity
  8
0
100
AcDbBlockEnd
  0
BLOCK
  5
1FA
330
1F9
100
AcDbEntity
  8
0
100
AcDbBlockBegin
  2
INS-D4KG6
 70
     0
 10
0.0
 20
0.0
 30
0.0
  3
INS-D4KG6
  1

  0
TEXT
  5
1FD
330
1F9
100
AcDbEntity
  8
寸法
  6
Continuous
100
AcDbText
 10
-15.17988477612714
 20
28.19999999999709
 30
0.0
 40
19.982
  1
10
 41
1.089505144794249
 72
     1
 11
0.0001152238728537
 21
28.19999999999709
 31
0.0
100
AcDbText
  0
LINE
  5
1FE
330
1F9
100
AcDbEntity
  8
寸法
  6
Continuous
100
AcDbLine
 10
5.000115223872854
 20
-51.80000000000291
 30
0.0
 11
5.000115223872854
 21
18.19999999999709
 31
0.0
  0
LINE
  5
1FF
330
1F9
100
AcDbEntity
  8
寸法
  6
Continuous
100
AcDbLine
 10
-4.999884776127146
 20
-51.80000000000291
 30
0.0
 11
-4.999884776127146
 21
18.19999999999709
 31
0.0
  0
LINE
  5
200
330
1F9
100
AcDbEntity
  8
寸法
  6
Continuous
100
AcDbLine
 10
-4.999884776127146
 20
18.19999999999709
 30
0.0
 11
5.000115223872854
 21
18.19999999999709
 31
0.0
  0
ENDBLK
  5
1FB
330
1F9
100
AcDbEntity
  8
0
100
AcDbBlockEnd
  0
BLOCK
  5
202
330
201
100
AcDbEntity
  8
0
100
AcDbBlockBegin
  2
INS-D47P4
 70
     0
 10
0.0
 20
0.0
 30
0.0
  3
INS-D47P4
  1

  0
TEXT
  5
205
330
201
100
AcDbEntity
  8
寸法
  6
Continuous
100
AcDbText
 10
-9.039884776130783
 20
28.54999999999563
 30
0.0
 40
19.982
  1
60
 41
1.089505144794249
 72
     1
 11
9.500115223869216
 21
28.54999999999563
 31
0.0
100
AcDbText
  0
LINE
  5
206
330
201
100
AcDbEntity
  8
寸法
  6
Continuous
100
AcDbLine
 10
30.00011522387285
 20
-52.15000000000509
 30
0.0
 11
30.00011522387285
 21
18.84999999999491
 31
0.0
  0
LINE
  5
207
330
201
100
AcDbEntity
  8
寸法
  6
Continuous
100
AcDbLine
 10
-29.99988477612715
 20
-51.15000000000509
 30
0.0
 11
-29.99988477612715
 21
18.84999999999491
 31
0.0
  0
LINE
  5
208
330
201
100
AcDbEntity
  8
寸法
  6
Continuous
100
AcDbLine
 10
-29.99988477612715
 20
18.84999999999491
 30
0.0
 11
30.00011522387285
 21
18.84999999999491
 31
0.0
  0
LWPOLYLINE
  5
209
330
201
100
AcDbEntity
  8
寸法
  6
Continuous
100
AcDbPolyline
 90
        3
 70
     0
 43
0.0
 10
-20.3406265132362
 20
16.26180954897063
 10
-29.99988477612715
 20
18.84999999999491
 10
-20.3406265132362
 20
21.43819045101918
  0
LWPOLYLINE
  5
20A
330
201
100
AcDbEntity
  8
寸法
  6
Continuous
100
AcDbPolyline
 90
        3
 70
     0
 43
0.0
 10
20.34085696098191
 20
21.43819045101918
 10
30.00011522387285
 20
18.84999999999491
 10
20.34085696098191
 20
16.26180954897063
  0
ENDBLK
  5
203
330
201
100
AcDbEntity
  8
0
100
AcDbBlockEnd
  0
BLOCK
  5
222
330
221
100
AcDbEntity
  8
0
100
AcDbBlockBegin
  2
INS-D66P8
 70
     0
 10
0.0
 20
0.0
 30
0.0
  3
INS-D66P8
  1

  0
TEXT
  5
225
330
221
100
AcDbEntity
  8
寸法
  6
Continuous
100
AcDbText
 10
-31.69988477612787
 20
-39.06000000000365
 30
0.0
 40
19.982
  1
φ198
 50
90.0
 41
1.041145908602337
 72
     1
 11
-31.69988477612787
 21
-0.0000000000036451
 31
0.0
100
AcDbText
  0
LINE
  5
226
330
221
100
AcDbEntity
  8
寸法
  6
Continuous
100
AcDbLine
 10
55.30011522387213
 20
-99.00000000000364
 30
0.0
 11
-21.69988477612787
 21
-99.00000000000364
 31
0.0
  0
LINE
  5
227
330
221
100
AcDbEntity
  8
寸法
  6
Continuous
100
AcDbLine
 10
55.30011522387213
 20
98.99999999999636
 30
0.0
 11
-21.69988477612787
 21
98.99999999999636
 31
0.0
  0
LINE
  5
228
330
221
100
AcDbEntity
  8
寸法
  6
Continuous
100
AcDbLine
 10
-21.69988477612787
 20
98.99999999999636
 30
0.0
 11
-21.69988477612787
 21
-99.00000000000364
 31
0.0
  0
LWPOLYLINE
  5
229
330
221
100
AcDbEntity
  8
寸法
  6
Continuous
100
AcDbPolyline
 90
        3
 70
     0
 43
0.0
 10
-24.28807522715215
 20
89.34074173710542
 10
-21.69988477612787
 20
98.99999999999636
 10
-19.1116943251036
 20
89.34074173710542
  0
LWPOLYLINE
  5
22A
330
221
100
AcDbEntity
  8
寸法
  6
Continuous
100
AcDbPolyline
 90
        3
 70
     0
 43
0.0
 10
-19.1116943251036
 20
-89.3407417371127
 10
-21.69988477612787
 20
-99.00000000000364
 10
-24.28807522715215
 20
-89.3407417371127
  0
ENDBLK
  5
223
330
221
100
AcDbEntity
  8
0
100
AcDbBlockEnd
  0
BLOCK
  5
22C
330
22B
100
AcDbEntity
  8
0
100
AcDbBlockBegin
  2
INS-D8J52
 70
     0
 10
0.0
 20
0.0
 30
0.0
  3
INS-D8J52
  1

  0
TEXT
  5
22F
330
22B
100
AcDbEntity
  8
寸法
  6
Continuous
100
AcDbText
 10
-22.53988477612715
 20
28.54999999999563
 30
0.0
 40
19.982
  1
60
 41
1.089505144794249
 72
     1
 11
-3.999884776127146
 21
28.54999999999563
 31
0.0
100
AcDbText
  0
LINE
  5
230
330
22B
100
AcDbEntity
  8
寸法
  6
Continuous
100
AcDbLine
 10
30.00011522387285
 20
-51.15000000000509
 30
0.0
 11
30.00011522387285
 21
18.84999999999491
 31
0.0
  0
LINE
  5
231
330
22B
100
AcDbEntity
  8
寸法
  6
Continuous
100
AcDbLine
 10
-29.99988477612715
 20
-52.15000000000509
 30
0.0
 11
-29.99988477612715
 21
18.84999999999491
 31
0.0
  0
LINE
  5
232
330
22B
100
AcDbEntity
  8
寸法
  6
Continuous
100
AcDbLine
 10
-29.99988477612715
 20
18.84999999999491
 30
0.0
 11
30.00011522387285
 21
18.84999999999491
 31
0.0
  0
LWPOLYLINE
  5
233
330
22B
100
AcDbEntity
  8
寸法
  6
Continuous
100
AcDbPolyline
 90
        3
 70
     0
 43
0.0
 10
-20.3406265132362
 20
16.26180954897063
 10
-29.99988477612715
 20
18.84999999999491
 10
-20.3406265132362
 20
21.43819045101918
  0
LWPOLYLINE
  5
234
330
22B
100
AcDbEntity
  8
寸法
  6
Continuous
100
AcDbPolyline
 90
        3
 70
     0
 43
0.0
 10
20.34085696098191
 20
21.43819045101918
 10
30.00011522387285
 20
18.84999999999491
 10
20.34085696098191
 20
16.26180954897063
  0
ENDBLK
  5
22D
330
22B
100
AcDbEntity
  8
0
100
AcDbBlockEnd
  0
BLOCK
  5
236
330
235
100
AcDbEntity
  8
0
100
AcDbBlockBegin
  2
INS-DR7WJ
 70
     0
 10
0.0
 20
0.0
 30
0.0
  3
INS-DR7WJ
  1

  0
TEXT
  5
239
330
235
100
AcDbEntity
  8
寸法
  6
Continuous
100
AcDbText
 10
-15.17988477612714
 20
28.19999999999709
 30
0.0
 40
19.982
  1
10
 41
1.089505144794249
 72
     1
 11
0.0001152238728537
 21
28.19999999999709
 31
0.0
100
AcDbText
  0
LINE
  5
23A
330
235
100
AcDbEntity
  8
寸法
  6
Continuous
100
AcDbLine
 10
5.000115223872854
 20
-51.80000000000291
 30
0.0
 11
5.000115223872854
 21
18.19999999999709
 31
0.0
  0
LINE
  5
23B
330
235
100
AcDbEntity
  8
寸法
  6
Continuous
100
AcDbLine
 10
-4.999884776127146
 20
-51.80000000000291
 30
0.0
 11
-4.999884776127146
 21
18.19999999999709
 31
0.0
  0
LINE
  5
23C
330
235
100
AcDbEntity
  8
寸法
  6
Continuous
100
AcDbLine
 10
-4.999884776127146
 20
18.19999999999709
 30
0.0
 11
5.000115223872854
 21
18.19999999999709
 31
0.0
  0
ENDBLK
  5
237
330
235
100
AcDbEntity
  8
0
100
AcDbBlockEnd
  0
BLOCK
  5
23E
330
23D
100
AcDbEntity
  8
0
100
AcDbBlockBegin
  2
INS-D3RIW
 70
     0
 10
0.0
 20
0.0
 30
0.0
  3
INS-D3RIW
  1

  0
TEXT
  5
241
330
23D
100
AcDbEntity
  8
寸法
  6
Continuous
100
AcDbText
 10
-9.539884776127145
 20
28.54999999999563
 30
0.0
 40
19.982
  1
60
 41
1.089505144794249
 72
     1
 11
9.000115223872854
 21
28.54999999999563
 31
0.0
100
AcDbText
  0
LINE
  5
242
330
23D
100
AcDbEntity
  8
寸法
  6
Continuous
100
AcDbLine
 10
30.00011522387285
 20
-52.15000000000509
 30
0.0
 11
30.00011522387285
 21
18.84999999999491
 31
0.0
  0
LINE
  5
243
330
23D
100
AcDbEntity
  8
寸法
  6
Continuous
100
AcDbLine
 10
-29.99988477612715
 20
-51.15000000000509
 30
0.0
 11
-29.99988477612715
 21
18.84999999999491
 31
0.0
  0
LINE
  5
244
330
23D
100
AcDbEntity
  8
寸法
  6
Continuous
100
AcDbLine
 10
-29.99988477612715
 20
18.84999999999491
 30
0.0
 11
30.00011522387285
 21
18.84999999999491
 31
0.0
  0
LWPOLYLINE
  5
245
330
23D
100
AcDbEntity
  8
寸法
  6
Continuous
100
AcDbPolyline
 90
        3
 70
     0
 43
0.0
 10
-20.3406265132362
 20
16.26180954897063
 10
-29.99988477612715
 20
18.84999999999491
 10
-20.3406265132362
 20
21.43819045101918
  0
LWPOLYLINE
  5
246
330
23D
100
AcDbEntity
  8
寸法
  6
Continuous
100
AcDbPolyline
 90
        3
 70
     0
 43
0.0
 10
20.34085696098191
 20
21.43819045101918
 10
30.00011522387285
 20
18.84999999999491
 10
20.34085696098191
 20
16.26180954897063
  0
ENDBLK
  5
23F
330
23D
100
AcDbEntity
  8
0
100
AcDbBlockEnd
  0
BLOCK
  5
25E
330
25D
100
AcDbEntity
  8
0
100
AcDbBlockBegin
  2
INS-D7JH8
 70
     0
 10
0.0
 20
0.0
 30
0.0
  3
INS-D7JH8
  1

  0
TEXT
  5
261
330
25D
100
AcDbEntity
  8
寸法
  6
Continuous
100
AcDbText
 10
-31.69988477612787
 20
-42.42000000000362
 30
0.0
 40
19.982
  1
φ223
 50
90.0
 41
1.041145908602337
 72
     1
 11
-31.69988477612787
 21
-0.0000000000036309
 31
0.0
100
AcDbText
  0
LINE
  5
262
330
25D
100
AcDbEntity
  8
寸法
  6
Continuous
100
AcDbLine
 10
55.30011522387213
 20
-111.5000000000036
 30
0.0
 11
-21.69988477612787
 21
-111.5000000000036
 31
0.0
  0
LINE
  5
263
330
25D
100
AcDbEntity
  8
寸法
  6
Continuous
100
AcDbLine
 10
55.30011522387213
 20
111.4999999999964
 30
0.0
 11
-21.69988477612787
 21
111.4999999999964
 31
0.0
  0
LINE
  5
264
330
25D
100
AcDbEntity
  8
寸法
  6
Continuous
100
AcDbLine
 10
-21.69988477612787
 20
111.4999999999964
 30
0.0
 11
-21.69988477612787
 21
-111.5000000000036
 31
0.0
  0
LWPOLYLINE
  5
265
330
25D
100
AcDbEntity
  8
寸法
  6
Continuous
100
AcDbPolyline
 90
        3
 70
     0
 43
0.0
 10
-24.28807522715215
 20
101.8407417371054
 10
-21.69988477612787
 20
111.4999999999964
 10
-19.1116943251036
 20
101.8407417371054
  0
LWPOLYLINE
  5
266
330
25D
100
AcDbEntity
  8
寸法
  6
Continuous
100
AcDbPolyline
 90
        3
 70
     0
 43
0.0
 10
-19.1116943251036
 20
-101.8407417371127
 10
-21.69988477612787
 20
-111.5000000000036
 10
-24.28807522715215
 20
-101.8407417371127
  0
ENDBLK
  5
25F
330
25D
100
AcDbEntity
  8
0
100
AcDbBlockEnd
  0
BLOCK
  5
268
330
267
100
AcDbEntity
  8
0
100
AcDbBlockBegin
  2
INS-DCF7A
 70
     0
 10
0.0
 20
0.0
 30
0.0
  3
INS-DCF7A
  1

  0
TEXT
  5
26B
330
267
100
AcDbEntity
  8
寸法
  6
Continuous
100
AcDbText
 10
-24.53988477613078
 20
28.54999999999563
 30
0.0
 40
19.982
  1
60
 41
1.089505144794249
 72
     1
 11
-5.999884776130784
 21
28.54999999999563
 31
0.0
100
AcDbText
  0
LINE
  5
26C
330
267
100
AcDbEntity
  8
寸法
  6
Continuous
100
AcDbLine
 10
30.00011522387285
 20
-51.15000000000509
 30
0.0
 11
30.00011522387285
 21
18.84999999999491
 31
0.0
  0
LINE
  5
26D
330
267
100
AcDbEntity
  8
寸法
  6
Continuous
100
AcDbLine
 10
-29.99988477612715
 20
-52.15000000000509
 30
0.0
 11
-29.99988477612715
 21
18.84999999999491
 31
0.0
  0
LINE
  5
26E
330
267
100
AcDbEntity
  8
寸法
  6
Continuous
100
AcDbLine
 10
-29.99988477612715
 20
18.84999999999491
 30
0.0
 11
30.00011522387285
 21
18.84999999999491
 31
0.0
  0
LWPOLYLINE
  5
26F
330
267
100
AcDbEntity
  8
寸法
  6
Continuous
100
AcDbPolyline
 90
        3
 70
     0
 43
0.0
 10
-20.3406265132362
 20
16.26180954897063
 10
-29.99988477612715
 20
18.84999999999491
 10
-20.3406265132362
 20
21.43819045101918
  0
LWPOLYLINE
  5
270
330
267
100
AcDbEntity
  8
寸法
  6
Continuous
100
AcDbPolyline
 90
        3
 70
     0
 43
0.0
 10
20.34085696098191
 20
21.43819045101918
 10
30.00011522387285
 20
18.84999999999491
 10
20.34085696098191
 20
16.26180954897063
  0
ENDBLK
  5
269
330
267
100
AcDbEntity
  8
0
100
AcDbBlockEnd
  0
BLOCK
  5
272
330
271
100
AcDbEntity
  8
0
100
AcDbBlockBegin
  2
INS-DO5WJ
 70
     0
 10
0.0
 20
0.0
 30
0.0
  3
INS-DO5WJ
  1

  0
TEXT
  5
275
330
271
100
AcDbEntity
  8
寸法
  6
Continuous
100
AcDbText
 10
-15.17988477612714
 20
28.19999999999709
 30
0.0
 40
19.982
  1
10
 41
1.089505144794249
 72
     1
 11
0.0001152238728537
 21
28.19999999999709
 31
0.0
100
AcDbText
  0
LINE
  5
276
330
271
100
AcDbEntity
  8
寸法
  6
Continuous
100
AcDbLine
 10
5.000115223872854
 20
-51.80000000000291
 30
0.0
 11
5.000115223872854
 21
18.19999999999709
 31
0.0
  0
LINE
  5
277
330
271
100
AcDbEntity
  8
寸法
  6
Continuous
100
AcDbLine
 10
-4.999884776127146
 20
-51.80000000000291
 30
0.0
 11
-4.999884776127146
 21
18.19999999999709
 31
0.0
  0
LINE
  5
278
330
271
100
AcDbEntity
  8
寸法
  6
Continuous
100
AcDbLine
 10
-4.999884776127146
 20
18.19999999999709
 30
0.0
 11
5.000115223872854
 21
18.19999999999709
 31
0.0
  0
ENDBLK
  5
273
330
271
100
AcDbEntity
  8
0
100
AcDbBlockEnd
  0
BLOCK
  5
27A
330
279
100
AcDbEntity
  8
0
100
AcDbBlockBegin
  2
INS-D5WJ7
 70
     0
 10
0.0
 20
0.0
 30
0.0
  3
INS-D5WJ7
  1

  0
TEXT
  5
27D
330
279
100
AcDbEntity
  8
寸法
  6
Continuous
100
AcDbText
 10
-8.539884776123507
 20
28.54999999999563
 30
0.0
 40
19.982
  1
60
 41
1.089505144794249
 72
     1
 11
10.00011522387649
 21
28.54999999999563
 31
0.0
100
AcDbText
  0
LINE
  5
27E
330
279
100
AcDbEntity
  8
寸法
  6
Continuous
100
AcDbLine
 10
30.00011522387285
 20
-52.15000000000509
 30
0.0
 11
30.00011522387285
 21
18.84999999999491
 31
0.0
  0
LINE
  5
27F
330
279
100
AcDbEntity
  8
寸法
  6
Continuous
100
AcDbLine
 10
-29.99988477612715
 20
-51.15000000000509
 30
0.0
 11
-29.99988477612715
 21
18.84999999999491
 31
0.0
  0
LINE
  5
280
330
279
100
AcDbEntity
  8
寸法
  6
Continuous
100
AcDbLine
 10
-29.99988477612715
 20
18.84999999999491
 30
0.0
 11
30.00011522387285
 21
18.84999999999491
 31
0.0
  0
LWPOLYLINE
  5
281
330
279
100
AcDbEntity
  8
寸法
  6
Continuous
100
AcDbPolyline
 90
        3
 70
     0
 43
0.0
 10
-20.3406265132362
 20
16.26180954897063
 10
-29.99988477612715
 20
18.84999999999491
 10
-20.3406265132362
 20
21.43819045101918
  0
LWPOLYLINE
  5
282
330
279
100
AcDbEntity
  8
寸法
  6
Continuous
100
AcDbPolyline
 90
        3
 70
     0
 43
0.0
 10
20.34085696098191
 20
21.43819045101918
 10
30.00011522387285
 20
18.84999999999491
 10
20.34085696098191
 20
16.26180954897063
  0
ENDBLK
  5
27B
330
279
100
AcDbEntity
  8
0
100
AcDbBlockEnd
  0
BLOCK
  5
29A
330
299
100
AcDbEntity
  8
0
100
AcDbBlockBegin
  2
INS-DGK5E
 70
     0
 10
0.0
 20
0.0
 30
0.0
  3
INS-DGK5E
  1

  0
TEXT
  5
29D
330
299
100
AcDbEntity
  8
寸法
  6
Continuous
100
AcDbText
 10
-31.69988477612787
 20
-42.42000000000362
 30
0.0
 40
19.982
  1
φ248
 50
90.0
 41
1.041145908602337
 72
     1
 11
-31.69988477612787
 21
-0.0000000000036309
 31
0.0
100
AcDbText
  0
LINE
  5
29E
330
299
100
AcDbEntity
  8
寸法
  6
Continuous
100
AcDbLine
 10
55.30011522387213
 20
-124.0000000000036
 30
0.0
 11
-21.69988477612787
 21
-124.0000000000036
 31
0.0
  0
LINE
  5
29F
330
299
100
AcDbEntity
  8
寸法
  6
Continuous
100
AcDbLine
 10
55.30011522387213
 20
123.9999999999964
 30
0.0
 11
-21.69988477612787
 21
123.9999999999964
 31
0.0
  0
LINE
  5
2A0
330
299
100
AcDbEntity
  8
寸法
  6
Continuous
100
AcDbLine
 10
-21.69988477612787
 20
123.9999999999964
 30
0.0
 11
-21.69988477612787
 21
-124.0000000000036
 31
0.0
  0
LWPOLYLINE
  5
2A1
330
299
100
AcDbEntity
  8
寸法
  6
Continuous
100
AcDbPolyline
 90
        3
 70
     0
 43
0.0
 10
-24.28807522715215
 20
114.3407417371054
 10
-21.69988477612787
 20
123.9999999999964
 10
-19.1116943251036
 20
114.3407417371054
  0
LWPOLYLINE
  5
2A2
330
299
100
AcDbEntity
  8
寸法
  6
Continuous
100
AcDbPolyline
 90
        3
 70
     0
 43
0.0
 10
-19.1116943251036
 20
-114.3407417371127
 10
-21.69988477612787
 20
-124.0000000000036
 10
-24.28807522715215
 20
-114.3407417371127
  0
ENDBLK
  5
29B
330
299
100
AcDbEntity
  8
0
100
AcDbBlockEnd
  0
BLOCK
  5
2A4
330
2A3
100
AcDbEntity
  8
0
100
AcDbBlockBegin
  2
INS-DOX5G
 70
     0
 10
0.0
 20
0.0
 30
0.0
  3
INS-DOX5G
  1

  0
TEXT
  5
2A7
330
2A3
100
AcDbEntity
  8
寸法
  6
Continuous
100
AcDbText
 10
-25.53988477612715
 20
28.54999999999563
 30
0.0
 40
19.982
  1
60
 41
1.089505144794249
 72
     1
 11
-6.999884776127146
 21
28.54999999999563
 31
0.0
100
AcDbText
  0
LINE
  5
2A8
330
2A3
100
AcDbEntity
  8
寸法
  6
Continuous
100
AcDbLine
 10
30.00011522387285
 20
-51.15000000000509
 30
0.0
 11
30.00011522387285
 21
18.84999999999491
 31
0.0
  0
LINE
  5
2A9
330
2A3
100
AcDbEntity
  8
寸法
  6
Continuous
100
AcDbLine
 10
-29.99988477612715
 20
-52.15000000000509
 30
0.0
 11
-29.99988477612715
 21
18.84999999999491
 31
0.0
  0
LINE
  5
2AA
330
2A3
100
AcDbEntity
  8
寸法
  6
Continuous
100
AcDbLine
 10
-29.99988477612715
 20
18.84999999999491
 30
0.0
 11
30.00011522387285
 21
18.84999999999491
 31
0.0
  0
LWPOLYLINE
  5
2AB
330
2A3
100
AcDbEntity
  8
寸法
  6
Continuous
100
AcDbPolyline
 90
        3
 70
     0
 43
0.0
 10
-20.3406265132362
 20
16.26180954897063
 10
-29.99988477612715
 20
18.84999999999491
 10
-20.3406265132362
 20
21.43819045101918
  0
LWPOLYLINE
  5
2AC
330
2A3
100
AcDbEntity
  8
寸法
  6
Continuous
100
AcDbPolyline
 90
        3
 70
     0
 43
0.0
 10
20.34085696098191
 20
21.43819045101918
 10
30.00011522387285
 20
18.84999999999491
 10
20.34085696098191
 20
16.26180954897063
  0
ENDBLK
  5
2A5
330
2A3
100
AcDbEntity
  8
0
100
AcDbBlockEnd
  0
BLOCK
  5
2AE
330
2AD
100
AcDbEntity
  8
0
100
AcDbBlockBegin
  2
INS-DZIYU
 70
     0
 10
0.0
 20
0.0
 30
0.0
  3
INS-DZIYU
  1

  0
TEXT
  5
2B1
330
2AD
100
AcDbEntity
  8
寸法
  6
Continuous
100
AcDbText
 10
-15.17988477612714
 20
28.19999999999709
 30
0.0
 40
19.982
  1
10
 41
1.089505144794249
 72
     1
 11
0.0001152238728537
 21
28.19999999999709
 31
0.0
100
AcDbText
  0
LINE
  5
2B2
330
2AD
100
AcDbEntity
  8
寸法
  6
Continuous
100
AcDbLine
 10
5.000115223872854
 20
-51.80000000000291
 30
0.0
 11
5.000115223872854
 21
18.19999999999709
 31
0.0
  0
LINE
  5
2B3
330
2AD
100
AcDbEntity
  8
寸法
  6
Continuous
100
AcDbLine
 10
-4.999884776127146
 20
-51.80000000000291
 30
0.0
 11
-4.999884776127146
 21
18.19999999999709
 31
0.0
  0
LINE
  5
2B4
330
2AD
100
AcDbEntity
  8
寸法
  6
Continuous
100
AcDbLine
 10
-4.999884776127146
 20
18.19999999999709
 30
0.0
 11
5.000115223872854
 21
18.19999999999709
 31
0.0
  0
ENDBLK
  5
2AF
330
2AD
100
AcDbEntity
  8
0
100
AcDbBlockEnd
  0
BLOCK
  5
2B6
330
2B5
100
AcDbEntity
  8
0
100
AcDbBlockBegin
  2
INS-D5I98
 70
     0
 10
0.0
 20
0.0
 30
0.0
  3
INS-D5I98
  1

  0
TEXT
  5
2B9
330
2B5
100
AcDbEntity
  8
寸法
  6
Continuous
100
AcDbText
 10
-9.539884776127145
 20
28.54999999999563
 30
0.0
 40
19.982
  1
60
 41
1.089505144794249
 72
     1
 11
9.000115223872854
 21
28.54999999999563
 31
0.0
100
AcDbText
  0
LINE
  5
2BA
330
2B5
100
AcDbEntity
  8
寸法
  6
Continuous
100
AcDbLine
 10
30.00011522387285
 20
-52.15000000000509
 30
0.0
 11
30.00011522387285
 21
18.84999999999491
 31
0.0
  0
LINE
  5
2BB
330
2B5
100
AcDbEntity
  8
寸法
  6
Continuous
100
AcDbLine
 10
-29.99988477612715
 20
-51.15000000000509
 30
0.0
 11
-29.99988477612715
 21
18.84999999999491
 31
0.0
  0
LINE
  5
2BC
330
2B5
100
AcDbEntity
  8
寸法
  6
Continuous
100
AcDbLine
 10
-29.99988477612715
 20
18.84999999999491
 30
0.0
 11
30.00011522387285
 21
18.84999999999491
 31
0.0
  0
LWPOLYLINE
  5
2BD
330
2B5
100
AcDbEntity
  8
寸法
  6
Continuous
100
AcDbPolyline
 90
        3
 70
     0
 43
0.0
 10
-20.3406265132362
 20
16.26180954897063
 10
-29.99988477612715
 20
18.84999999999491
 10
-20.3406265132362
 20
21.43819045101918
  0
LWPOLYLINE
  5
2BE
330
2B5
100
AcDbEntity
  8
寸法
  6
Continuous
100
AcDbPolyline
 90
        3
 70
     0
 43
0.0
 10
20.34085696098191
 20
21.43819045101918
 10
30.00011522387285
 20
18.84999999999491
 10
20.34085696098191
 20
16.26180954897063
  0
ENDBLK
  5
2B7
330
2B5
100
AcDbEntity
  8
0
100
AcDbBlockEnd
  0
BLOCK
  5
2D6
330
2D5
100
AcDbEntity
  8
0
100
AcDbBlockBegin
  2
INS-D8D8F
 70
     0
 10
0.0
 20
0.0
 30
0.0
  3
INS-D8D8F
  1

  0
TEXT
  5
2D9
330
2D5
100
AcDbEntity
  8
寸法
  6
Continuous
100
AcDbText
 10
-31.69988477612787
 20
-42.42000000000362
 30
0.0
 40
19.982
  1
φ273
 50
90.0
 41
1.041145908602337
 72
     1
 11
-31.69988477612787
 21
-0.0000000000036309
 31
0.0
100
AcDbText
  0
LINE
  5
2DA
330
2D5
100
AcDbEntity
  8
寸法
  6
Continuous
100
AcDbLine
 10
55.30011522387213
 20
-136.5000000000036
 30
0.0
 11
-21.69988477612787
 21
-136.5000000000036
 31
0.0
  0
LINE
  5
2DB
330
2D5
100
AcDbEntity
  8
寸法
  6
Continuous
100
AcDbLine
 10
55.30011522387213
 20
136.4999999999964
 30
0.0
 11
-21.69988477612787
 21
136.4999999999964
 31
0.0
  0
LINE
  5
2DC
330
2D5
100
AcDbEntity
  8
寸法
  6
Continuous
100
AcDbLine
 10
-21.69988477612787
 20
136.4999999999964
 30
0.0
 11
-21.69988477612787
 21
-136.5000000000036
 31
0.0
  0
LWPOLYLINE
  5
2DD
330
2D5
100
AcDbEntity
  8
寸法
  6
Continuous
100
AcDbPolyline
 90
        3
 70
     0
 43
0.0
 10
-24.28807522715215
 20
126.8407417371054
 10
-21.69988477612787
 20
136.4999999999964
 10
-19.1116943251036
 20
126.8407417371054
  0
LWPOLYLINE
  5
2DE
330
2D5
100
AcDbEntity
  8
寸法
  6
Continuous
100
AcDbPolyline
 90
        3
 70
     0
 43
0.0
 10
-19.1116943251036
 20
-126.8407417371127
 10
-21.69988477612787
 20
-136.5000000000036
 10
-24.28807522715215
 20
-126.8407417371127
  0
ENDBLK
  5
2D7
330
2D5
100
AcDbEntity
  8
0
100
AcDbBlockEnd
  0
BLOCK
  5
2E0
330
2DF
100
AcDbEntity
  8
0
100
AcDbBlockBegin
  2
INS-DJAD0
 70
     0
 10
0.0
 20
0.0
 30
0.0
  3
INS-DJAD0
  1

  0
TEXT
  5
2E3
330
2DF
100
AcDbEntity
  8
寸法
  6
Continuous
100
AcDbText
 10
-24.53988477612715
 20
28.54999999999563
 30
0.0
 40
19.982
  1
60
 41
1.089505144794249
 72
     1
 11
-5.999884776127146
 21
28.54999999999563
 31
0.0
100
AcDbText
  0
LINE
  5
2E4
330
2DF
100
AcDbEntity
  8
寸法
  6
Continuous
100
AcDbLine
 10
30.00011522387285
 20
-51.15000000000509
 30
0.0
 11
30.00011522387285
 21
18.84999999999491
 31
0.0
  0
LINE
  5
2E5
330
2DF
100
AcDbEntity
  8
寸法
  6
Continuous
100
AcDbLine
 10
-29.99988477612715
 20
-52.15000000000509
 30
0.0
 11
-29.99988477612715
 21
18.84999999999491
 31
0.0
  0
LINE
  5
2E6
330
2DF
100
AcDbEntity
  8
寸法
  6
Continuous
100
AcDbLine
 10
-29.99988477612715
 20
18.84999999999491
 30
0.0
 11
30.00011522387285
 21
18.84999999999491
 31
0.0
  0
LWPOLYLINE
  5
2E7
330
2DF
100
AcDbEntity
  8
寸法
  6
Continuous
100
AcDbPolyline
 90
        3
 70
     0
 43
0.0
 10
-20.3406265132362
 20
16.26180954897063
 10
-29.99988477612715
 20
18.84999999999491
 10
-20.3406265132362
 20
21.43819045101918
  0
LWPOLYLINE
  5
2E8
330
2DF
100
AcDbEntity
  8
寸法
  6
Continuous
100
AcDbPolyline
 90
        3
 70
     0
 43
0.0
 10
20.34085696098191
 20
21.43819045101918
 10
30.00011522387285
 20
18.84999999999491
 10
20.34085696098191
 20
16.26180954897063
  0
ENDBLK
  5
2E1
330
2DF
100
AcDbEntity
  8
0
100
AcDbBlockEnd
  0
BLOCK
  5
2EA
330
2E9
100
AcDbEntity
  8
0
100
AcDbBlockBegin
  2
INS-D4XZZ
 70
     0
 10
0.0
 20
0.0
 30
0.0
  3
INS-D4XZZ
  1

  0
TEXT
  5
2ED
330
2E9
100
AcDbEntity
  8
寸法
  6
Continuous
100
AcDbText
 10
-15.17988477612714
 20
28.19999999999709
 30
0.0
 40
19.982
  1
10
 41
1.089505144794249
 72
     1
 11
0.0001152238728537
 21
28.19999999999709
 31
0.0
100
AcDbText
  0
LINE
  5
2EE
330
2E9
100
AcDbEntity
  8
寸法
  6
Continuous
100
AcDbLine
 10
5.000115223872854
 20
-51.80000000000291
 30
0.0
 11
5.000115223872854
 21
18.19999999999709
 31
0.0
  0
LINE
  5
2EF
330
2E9
100
AcDbEntity
  8
寸法
  6
Continuous
100
AcDbLine
 10
-4.999884776127146
 20
-51.80000000000291
 30
0.0
 11
-4.999884776127146
 21
18.19999999999709
 31
0.0
  0
LINE
  5
2F0
330
2E9
100
AcDbEntity
  8
寸法
  6
Continuous
100
AcDbLine
 10
-4.999884776127146
 20
18.19999999999709
 30
0.0
 11
5.000115223872854
 21
18.19999999999709
 31
0.0
  0
ENDBLK
  5
2EB
330
2E9
100
AcDbEntity
  8
0
100
AcDbBlockEnd
  0
BLOCK
  5
2F2
330
2F1
100
AcDbEntity
  8
0
100
AcDbBlockBegin
  2
INS-D4Z86
 70
     0
 10
0.0
 20
0.0
 30
0.0
  3
INS-D4Z86
  1

  0
TEXT
  5
2F5
330
2F1
100
AcDbEntity
  8
寸法
  6
Continuous
100
AcDbText
 10
-9.539884776127145
 20
28.54999999999563
 30
0.0
 40
19.982
  1
60
 41
1.089505144794249
 72
     1
 11
9.000115223872854
 21
28.54999999999563
 31
0.0
100
AcDbText
  0
LINE
  5
2F6
330
2F1
100
AcDbEntity
  8
寸法
  6
Continuous
100
AcDbLine
 10
30.00011522387285
 20
-52.15000000000509
 30
0.0
 11
30.00011522387285
 21
18.84999999999491
 31
0.0
  0
LINE
  5
2F7
330
2F1
100
AcDbEntity
  8
寸法
  6
Continuous
100
AcDbLine
 10
-29.99988477612715
 20
-51.15000000000509
 30
0.0
 11
-29.99988477612715
 21
18.84999999999491
 31
0.0
  0
LINE
  5
2F8
330
2F1
100
AcDbEntity
  8
寸法
  6
Continuous
100
AcDbLine
 10
-29.99988477612715
 20
18.84999999999491
 30
0.0
 11
30.00011522387285
 21
18.84999999999491
 31
0.0
  0
LWPOLYLINE
  5
2F9
330
2F1
100
AcDbEntity
  8
寸法
  6
Continuous
100
AcDbPolyline
 90
        3
 70
     0
 43
0.0
 10
-20.3406265132362
 20
16.26180954897063
 10
-29.99988477612715
 20
18.84999999999491
 10
-20.3406265132362
 20
21.43819045101918
  0
LWPOLYLINE
  5
2FA
330
2F1
100
AcDbEntity
  8
寸法
  6
Continuous
100
AcDbPolyline
 90
        3
 70
     0
 43
0.0
 10
20.34085696098191
 20
21.43819045101918
 10
30.00011522387285
 20
18.84999999999491
 10
20.34085696098191
 20
16.26180954897063
  0
ENDBLK
  5
2F3
330
2F1
100
AcDbEntity
  8
0
100
AcDbBlockEnd
  0
BLOCK
  5
312
330
311
100
AcDbEntity
  8
0
100
AcDbBlockBegin
  2
INS-D94NW
 70
     0
 10
0.0
 20
0.0
 30
0.0
  3
INS-D94NW
  1

  0
TEXT
  5
315
330
311
100
AcDbEntity
  8
寸法
  6
Continuous
100
AcDbText
 10
-31.69988477612787
 20
-42.42000000000362
 30
0.0
 40
19.982
  1
φ298
 50
90.0
 41
1.041145908602337
 72
     1
 11
-31.69988477612787
 21
-0.0000000000036309
 31
0.0
100
AcDbText
  0
LINE
  5
316
330
311
100
AcDbEntity
  8
寸法
  6
Continuous
100
AcDbLine
 10
55.30011522387213
 20
-149.0000000000036
 30
0.0
 11
-21.69988477612787
 21
-149.0000000000036
 31
0.0
  0
LINE
  5
317
330
311
100
AcDbEntity
  8
寸法
  6
Continuous
100
AcDbLine
 10
55.30011522387213
 20
148.9999999999964
 30
0.0
 11
-21.69988477612787
 21
148.9999999999964
 31
0.0
  0
LINE
  5
318
330
311
100
AcDbEntity
  8
寸法
  6
Continuous
100
AcDbLine
 10
-21.69988477612787
 20
148.9999999999964
 30
0.0
 11
-21.69988477612787
 21
-149.0000000000036
 31
0.0
  0
LWPOLYLINE
  5
319
330
311
100
AcDbEntity
  8
寸法
  6
Continuous
100
AcDbPolyline
 90
        3
 70
     0
 43
0.0
 10
-24.28807522715215
 20
139.3407417371054
 10
-21.69988477612787
 20
148.9999999999964
 10
-19.1116943251036
 20
139.3407417371054
  0
LWPOLYLINE
  5
31A
330
311
100
AcDbEntity
  8
寸法
  6
Continuous
100
AcDbPolyline
 90
        3
 70
     0
 43
0.0
 10
-19.1116943251036
 20
-139.3407417371127
 10
-21.69988477612787
 20
-149.0000000000036
 10
-24.28807522715215
 20
-139.3407417371127
  0
ENDBLK
  5
313
330
311
100
AcDbEntity
  8
0
100
AcDbBlockEnd
  0
BLOCK
  5
31C
330
31B
100
AcDbEntity
  8
0
100
AcDbBlockBegin
  2
INS-D8DN6
 70
     0
 10
0.0
 20
0.0
 30
0.0
  3
INS-D8DN6
  1

  0
TEXT
  5
31F
330
31B
100
AcDbEntity
  8
寸法
  6
Continuous
100
AcDbText
 10
-25.53988477612715
 20
28.54999999999563
 30
0.0
 40
19.982
  1
60
 41
1.089505144794249
 72
     1
 11
-6.999884776127146
 21
28.54999999999563
 31
0.0
100
AcDbText
  0
LINE
  5
320
330
31B
100
AcDbEntity
  8
寸法
  6
Continuous
100
AcDbLine
 10
30.00011522387285
 20
-51.15000000000509
 30
0.0
 11
30.00011522387285
 21
18.84999999999491
 31
0.0
  0
LINE
  5
321
330
31B
100
AcDbEntity
  8
寸法
  6
Continuous
100
AcDbLine
 10
-29.99988477612715
 20
-52.15000000000509
 30
0.0
 11
-29.99988477612715
 21
18.84999999999491
 31
0.0
  0
LINE
  5
322
330
31B
100
AcDbEntity
  8
寸法
  6
Continuous
100
AcDbLine
 10
-29.99988477612715
 20
18.84999999999491
 30
0.0
 11
30.00011522387285
 21
18.84999999999491
 31
0.0
  0
LWPOLYLINE
  5
323
330
31B
100
AcDbEntity
  8
寸法
  6
Continuous
100
AcDbPolyline
 90
        3
 70
     0
 43
0.0
 10
-20.3406265132362
 20
16.26180954897063
 10
-29.99988477612715
 20
18.84999999999491
 10
-20.3406265132362
 20
21.43819045101918
  0
LWPOLYLINE
  5
324
330
31B
100
AcDbEntity
  8
寸法
  6
Continuous
100
AcDbPolyline
 90
        3
 70
     0
 43
0.0
 10
20.34085696098191
 20
21.43819045101918
 10
30.00011522387285
 20
18.84999999999491
 10
20.34085696098191
 20
16.26180954897063
  0
ENDBLK
  5
31D
330
31B
100
AcDbEntity
  8
0
100
AcDbBlockEnd
  0
BLOCK
  5
326
330
325
100
AcDbEntity
  8
0
100
AcDbBlockBegin
  2
INS-D8UPD
 70
     0
 10
0.0
 20
0.0
 30
0.0
  3
INS-D8UPD
  1

  0
TEXT
  5
329
330
325
100
AcDbEntity
  8
寸法
  6
Continuous
100
AcDbText
 10
-15.17988477612714
 20
28.19999999999709
 30
0.0
 40
19.982
  1
10
 41
1.089505144794249
 72
     1
 11
0.0001152238728537
 21
28.19999999999709
 31
0.0
100
AcDbText
  0
LINE
  5
32A
330
325
100
AcDbEntity
  8
寸法
  6
Continuous
100
AcDbLine
 10
5.000115223872854
 20
-51.80000000000291
 30
0.0
 11
5.000115223872854
 21
18.19999999999709
 31
0.0
  0
LINE
  5
32B
330
325
100
AcDbEntity
  8
寸法
  6
Continuous
100
AcDbLine
 10
-4.999884776127146
 20
-51.80000000000291
 30
0.0
 11
-4.999884776127146
 21
18.19999999999709
 31
0.0
  0
LINE
  5
32C
330
325
100
AcDbEntity
  8
寸法
  6
Continuous
100
AcDbLine
 10
-4.999884776127146
 20
18.19999999999709
 30
0.0
 11
5.000115223872854
 21
18.19999999999709
 31
0.0
  0
ENDBLK
  5
327
330
325
100
AcDbEntity
  8
0
100
AcDbBlockEnd
  0
BLOCK
  5
32E
330
32D
100
AcDbEntity
  8
0
100
AcDbBlockBegin
  2
INS-D5SJW
 70
     0
 10
0.0
 20
0.0
 30
0.0
  3
INS-D5SJW
  1

  0
TEXT
  5
331
330
32D
100
AcDbEntity
  8
寸法
  6
Continuous
100
AcDbText
 10
-8.039884776127145
 20
28.54999999999563
 30
0.0
 40
19.982
  1
60
 41
1.089505144794249
 72
     1
 11
10.50011522387285
 21
28.54999999999563
 31
0.0
100
AcDbText
  0
LINE
  5
332
330
32D
100
AcDbEntity
  8
寸法
  6
Continuous
100
AcDbLine
 10
30.00011522387285
 20
-52.15000000000509
 30
0.0
 11
30.00011522387285
 21
18.84999999999491
 31
0.0
  0
LINE
  5
333
330
32D
100
AcDbEntity
  8
寸法
  6
Continuous
100
AcDbLine
 10
-29.99988477612715
 20
-51.15000000000509
 30
0.0
 11
-29.99988477612715
 21
18.84999999999491
 31
0.0
  0
LINE
  5
334
330
32D
100
AcDbEntity
  8
寸法
  6
Continuous
100
AcDbLine
 10
-29.99988477612715
 20
18.84999999999491
 30
0.0
 11
30.00011522387285
 21
18.84999999999491
 31
0.0
  0
LWPOLYLINE
  5
335
330
32D
100
AcDbEntity
  8
寸法
  6
Continuous
100
AcDbPolyline
 90
        3
 70
     0
 43
0.0
 10
-20.3406265132362
 20
16.26180954897063
 10
-29.99988477612715
 20
18.84999999999491
 10
-20.3406265132362
 20
21.43819045101918
  0
LWPOLYLINE
  5
336
330
32D
100
AcDbEntity
  8
寸法
  6
Continuous
100
AcDbPolyline
 90
        3
 70
     0
 43
0.0
 10
20.34085696098191
 20
21.43819045101918
 10
30.00011522387285
 20
18.84999999999491
 10
20.34085696098191
 20
16.26180954897063
  0
ENDBLK
  5
32F
330
32D
100
AcDbEntity
  8
0
100
AcDbBlockEnd
  0
BLOCK
  5
344
330
343
100
AcDbEntity
  8
0
100
AcDbBlockBegin
  2
INS-D3MPO
 70
     0
 10
0.0
 20
0.0
 30
0.0
  3
INS-D3MPO
  1

  0
TEXT
  5
347
330
343
100
AcDbEntity
  8
寸法
  6
Continuous
100
AcDbText
 10
-31.69988477612787
 20
-42.42000000000362
 30
0.0
 40
19.982
  1
φ323
 50
90.0
 41
1.041145908602337
 72
     1
 11
-31.69988477612787
 21
-0.0000000000036309
 31
0.0
100
AcDbText
  0
LINE
  5
348
330
343
100
AcDbEntity
  8
寸法
  6
Continuous
100
AcDbLine
 10
55.30011522387213
 20
-161.5000000000036
 30
0.0
 11
-21.69988477612787
 21
-161.5000000000036
 31
0.0
  0
LINE
  5
349
330
343
100
AcDbEntity
  8
寸法
  6
Continuous
100
AcDbLine
 10
55.30011522387213
 20
161.4999999999964
 30
0.0
 11
-21.69988477612787
 21
161.4999999999964
 31
0.0
  0
LINE
  5
34A
330
343
100
AcDbEntity
  8
寸法
  6
Continuous
100
AcDbLine
 10
-21.69988477612787
 20
161.4999999999964
 30
0.0
 11
-21.69988477612787
 21
-161.5000000000036
 31
0.0
  0
LWPOLYLINE
  5
34B
330
343
100
AcDbEntity
  8
寸法
  6
Continuous
100
AcDbPolyline
 90
        3
 70
     0
 43
0.0
 10
-24.28807522715215
 20
151.8407417371054
 10
-21.69988477612787
 20
161.4999999999964
 10
-19.1116943251036
 20
151.8407417371054
  0
LWPOLYLINE
  5
34C
330
343
100
AcDbEntity
  8
寸法
  6
Continuous
100
AcDbPolyline
 90
        3
 70
     0
 43
0.0
 10
-19.1116943251036
 20
-151.8407417371127
 10
-21.69988477612787
 20
-161.5000000000036
 10
-24.28807522715215
 20
-151.8407417371127
  0
ENDBLK
  5
345
330
343
100
AcDbEntity
  8
0
100
AcDbBlockEnd
  0
BLOCK
  5
34E
330
34D
100
AcDbEntity
  8
0
100
AcDbBlockBegin
  2
INS-D7XZK
 70
     0
 10
0.0
 20
0.0
 30
0.0
  3
INS-D7XZK
  1

  0
TEXT
  5
351
330
34D
100
AcDbEntity
  8
寸法
  6
Continuous
100
AcDbText
 10
-26.53988477612715
 20
28.54999999999563
 30
0.0
 40
19.982
  1
60
 41
1.089505144794249
 72
     1
 11
-7.999884776127146
 21
28.54999999999563
 31
0.0
100
AcDbText
  0
LINE
  5
352
330
34D
100
AcDbEntity
  8
寸法
  6
Continuous
100
AcDbLine
 10
30.00011522387285
 20
-51.15000000000509
 30
0.0
 11
30.00011522387285
 21
18.84999999999491
 31
0.0
  0
LINE
  5
353
330
34D
100
AcDbEntity
  8
寸法
  6
Continuous
100
AcDbLine
 10
-29.99988477612715
 20
-52.15000000000509
 30
0.0
 11
-29.99988477612715
 21
18.84999999999491
 31
0.0
  0
LINE
  5
354
330
34D
100
AcDbEntity
  8
寸法
  6
Continuous
100
AcDbLine
 10
-29.99988477612715
 20
18.84999999999491
 30
0.0
 11
30.00011522387285
 21
18.84999999999491
 31
0.0
  0
LWPOLYLINE
  5
355
330
34D
100
AcDbEntity
  8
寸法
  6
Continuous
100
AcDbPolyline
 90
        3
 70
     0
 43
0.0
 10
-20.3406265132362
 20
16.26180954897063
 10
-29.99988477612715
 20
18.84999999999491
 10
-20.3406265132362
 20
21.43819045101918
  0
LWPOLYLINE
  5
356
330
34D
100
AcDbEntity
  8
寸法
  6
Continuous
100
AcDbPolyline
 90
        3
 70
     0
 43
0.0
 10
20.34085696098191
 20
21.43819045101918
 10
30.00011522387285
 20
18.84999999999491
 10
20.34085696098191
 20
16.26180954897063
  0
ENDBLK
  5
34F
330
34D
100
AcDbEntity
  8
0
100
AcDbBlockEnd
  0
BLOCK
  5
358
330
357
100
AcDbEntity
  8
0
100
AcDbBlockBegin
  2
INS-D8RP6
 70
     0
 10
0.0
 20
0.0
 30
0.0
  3
INS-D8RP6
  1

  0
TEXT
  5
35B
330
357
100
AcDbEntity
  8
寸法
  6
Continuous
100
AcDbText
 10
-15.17988477612714
 20
28.19999999999709
 30
0.0
 40
19.982
  1
10
 41
1.089505144794249
 72
     1
 11
0.0001152238728537
 21
28.19999999999709
 31
0.0
100
AcDbText
  0
LINE
  5
35C
330
357
100
AcDbEntity
  8
寸法
  6
Continuous
100
AcDbLine
 10
5.000115223872854
 20
-51.80000000000291
 30
0.0
 11
5.000115223872854
 21
18.19999999999709
 31
0.0
  0
LINE
  5
35D
330
357
100
AcDbEntity
  8
寸法
  6
Continuous
100
AcDbLine
 10
-4.999884776127146
 20
-51.80000000000291
 30
0.0
 11
-4.999884776127146
 21
18.19999999999709
 31
0.0
  0
LINE
  5
35E
330
357
100
AcDbEntity
  8
寸法
  6
Continuous
100
AcDbLine
 10
-4.999884776127146
 20
18.19999999999709
 30
0.0
 11
5.000115223872854
 21
18.19999999999709
 31
0.0
  0
ENDBLK
  5
359
330
357
100
AcDbEntity
  8
0
100
AcDbBlockEnd
  0
BLOCK
  5
360
330
35F
100
AcDbEntity
  8
0
100
AcDbBlockBegin
  2
INS-DNNOS
 70
     0
 10
0.0
 20
0.0
 30
0.0
  3
INS-DNNOS
  1

  0
TEXT
  5
363
330
35F
100
AcDbEntity
  8
寸法
  6
Continuous
100
AcDbText
 10
-6.80988477613122
 20
28.54999999999563
 30
0.0
 40
19.982
  1
60
 41
1.089505144794249
 72
     1
 11
11.73011522386878
 21
28.54999999999563
 31
0.0
100
AcDbText
  0
LINE
  5
364
330
35F
100
AcDbEntity
  8
寸法
  6
Continuous
100
AcDbLine
 10
29.73011522387242
 20
-52.15000000000509
 30
0.0
 11
29.73011522387242
 21
18.84999999999491
 31
0.0
  0
LINE
  5
365
330
35F
100
AcDbEntity
  8
寸法
  6
Continuous
100
AcDbLine
 10
-30.26988477612758
 20
-51.15000000000509
 30
0.0
 11
-30.26988477612758
 21
18.84999999999491
 31
0.0
  0
LINE
  5
366
330
35F
100
AcDbEntity
  8
寸法
  6
Continuous
100
AcDbLine
 10
-30.26988477612758
 20
18.84999999999491
 30
0.0
 11
29.73011522387242
 21
18.84999999999491
 31
0.0
  0
LWPOLYLINE
  5
367
330
35F
100
AcDbEntity
  8
寸法
  6
Continuous
100
AcDbPolyline
 90
        3
 70
     0
 43
0.0
 10
-20.61062651323664
 20
16.26180954897063
 10
-30.26988477612758
 20
18.84999999999491
 10
-20.61062651323664
 20
21.43819045101918
  0
LWPOLYLINE
  5
368
330
35F
100
AcDbEntity
  8
寸法
  6
Continuous
100
AcDbPolyline
 90
        3
 70
     0
 43
0.0
 10
20.07085696098147
 20
21.43819045101918
 10
29.73011522387242
 20
18.84999999999491
 10
20.07085696098147
 20
16.26180954897063
  0
ENDBLK
  5
361
330
35F
100
AcDbEntity
  8
0
100
AcDbBlockEnd
  0
BLOCK
  5
380
330
37F
100
AcDbEntity
  8
0
100
AcDbBlockBegin
  2
INS-DLX5I
 70
     0
 10
0.0
 20
0.0
 30
0.0
  3
INS-DLX5I
  1

  0
TEXT
  5
383
330
37F
100
AcDbEntity
  8
寸法
  6
Continuous
100
AcDbText
 10
-31.69988477612787
 20
-42.42000000000726
 30
0.0
 40
19.982
  1
φ348
 50
90.0
 41
1.041145908602337
 72
     1
 11
-31.69988477612787
 21
-0.0000000000072689
 31
0.0
100
AcDbText
  0
LINE
  5
384
330
37F
100
AcDbEntity
  8
寸法
  6
Continuous
100
AcDbLine
 10
55.30011522387213
 20
-174.0000000000073
 30
0.0
 11
-21.69988477612787
 21
-174.0000000000073
 31
0.0
  0
LINE
  5
385
330
37F
100
AcDbEntity
  8
寸法
  6
Continuous
100
AcDbLine
 10
55.30011522387213
 20
173.9999999999927
 30
0.0
 11
-21.69988477612787
 21
173.9999999999927
 31
0.0
  0
LINE
  5
386
330
37F
100
AcDbEntity
  8
寸法
  6
Continuous
100
AcDbLine
 10
-21.69988477612787
 20
173.9999999999927
 30
0.0
 11
-21.69988477612787
 21
-174.0000000000073
 31
0.0
  0
LWPOLYLINE
  5
387
330
37F
100
AcDbEntity
  8
寸法
  6
Continuous
100
AcDbPolyline
 90
        3
 70
     0
 43
0.0
 10
-24.28807522715215
 20
164.3407417371018
 10
-21.69988477612787
 20
173.9999999999927
 10
-19.1116943251036
 20
164.3407417371018
  0
LWPOLYLINE
  5
388
330
37F
100
AcDbEntity
  8
寸法
  6
Continuous
100
AcDbPolyline
 90
        3
 70
     0
 43
0.0
 10
-19.1116943251036
 20
-164.3407417371163
 10
-21.69988477612787
 20
-174.0000000000073
 10
-24.28807522715215
 20
-164.3407417371163
  0
ENDBLK
  5
381
330
37F
100
AcDbEntity
  8
0
100
AcDbBlockEnd
  0
BLOCK
  5
38A
330
389
100
AcDbEntity
  8
0
100
AcDbBlockBegin
  2
INS-D7DQV
 70
     0
 10
0.0
 20
0.0
 30
0.0
  3
INS-D7DQV
  1

  0
TEXT
  5
38D
330
389
100
AcDbEntity
  8
寸法
  6
Continuous
100
AcDbText
 10
-26.53988477613078
 20
28.54999999999199
 30
0.0
 40
19.982
  1
60
 41
1.089505144794249
 72
     1
 11
-7.999884776130784
 21
28.54999999999199
 31
0.0
100
AcDbText
  0
LINE
  5
38E
330
389
100
AcDbEntity
  8
寸法
  6
Continuous
100
AcDbLine
 10
30.00011522387285
 20
-51.15000000000873
 30
0.0
 11
30.00011522387285
 21
18.84999999999127
 31
0.0
  0
LINE
  5
38F
330
389
100
AcDbEntity
  8
寸法
  6
Continuous
100
AcDbLine
 10
-29.99988477612715
 20
-52.15000000000873
 30
0.0
 11
-29.99988477612715
 21
18.84999999999127
 31
0.0
  0
LINE
  5
390
330
389
100
AcDbEntity
  8
寸法
  6
Continuous
100
AcDbLine
 10
-29.99988477612715
 20
18.84999999999127
 30
0.0
 11
30.00011522387285
 21
18.84999999999127
 31
0.0
  0
LWPOLYLINE
  5
391
330
389
100
AcDbEntity
  8
寸法
  6
Continuous
100
AcDbPolyline
 90
        3
 70
     0
 43
0.0
 10
-20.3406265132362
 20
16.26180954896699
 10
-29.99988477612715
 20
18.84999999999127
 10
-20.3406265132362
 20
21.43819045101554
  0
LWPOLYLINE
  5
392
330
389
100
AcDbEntity
  8
寸法
  6
Continuous
100
AcDbPolyline
 90
        3
 70
     0
 43
0.0
 10
20.34085696098191
 20
21.43819045101554
 10
30.00011522387285
 20
18.84999999999127
 10
20.34085696098191
 20
16.26180954896699
  0
ENDBLK
  5
38B
330
389
100
AcDbEntity
  8
0
100
AcDbBlockEnd
  0
BLOCK
  5
394
330
393
100
AcDbEntity
  8
0
100
AcDbBlockBegin
  2
INS-DSAIC
 70
     0
 10
0.0
 20
0.0
 30
0.0
  3
INS-DSAIC
  1

  0
TEXT
  5
397
330
393
100
AcDbEntity
  8
寸法
  6
Continuous
100
AcDbText
 10
-15.17988477612714
 20
28.19999999999345
 30
0.0
 40
19.982
  1
10
 41
1.089505144794249
 72
     1
 11
0.0001152238728537
 21
28.19999999999345
 31
0.0
100
AcDbText
  0
LINE
  5
398
330
393
100
AcDbEntity
  8
寸法
  6
Continuous
100
AcDbLine
 10
5.000115223872854
 20
-51.80000000000655
 30
0.0
 11
5.000115223872854
 21
18.19999999999345
 31
0.0
  0
LINE
  5
399
330
393
100
AcDbEntity
  8
寸法
  6
Continuous
100
AcDbLine
 10
-4.999884776127146
 20
-51.80000000000655
 30
0.0
 11
-4.999884776127146
 21
18.19999999999345
 31
0.0
  0
LINE
  5
39A
330
393
100
AcDbEntity
  8
寸法
  6
Continuous
100
AcDbLine
 10
-4.999884776127146
 20
18.19999999999345
 30
0.0
 11
5.000115223872854
 21
18.19999999999345
 31
0.0
  0
ENDBLK
  5
395
330
393
100
AcDbEntity
  8
0
100
AcDbBlockEnd
  0
BLOCK
  5
39C
330
39B
100
AcDbEntity
  8
0
100
AcDbBlockBegin
  2
INS-D93JO
 70
     0
 10
0.0
 20
0.0
 30
0.0
  3
INS-D93JO
  1

  0
TEXT
  5
39F
330
39B
100
AcDbEntity
  8
寸法
  6
Continuous
100
AcDbText
 10
-9.039884776123507
 20
28.54999999999199
 30
0.0
 40
19.982
  1
60
 41
1.089505144794249
 72
     1
 11
9.500115223876492
 21
28.54999999999199
 31
0.0
100
AcDbText
  0
LINE
  5
3A0
330
39B
100
AcDbEntity
  8
寸法
  6
Continuous
100
AcDbLine
 10
30.00011522387285
 20
-52.15000000000873
 30
0.0
 11
30.00011522387285
 21
18.84999999999127
 31
0.0
  0
LINE
  5
3A1
330
39B
100
AcDbEntity
  8
寸法
  6
Continuous
100
AcDbLine
 10
-29.99988477612715
 20
-51.15000000000873
 30
0.0
 11
-29.99988477612715
 21
18.84999999999127
 31
0.0
  0
LINE
  5
3A2
330
39B
100
AcDbEntity
  8
寸法
  6
Continuous
100
AcDbLine
 10
-29.99988477612715
 20
18.84999999999127
 30
0.0
 11
30.00011522387285
 21
18.84999999999127
 31
0.0
  0
LWPOLYLINE
  5
3A3
330
39B
100
AcDbEntity
  8
寸法
  6
Continuous
100
AcDbPolyline
 90
        3
 70
     0
 43
0.0
 10
-20.3406265132362
 20
16.26180954896699
 10
-29.99988477612715
 20
18.84999999999127
 10
-20.3406265132362
 20
21.43819045101554
  0
LWPOLYLINE
  5
3A4
330
39B
100
AcDbEntity
  8
寸法
  6
Continuous
100
AcDbPolyline
 90
        3
 70
     0
 43
0.0
 10
20.34085696098191
 20
21.43819045101554
 10
30.00011522387285
 20
18.84999999999127
 10
20.34085696098191
 20
16.26180954896699
  0
ENDBLK
  5
39D
330
39B
100
AcDbEntity
  8
0
100
AcDbBlockEnd
  0
BLOCK
  5
3BC
330
3BB
100
AcDbEntity
  8
0
100
AcDbBlockBegin
  2
INS-D4W31
 70
     0
 10
0.0
 20
0.0
 30
0.0
  3
INS-D4W31
  1

  0
TEXT
  5
3BF
330
3BB
100
AcDbEntity
  8
寸法
  6
Continuous
100
AcDbText
 10
-31.69988477612787
 20
-42.42000000001089
 30
0.0
 40
19.982
  1
φ373
 50
90.0
 41
1.041145908602337
 72
     1
 11
-31.69988477612787
 21
-0.0000000000109068
 31
0.0
100
AcDbText
  0
LINE
  5
3C0
330
3BB
100
AcDbEntity
  8
寸法
  6
Continuous
100
AcDbLine
 10
55.30011522387213
 20
-186.5000000000109
 30
0.0
 11
-21.69988477612787
 21
-186.5000000000109
 31
0.0
  0
LINE
  5
3C1
330
3BB
100
AcDbEntity
  8
寸法
  6
Continuous
100
AcDbLine
 10
55.30011522387213
 20
186.4999999999891
 30
0.0
 11
-21.69988477612787
 21
186.4999999999891
 31
0.0
  0
LINE
  5
3C2
330
3BB
100
AcDbEntity
  8
寸法
  6
Continuous
100
AcDbLine
 10
-21.69988477612787
 20
186.4999999999891
 30
0.0
 11
-21.69988477612787
 21
-186.5000000000109
 31
0.0
  0
LWPOLYLINE
  5
3C3
330
3BB
100
AcDbEntity
  8
寸法
  6
Continuous
100
AcDbPolyline
 90
        3
 70
     0
 43
0.0
 10
-24.28807522715215
 20
176.8407417370981
 10
-21.69988477612787
 20
186.4999999999891
 10
-19.1116943251036
 20
176.8407417370981
  0
LWPOLYLINE
  5
3C4
330
3BB
100
AcDbEntity
  8
寸法
  6
Continuous
100
AcDbPolyline
 90
        3
 70
     0
 43
0.0
 10
-19.1116943251036
 20
-176.84074173712
 10
-21.69988477612787
 20
-186.5000000000109
 10
-24.28807522715215
 20
-176.84074173712
  0
ENDBLK
  5
3BD
330
3BB
100
AcDbEntity
  8
0
100
AcDbBlockEnd
  0
BLOCK
  5
3C6
330
3C5
100
AcDbEntity
  8
0
100
AcDbBlockBegin
  2
INS-D5R72
 70
     0
 10
0.0
 20
0.0
 30
0.0
  3
INS-D5R72
  1

  0
TEXT
  5
3C9
330
3C5
100
AcDbEntity
  8
寸法
  6
Continuous
100
AcDbText
 10
-29.03988477612715
 20
28.54999999998835
 30
0.0
 40
19.982
  1
60
 41
1.089505144794249
 72
     1
 11
-10.49988477612715
 21
28.54999999998835
 31
0.0
100
AcDbText
  0
LINE
  5
3CA
330
3C5
100
AcDbEntity
  8
寸法
  6
Continuous
100
AcDbLine
 10
30.00011522387285
 20
-51.15000000001237
 30
0.0
 11
30.00011522387285
 21
18.84999999998763
 31
0.0
  0
LINE
  5
3CB
330
3C5
100
AcDbEntity
  8
寸法
  6
Continuous
100
AcDbLine
 10
-29.99988477612715
 20
-52.15000000001237
 30
0.0
 11
-29.99988477612715
 21
18.84999999998763
 31
0.0
  0
LINE
  5
3CC
330
3C5
100
AcDbEntity
  8
寸法
  6
Continuous
100
AcDbLine
 10
-29.99988477612715
 20
18.84999999998763
 30
0.0
 11
30.00011522387285
 21
18.84999999998763
 31
0.0
  0
LWPOLYLINE
  5
3CD
330
3C5
100
AcDbEntity
  8
寸法
  6
Continuous
100
AcDbPolyline
 90
        3
 70
     0
 43
0.0
 10
-20.3406265132362
 20
16.26180954896336
 10
-29.99988477612715
 20
18.84999999998763
 10
-20.3406265132362
 20
21.43819045101191
  0
LWPOLYLINE
  5
3CE
330
3C5
100
AcDbEntity
  8
寸法
  6
Continuous
100
AcDbPolyline
 90
        3
 70
     0
 43
0.0
 10
20.34085696098191
 20
21.43819045101191
 10
30.00011522387285
 20
18.84999999998763
 10
20.34085696098191
 20
16.26180954896336
  0
ENDBLK
  5
3C7
330
3C5
100
AcDbEntity
  8
0
100
AcDbBlockEnd
  0
BLOCK
  5
3D0
330
3CF
100
AcDbEntity
  8
0
100
AcDbBlockBegin
  2
INS-DX9M5
 70
     0
 10
0.0
 20
0.0
 30
0.0
  3
INS-DX9M5
  1

  0
TEXT
  5
3D3
330
3CF
100
AcDbEntity
  8
寸法
  6
Continuous
100
AcDbText
 10
-15.17988477612714
 20
28.19999999998981
 30
0.0
 40
19.982
  1
10
 41
1.089505144794249
 72
     1
 11
0.0001152238728537
 21
28.19999999998981
 31
0.0
100
AcDbText
  0
LINE
  5
3D4
330
3CF
100
AcDbEntity
  8
寸法
  6
Continuous
100
AcDbLine
 10
5.000115223872854
 20
-51.80000000001019
 30
0.0
 11
5.000115223872854
 21
18.19999999998981
 31
0.0
  0
LINE
  5
3D5
330
3CF
100
AcDbEntity
  8
寸法
  6
Continuous
100
AcDbLine
 10
-4.999884776127146
 20
-51.80000000001019
 30
0.0
 11
-4.999884776127146
 21
18.19999999998981
 31
0.0
  0
LINE
  5
3D6
330
3CF
100
AcDbEntity
  8
寸法
  6
Continuous
100
AcDbLine
 10
-4.999884776127146
 20
18.19999999998981
 30
0.0
 11
5.000115223872854
 21
18.19999999998981
 31
0.0
  0
ENDBLK
  5
3D1
330
3CF
100
AcDbEntity
  8
0
100
AcDbBlockEnd
  0
BLOCK
  5
3D8
330
3D7
100
AcDbEntity
  8
0
100
AcDbBlockBegin
  2
INS-D6RF5
 70
     0
 10
0.0
 20
0.0
 30
0.0
  3
INS-D6RF5
  1

  0
TEXT
  5
3DB
330
3D7
100
AcDbEntity
  8
寸法
  6
Continuous
100
AcDbText
 10
-10.03988477612715
 20
28.54999999998835
 30
0.0
 40
19.982
  1
60
 41
1.089505144794249
 72
     1
 11
8.500115223872854
 21
28.54999999998835
 31
0.0
100
AcDbText
  0
LINE
  5
3DC
330
3D7
100
AcDbEntity
  8
寸法
  6
Continuous
100
AcDbLine
 10
30.00011522387285
 20
-52.15000000001237
 30
0.0
 11
30.00011522387285
 21
18.84999999998763
 31
0.0
  0
LINE
  5
3DD
330
3D7
100
AcDbEntity
  8
寸法
  6
Continuous
100
AcDbLine
 10
-29.99988477612715
 20
-51.15000000001237
 30
0.0
 11
-29.99988477612715
 21
18.84999999998763
 31
0.0
  0
LINE
  5
3DE
330
3D7
100
AcDbEntity
  8
寸法
  6
Continuous
100
AcDbLine
 10
-29.99988477612715
 20
18.84999999998763
 30
0.0
 11
30.00011522387285
 21
18.84999999998763
 31
0.0
  0
LWPOLYLINE
  5
3DF
330
3D7
100
AcDbEntity
  8
寸法
  6
Continuous
100
AcDbPolyline
 90
        3
 70
     0
 43
0.0
 10
-20.3406265132362
 20
16.26180954896336
 10
-29.99988477612715
 20
18.84999999998763
 10
-20.3406265132362
 20
21.43819045101191
  0
LWPOLYLINE
  5
3E0
330
3D7
100
AcDbEntity
  8
寸法
  6
Continuous
100
AcDbPolyline
 90
        3
 70
     0
 43
0.0
 10
20.34085696098191
 20
21.43819045101191
 10
30.00011522387285
 20
18.84999999998763
 10
20.34085696098191
 20
16.26180954896336
  0
ENDBLK
  5
3D9
330
3D7
100
AcDbEntity
  8
0
100
AcDbBlockEnd
  0
BLOCK
  5
3F8
330
3F7
100
AcDbEntity
  8
0
100
AcDbBlockBegin
  2
INS-D8JC3
 70
     0
 10
0.0
 20
0.0
 30
0.0
  3
INS-D8JC3
  1

  0
TEXT
  5
3FB
330
3F7
100
AcDbEntity
  8
寸法
  6
Continuous
100
AcDbText
 10
-31.69988477612787
 20
-42.42000000001089
 30
0.0
 40
19.982
  1
φ398
 50
90.0
 41
1.041145908602337
 72
     1
 11
-31.69988477612787
 21
-0.0000000000109068
 31
0.0
100
AcDbText
  0
LINE
  5
3FC
330
3F7
100
AcDbEntity
  8
寸法
  6
Continuous
100
AcDbLine
 10
55.30011522387213
 20
-199.0000000000109
 30
0.0
 11
-21.69988477612787
 21
-199.0000000000109
 31
0.0
  0
LINE
  5
3FD
330
3F7
100
AcDbEntity
  8
寸法
  6
Continuous
100
AcDbLine
 10
55.30011522387213
 20
198.9999999999891
 30
0.0
 11
-21.69988477612787
 21
198.9999999999891
 31
0.0
  0
LINE
  5
3FE
330
3F7
100
AcDbEntity
  8
寸法
  6
Continuous
100
AcDbLine
 10
-21.69988477612787
 20
198.9999999999891
 30
0.0
 11
-21.69988477612787
 21
-199.0000000000109
 31
0.0
  0
LWPOLYLINE
  5
3FF
330
3F7
100
AcDbEntity
  8
寸法
  6
Continuous
100
AcDbPolyline
 90
        3
 70
     0
 43
0.0
 10
-24.28807522715215
 20
189.3407417370981
 10
-21.69988477612787
 20
198.9999999999891
 10
-19.1116943251036
 20
189.3407417370981
  0
LWPOLYLINE
  5
400
330
3F7
100
AcDbEntity
  8
寸法
  6
Continuous
100
AcDbPolyline
 90
        3
 70
     0
 43
0.0
 10
-19.1116943251036
 20
-189.34074173712
 10
-21.69988477612787
 20
-199.0000000000109
 10
-24.28807522715215
 20
-189.34074173712
  0
ENDBLK
  5
3F9
330
3F7
100
AcDbEntity
  8
0
100
AcDbBlockEnd
  0
BLOCK
  5
402
330
401
100
AcDbEntity
  8
0
100
AcDbBlockBegin
  2
INS-DJBEG
 70
     0
 10
0.0
 20
0.0
 30
0.0
  3
INS-DJBEG
  1

  0
TEXT
  5
405
330
401
100
AcDbEntity
  8
寸法
  6
Continuous
100
AcDbText
 10
-28.53988477612715
 20
28.54999999998835
 30
0.0
 40
19.982
  1
60
 41
1.089505144794249
 72
     1
 11
-9.999884776127146
 21
28.54999999998835
 31
0.0
100
AcDbText
  0
LINE
  5
406
330
401
100
AcDbEntity
  8
寸法
  6
Continuous
100
AcDbLine
 10
30.00011522387285
 20
-51.15000000001237
 30
0.0
 11
30.00011522387285
 21
18.84999999998763
 31
0.0
  0
LINE
  5
407
330
401
100
AcDbEntity
  8
寸法
  6
Continuous
100
AcDbLine
 10
-29.99988477612715
 20
-52.15000000001237
 30
0.0
 11
-29.99988477612715
 21
18.84999999998763
 31
0.0
  0
LINE
  5
408
330
401
100
AcDbEntity
  8
寸法
  6
Continuous
100
AcDbLine
 10
-29.99988477612715
 20
18.84999999998763
 30
0.0
 11
30.00011522387285
 21
18.84999999998763
 31
0.0
  0
LWPOLYLINE
  5
409
330
401
100
AcDbEntity
  8
寸法
  6
Continuous
100
AcDbPolyline
 90
        3
 70
     0
 43
0.0
 10
-20.3406265132362
 20
16.26180954896336
 10
-29.99988477612715
 20
18.84999999998763
 10
-20.3406265132362
 20
21.43819045101191
  0
LWPOLYLINE
  5
40A
330
401
100
AcDbEntity
  8
寸法
  6
Continuous
100
AcDbPolyline
 90
        3
 70
     0
 43
0.0
 10
20.34085696098191
 20
21.43819045101191
 10
30.00011522387285
 20
18.84999999998763
 10
20.34085696098191
 20
16.26180954896336
  0
ENDBLK
  5
403
330
401
100
AcDbEntity
  8
0
100
AcDbBlockEnd
  0
BLOCK
  5
40C
330
40B
100
AcDbEntity
  8
0
100
AcDbBlockBegin
  2
INS-D8NJ7
 70
     0
 10
0.0
 20
0.0
 30
0.0
  3
INS-D8NJ7
  1

  0
TEXT
  5
40F
330
40B
100
AcDbEntity
  8
寸法
  6
Continuous
100
AcDbText
 10
-15.17988477612714
 20
28.19999999998981
 30
0.0
 40
19.982
  1
10
 41
1.089505144794249
 72
     1
 11
0.0001152238728537
 21
28.19999999998981
 31
0.0
100
AcDbText
  0
LINE
  5
410
330
40B
100
AcDbEntity
  8
寸法
  6
Continuous
100
AcDbLine
 10
5.000115223872854
 20
-51.80000000001019
 30
0.0
 11
5.000115223872854
 21
18.19999999998981
 31
0.0
  0
LINE
  5
411
330
40B
100
AcDbEntity
  8
寸法
  6
Continuous
100
AcDbLine
 10
-4.999884776127146
 20
-51.80000000001019
 30
0.0
 11
-4.999884776127146
 21
18.19999999998981
 31
0.0
  0
LINE
  5
412
330
40B
100
AcDbEntity
  8
寸法
  6
Continuous
100
AcDbLine
 10
-4.999884776127146
 20
18.19999999998981
 30
0.0
 11
5.000115223872854
 21
18.19999999998981
 31
0.0
  0
ENDBLK
  5
40D
330
40B
100
AcDbEntity
  8
0
100
AcDbBlockEnd
  0
BLOCK
  5
414
330
413
100
AcDbEntity
  8
0
100
AcDbBlockBegin
  2
INS-D85HI
 70
     0
 10
0.0
 20
0.0
 30
0.0
  3
INS-D85HI
  1

  0
TEXT
  5
417
330
413
100
AcDbEntity
  8
寸法
  6
Continuous
100
AcDbText
 10
-7.059884776127582
 20
28.54999999998835
 30
0.0
 40
19.982
  1
60
 41
1.089505144794249
 72
     1
 11
11.48011522387242
 21
28.54999999998835
 31
0.0
100
AcDbText
  0
LINE
  5
418
330
413
100
AcDbEntity
  8
寸法
  6
Continuous
100
AcDbLine
 10
29.98011522387242
 20
-52.15000000001237
 30
0.0
 11
29.98011522387242
 21
18.84999999998763
 31
0.0
  0
LINE
  5
419
330
413
100
AcDbEntity
  8
寸法
  6
Continuous
100
AcDbLine
 10
-30.01988477612758
 20
-51.15000000001237
 30
0.0
 11
-30.01988477612758
 21
18.84999999998763
 31
0.0
  0
LINE
  5
41A
330
413
100
AcDbEntity
  8
寸法
  6
Continuous
100
AcDbLine
 10
-30.01988477612758
 20
18.84999999998763
 30
0.0
 11
29.98011522387242
 21
18.84999999998763
 31
0.0
  0
LWPOLYLINE
  5
41B
330
413
100
AcDbEntity
  8
寸法
  6
Continuous
100
AcDbPolyline
 90
        3
 70
     0
 43
0.0
 10
-20.36062651323664
 20
16.26180954896336
 10
-30.01988477612758
 20
18.84999999998763
 10
-20.36062651323664
 20
21.43819045101191
  0
LWPOLYLINE
  5
41C
330
413
100
AcDbEntity
  8
寸法
  6
Continuous
100
AcDbPolyline
 90
        3
 70
     0
 43
0.0
 10
20.32085696098147
 20
21.43819045101191
 10
29.98011522387242
 20
18.84999999998763
 10
20.32085696098147
 20
16.26180954896336
  0
ENDBLK
  5
415
330
413
100
AcDbEntity
  8
0
100
AcDbBlockEnd
  0
BLOCK
  5
434
330
433
100
AcDbEntity
  8
0
100
AcDbBlockBegin
  2
INS-D70QF
 70
     0
 10
0.0
 20
0.0
 30
0.0
  3
INS-D70QF
  1

  0
TEXT
  5
437
330
433
100
AcDbEntity
  8
寸法
  6
Continuous
100
AcDbText
 10
-31.69988477612787
 20
-42.42000000001453
 30
0.0
 40
19.982
  1
φ448
 50
90.0
 41
1.041145908602337
 72
     1
 11
-31.69988477612787
 21
-0.0000000000145448
 31
0.0
100
AcDbText
  0
LINE
  5
438
330
433
100
AcDbEntity
  8
寸法
  6
Continuous
100
AcDbLine
 10
55.30011522387213
 20
-224.0000000000146
 30
0.0
 11
-21.69988477612787
 21
-224.0000000000146
 31
0.0
  0
LINE
  5
439
330
433
100
AcDbEntity
  8
寸法
  6
Continuous
100
AcDbLine
 10
55.30011522387213
 20
223.9999999999854
 30
0.0
 11
-21.69988477612787
 21
223.9999999999854
 31
0.0
  0
LINE
  5
43A
330
433
100
AcDbEntity
  8
寸法
  6
Continuous
100
AcDbLine
 10
-21.69988477612787
 20
223.9999999999854
 30
0.0
 11
-21.69988477612787
 21
-224.0000000000146
 31
0.0
  0
LWPOLYLINE
  5
43B
330
433
100
AcDbEntity
  8
寸法
  6
Continuous
100
AcDbPolyline
 90
        3
 70
     0
 43
0.0
 10
-24.28807522715215
 20
214.3407417370945
 10
-21.69988477612787
 20
223.9999999999854
 10
-19.1116943251036
 20
214.3407417370945
  0
LWPOLYLINE
  5
43C
330
433
100
AcDbEntity
  8
寸法
  6
Continuous
100
AcDbPolyline
 90
        3
 70
     0
 43
0.0
 10
-19.1116943251036
 20
-214.3407417371236
 10
-21.69988477612787
 20
-224.0000000000146
 10
-24.28807522715215
 20
-214.3407417371236
  0
ENDBLK
  5
435
330
433
100
AcDbEntity
  8
0
100
AcDbBlockEnd
  0
BLOCK
  5
43E
330
43D
100
AcDbEntity
  8
0
100
AcDbBlockBegin
  2
INS-DXXSJ
 70
     0
 10
0.0
 20
0.0
 30
0.0
  3
INS-DXXSJ
  1

  0
TEXT
  5
441
330
43D
100
AcDbEntity
  8
寸法
  6
Continuous
100
AcDbText
 10
-23.57988477612714
 20
28.54999999998472
 30
0.0
 40
19.982
  1
100
 41
1.056781492035411
 72
     1
 11
0.0001152238728537
 21
28.54999999998472
 31
0.0
100
AcDbText
  0
LINE
  5
442
330
43D
100
AcDbEntity
  8
寸法
  6
Continuous
100
AcDbLine
 10
50.00011522387285
 20
-51.15000000001601
 30
0.0
 11
50.00011522387285
 21
18.84999999998399
 31
0.0
  0
LINE
  5
443
330
43D
100
AcDbEntity
  8
寸法
  6
Continuous
100
AcDbLine
 10
-49.99988477612715
 20
-52.15000000001601
 30
0.0
 11
-49.99988477612715
 21
18.84999999998399
 31
0.0
  0
LINE
  5
444
330
43D
100
AcDbEntity
  8
寸法
  6
Continuous
100
AcDbLine
 10
-49.99988477612715
 20
18.84999999998399
 30
0.0
 11
50.00011522387285
 21
18.84999999998399
 31
0.0
  0
LWPOLYLINE
  5
445
330
43D
100
AcDbEntity
  8
寸法
  6
Continuous
100
AcDbPolyline
 90
        3
 70
     0
 43
0.0
 10
-40.3406265132362
 20
16.26180954895972
 10
-49.99988477612715
 20
18.84999999998399
 10
-40.3406265132362
 20
21.43819045100827
  0
LWPOLYLINE
  5
446
330
43D
100
AcDbEntity
  8
寸法
  6
Continuous
100
AcDbPolyline
 90
        3
 70
     0
 43
0.0
 10
40.34085696098191
 20
21.43819045100827
 10
50.00011522387285
 20
18.84999999998399
 10
40.34085696098191
 20
16.26180954895972
  0
ENDBLK
  5
43F
330
43D
100
AcDbEntity
  8
0
100
AcDbBlockEnd
  0
BLOCK
  5
448
330
447
100
AcDbEntity
  8
0
100
AcDbBlockBegin
  2
INS-DRJNF
 70
     0
 10
0.0
 20
0.0
 30
0.0
  3
INS-DRJNF
  1

  0
TEXT
  5
44B
330
447
100
AcDbEntity
  8
寸法
  6
Continuous
100
AcDbText
 10
-15.17988477612714
 20
28.19999999998617
 30
0.0
 40
19.982
  1
10
 41
1.089505144794249
 72
     1
 11
0.0001152238728537
 21
28.19999999998617
 31
0.0
100
AcDbText
  0
LINE
  5
44C
330
447
100
AcDbEntity
  8
寸法
  6
Continuous
100
AcDbLine
 10
5.000115223872854
 20
-51.80000000001382
 30
0.0
 11
5.000115223872854
 21
18.19999999998618
 31
0.0
  0
LINE
  5
44D
330
447
100
AcDbEntity
  8
寸法
  6
Continuous
100
AcDbLine
 10
-4.999884776127146
 20
-51.80000000001382
 30
0.0
 11
-4.999884776127146
 21
18.19999999998618
 31
0.0
  0
LINE
  5
44E
330
447
100
AcDbEntity
  8
寸法
  6
Continuous
100
AcDbLine
 10
-4.999884776127146
 20
18.19999999998618
 30
0.0
 11
5.000115223872854
 21
18.19999999998618
 31
0.0
  0
ENDBLK
  5
449
330
447
100
AcDbEntity
  8
0
100
AcDbBlockEnd
  0
BLOCK
  5
450
330
44F
100
AcDbEntity
  8
0
100
AcDbBlockBegin
  2
INS-DQ13F
 70
     0
 10
0.0
 20
0.0
 30
0.0
  3
INS-DQ13F
  1

  0
TEXT
  5
453
330
44F
100
AcDbEntity
  8
寸法
  6
Continuous
100
AcDbText
 10
-23.5798847761235
 20
28.54999999998472
 30
0.0
 40
19.982
  1
100
 41
1.056781492035411
 72
     1
 11
0.0001152238764917
 21
28.54999999998472
 31
0.0
100
AcDbText
  0
LINE
  5
454
330
44F
100
AcDbEntity
  8
寸法
  6
Continuous
100
AcDbLine
 10
50.00011522387285
 20
-52.15000000001601
 30
0.0
 11
50.00011522387285
 21
18.84999999998399
 31
0.0
  0
LINE
  5
455
330
44F
100
AcDbEntity
  8
寸法
  6
Continuous
100
AcDbLine
 10
-49.99988477612715
 20
-51.15000000001601
 30
0.0
 11
-49.99988477612715
 21
18.84999999998399
 31
0.0
  0
LINE
  5
456
330
44F
100
AcDbEntity
  8
寸法
  6
Continuous
100
AcDbLine
 10
-49.99988477612715
 20
18.84999999998399
 30
0.0
 11
50.00011522387285
 21
18.84999999998399
 31
0.0
  0
LWPOLYLINE
  5
457
330
44F
100
AcDbEntity
  8
寸法
  6
Continuous
100
AcDbPolyline
 90
        3
 70
     0
 43
0.0
 10
-40.3406265132362
 20
16.26180954895972
 10
-49.99988477612715
 20
18.84999999998399
 10
-40.3406265132362
 20
21.43819045100827
  0
LWPOLYLINE
  5
458
330
44F
100
AcDbEntity
  8
寸法
  6
Continuous
100
AcDbPolyline
 90
        3
 70
     0
 43
0.0
 10
40.34085696098191
 20
21.43819045100827
 10
50.00011522387285
 20
18.84999999998399
 10
40.34085696098191
 20
16.26180954895972
  0
ENDBLK
  5
451
330
44F
100
AcDbEntity
  8
0
100
AcDbBlockEnd
  0
BLOCK
  5
470
330
46F
100
AcDbEntity
  8
0
100
AcDbBlockBegin
  2
INS-D5ZZ5
 70
     0
 10
0.0
 20
0.0
 30
0.0
  3
INS-D5ZZ5
  1

  0
TEXT
  5
473
330
46F
100
AcDbEntity
  8
寸法
  6
Continuous
100
AcDbText
 10
-31.69988477612787
 20
-42.42000000001453
 30
0.0
 40
19.982
  1
φ498
 50
90.0
 41
1.041145908602337
 72
     1
 11
-31.69988477612787
 21
-0.0000000000145448
 31
0.0
100
AcDbText
  0
LINE
  5
474
330
46F
100
AcDbEntity
  8
寸法
  6
Continuous
100
AcDbLine
 10
55.30011522387213
 20
-249.0000000000146
 30
0.0
 11
-21.69988477612787
 21
-249.0000000000146
 31
0.0
  0
LINE
  5
475
330
46F
100
AcDbEntity
  8
寸法
  6
Continuous
100
AcDbLine
 10
55.30011522387213
 20
248.9999999999854
 30
0.0
 11
-21.69988477612787
 21
248.9999999999854
 31
0.0
  0
LINE
  5
476
330
46F
100
AcDbEntity
  8
寸法
  6
Continuous
100
AcDbLine
 10
-21.69988477612787
 20
248.9999999999854
 30
0.0
 11
-21.69988477612787
 21
-249.0000000000146
 31
0.0
  0
LWPOLYLINE
  5
477
330
46F
100
AcDbEntity
  8
寸法
  6
Continuous
100
AcDbPolyline
 90
        3
 70
     0
 43
0.0
 10
-24.28807522715215
 20
239.3407417370981
 10
-21.69988477612787
 20
248.9999999999854
 10
-19.1116943251036
 20
239.3407417370981
  0
LWPOLYLINE
  5
478
330
46F
100
AcDbEntity
  8
寸法
  6
Continuous
100
AcDbPolyline
 90
        3
 70
     0
 43
0.0
 10
-19.1116943251036
 20
-239.3407417371272
 10
-21.69988477612787
 20
-249.0000000000146
 10
-24.28807522715215
 20
-239.3407417371272
  0
ENDBLK
  5
471
330
46F
100
AcDbEntity
  8
0
100
AcDbBlockEnd
  0
BLOCK
  5
47A
330
479
100
AcDbEntity
  8
0
100
AcDbBlockBegin
  2
INS-D8IRS
 70
     0
 10
0.0
 20
0.0
 30
0.0
  3
INS-D8IRS
  1

  0
TEXT
  5
47D
330
479
100
AcDbEntity
  8
寸法
  6
Continuous
100
AcDbText
 10
-23.57988477612714
 20
28.54999999998108
 30
0.0
 40
19.982
  1
100
 41
1.056781492035411
 72
     1
 11
0.0001152238728537
 21
28.54999999998108
 31
0.0
100
AcDbText
  0
LINE
  5
47E
330
479
100
AcDbEntity
  8
寸法
  6
Continuous
100
AcDbLine
 10
50.00011522387285
 20
-51.15000000001601
 30
0.0
 11
50.00011522387285
 21
18.84999999998399
 31
0.0
  0
LINE
  5
47F
330
479
100
AcDbEntity
  8
寸法
  6
Continuous
100
AcDbLine
 10
-49.99988477612715
 20
-52.15000000001601
 30
0.0
 11
-49.99988477612715
 21
18.84999999998399
 31
0.0
  0
LINE
  5
480
330
479
100
AcDbEntity
  8
寸法
  6
Continuous
100
AcDbLine
 10
-49.99988477612715
 20
18.84999999998399
 30
0.0
 11
50.00011522387285
 21
18.84999999998399
 31
0.0
  0
LWPOLYLINE
  5
481
330
479
100
AcDbEntity
  8
寸法
  6
Continuous
100
AcDbPolyline
 90
        3
 70
     0
 43
0.0
 10
-40.3406265132362
 20
16.26180954895972
 10
-49.99988477612715
 20
18.84999999998399
 10
-40.3406265132362
 20
21.43819045100827
  0
LWPOLYLINE
  5
482
330
479
100
AcDbEntity
  8
寸法
  6
Continuous
100
AcDbPolyline
 90
        3
 70
     0
 43
0.0
 10
40.34085696098191
 20
21.43819045100827
 10
50.00011522387285
 20
18.84999999998399
 10
40.34085696098191
 20
16.26180954895972
  0
ENDBLK
  5
47B
330
479
100
AcDbEntity
  8
0
100
AcDbBlockEnd
  0
BLOCK
  5
484
330
483
100
AcDbEntity
  8
0
100
AcDbBlockBegin
  2
INS-DB2EL
 70
     0
 10
0.0
 20
0.0
 30
0.0
  3
INS-DB2EL
  1

  0
TEXT
  5
487
330
483
100
AcDbEntity
  8
寸法
  6
Continuous
100
AcDbText
 10
-15.17988477612714
 20
28.19999999998253
 30
0.0
 40
19.982
  1
10
 41
1.089505144794249
 72
     1
 11
0.0001152238728537
 21
28.19999999998253
 31
0.0
100
AcDbText
  0
LINE
  5
488
330
483
100
AcDbEntity
  8
寸法
  6
Continuous
100
AcDbLine
 10
5.000115223872854
 20
-51.80000000001746
 30
0.0
 11
5.000115223872854
 21
18.19999999998254
 31
0.0
  0
LINE
  5
489
330
483
100
AcDbEntity
  8
寸法
  6
Continuous
100
AcDbLine
 10
-4.999884776127146
 20
-51.80000000001746
 30
0.0
 11
-4.999884776127146
 21
18.19999999998254
 31
0.0
  0
LINE
  5
48A
330
483
100
AcDbEntity
  8
寸法
  6
Continuous
100
AcDbLine
 10
-4.999884776127146
 20
18.19999999998254
 30
0.0
 11
5.000115223872854
 21
18.19999999998254
 31
0.0
  0
ENDBLK
  5
485
330
483
100
AcDbEntity
  8
0
100
AcDbBlockEnd
  0
BLOCK
  5
48C
330
48B
100
AcDbEntity
  8
0
100
AcDbBlockBegin
  2
INS-DZ4BF
 70
     0
 10
0.0
 20
0.0
 30
0.0
  3
INS-DZ4BF
  1

  0
TEXT
  5
48F
330
48B
100
AcDbEntity
  8
寸法
  6
Continuous
100
AcDbText
 10
-23.57988477612714
 20
28.54999999998108
 30
0.0
 40
19.982
  1
100
 41
1.056781492035411
 72
     1
 11
0.0001152238728537
 21
28.54999999998108
 31
0.0
100
AcDbText
  0
LINE
  5
490
330
48B
100
AcDbEntity
  8
寸法
  6
Continuous
100
AcDbLine
 10
50.00011522387285
 20
-52.15000000001601
 30
0.0
 11
50.00011522387285
 21
18.84999999998399
 31
0.0
  0
LINE
  5
491
330
48B
100
AcDbEntity
  8
寸法
  6
Continuous
100
AcDbLine
 10
-49.99988477612715
 20
-51.15000000001601
 30
0.0
 11
-49.99988477612715
 21
18.84999999998399
 31
0.0
  0
LINE
  5
492
330
48B
100
AcDbEntity
  8
寸法
  6
Continuous
100
AcDbLine
 10
-49.99988477612715
 20
18.84999999998399
 30
0.0
 11
50.00011522387285
 21
18.84999999998399
 31
0.0
  0
LWPOLYLINE
  5
493
330
48B
100
AcDbEntity
  8
寸法
  6
Continuous
100
AcDbPolyline
 90
        3
 70
     0
 43
0.0
 10
-40.3406265132362
 20
16.26180954895972
 10
-49.99988477612715
 20
18.84999999998399
 10
-40.3406265132362
 20
21.43819045100827
  0
LWPOLYLINE
  5
494
330
48B
100
AcDbEntity
  8
寸法
  6
Continuous
100
AcDbPolyline
 90
        3
 70
     0
 43
0.0
 10
40.34085696098191
 20
21.43819045100827
 10
50.00011522387285
 20
18.84999999998399
 10
40.34085696098191
 20
16.26180954895972
  0
ENDBLK
  5
48D
330
48B
100
AcDbEntity
  8
0
100
AcDbBlockEnd
  0
ENDSEC
  0
SECTION
  2
ENTITIES
  0
LINE
  5
B9
330
1F
100
AcDbEntity
  8
シンボル
100
AcDbLine
 10
18720.42511522387
 20
-18000.0
 30
0.0
 11
18720.42511522387
 21
-34000.0
 31
0.0
  0
LINE
  5
BA
330
1F
100
AcDbEntity
  8
シンボル
100
AcDbLine
 10
16720.42511522387
 20
-19400.0
 30
0.0
 11
20720.42511522387
 21
-19400.0
 31
0.0
  0
LINE
  5
BB
330
1F
100
AcDbEntity
  8
シンボル
100
AcDbLine
 10
20720.42511522387
 20
-18000.0
 30
0.0
 11
20720.42511522387
 21
-34000.0
 31
0.0
  0
TEXT
  5
BC
330
1F
100
AcDbEntity
  8
03-文字-2
100
AcDbText
 10
19260.42511522387
 20
-18799.91
 30
0.0
 40
199.82
  1
ニップル
 41
0.9977648290772398
 72
     1
 11
19720.42511522387
 21
-18700.0
 31
0.0
100
AcDbText
 73
     2
  0
LINE
  5
BD
330
1F
100
AcDbEntity
  8
シンボル
100
AcDbLine
 10
16720.42511522387
 20
-18000.0
 30
0.0
 11
20720.42511522387
 21
-18000.0
 31
0.0
  0
LINE
  5
BE
330
1F
100
AcDbEntity
  8
シンボル
100
AcDbLine
 10
16720.42511522387
 20
-18000.0
 30
0.0
 11
16720.42511522387
 21
-34000.0
 31
0.0
  0
LINE
  5
BF
330
1F
100
AcDbEntity
  8
シンボル
100
AcDbLine
 10
16720.42511522387
 20
-18000.0
 30
0.0
 11
18720.42511522134
 21
-19400.0
 31
0.0
  0
TEXT
  5
C0
330
1F
100
AcDbEntity
  8
03-文字-2
100
AcDbText
 10
17114.92511522387
 20
-19899.90999999977
 30
0.0
 40
199.82
  1
管径 φ75
 41
0.997467188737445
 72
     1
 11
17720.42511522387
 21
-19799.99999999977
 31
0.0
100
AcDbText
 73
     2
  0
LINE
  5
C1
330
1F
100
AcDbEntity
  8
シンボル
100
AcDbLine
 10
16720.42511522387
 20
-20200.0
 30
0.0
 11
20720.42511522387
 21
-20200.0
 31
0.0
  0
TEXT
  5
C2
330
1F
100
AcDbEntity
  8
03-文字-2
100
AcDbText
 10
17080.23940093827
 20
-20699.91000000052
 30
0.0
 40
199.82
  1
管径 φ100
 41
0.997383736138513
 72
     1
 11
17720.42511522398
 21
-20600.00000000052
 31
0.0
100
AcDbText
 73
     2
  0
LINE
  5
C3
330
1F
100
AcDbEntity
  8
04-ダクトセンター
100
AcDbLine
 10
19655.42511522387
 20
-19800.0
 30
0.0
 11
19785.42511522387
 21
-19800.0
 31
0.0
  0
ARC
  5
C4
330
1F
100
AcDbEntity
  8
05-ダクト外線
100
AcDbCircle
 10
19720.42511522387
 20
-19837.5
 30
0.0
 40
5.0
100
AcDbArc
 50
180.0
 51
0.0
  0
LINE
  5
C5
330
1F
100
AcDbEntity
  8
05-ダクト外線
100
AcDbLine
 10
19655.42511522387
 20
-19836.5
 30
0.0
 11
19715.42511522387
 21
-19836.5
 31
0.0
  0
LINE
  5
C6
330
1F
100
AcDbEntity
  8
05-ダクト外線
100
AcDbLine
 10
19655.42511522387
 20
-19763.5
 30
0.0
 11
19715.42511522387
 21
-19763.5
 31
0.0
  0
ARC
  5
C7
330
1F
100
AcDbEntity
  8
05-ダクト外線
100
AcDbCircle
 10
19720.42511522387
 20
-19762.5
 30
0.0
 40
5.0
100
AcDbArc
 50
0.0
 51
180.0
  0
LINE
  5
C8
330
1F
100
AcDbEntity
  8
05-ダクト外線
100
AcDbLine
 10
19715.42511522387
 20
-19762.5
 30
0.0
 11
19715.42511522387
 21
-19837.5
 31
0.0
  0
LINE
  5
C9
330
1F
100
AcDbEntity
  8
05-ダクト外線
100
AcDbLine
 10
19725.42511522387
 20
-19762.5
 30
0.0
 11
19725.42511522387
 21
-19837.5
 31
0.0
  0
LINE
  5
CA
330
1F
100
AcDbEntity
  8
05-ダクト外線
100
AcDbLine
 10
19725.42511522387
 20
-19763.5
 30
0.0
 11
19785.42511522387
 21
-19763.5
 31
0.0
  0
LINE
  5
CB
330
1F
100
AcDbEntity
  8
05-ダクト外線
100
AcDbLine
 10
19725.42511522387
 20
-19836.5
 30
0.0
 11
19785.42511522387
 21
-19836.5
 31
0.0
  0
LINE
  5
CC
330
1F
100
AcDbEntity
  8
05-ダクト外線
100
AcDbLine
 10
19655.42511522387
 20
-19763.5
 30
0.0
 11
19655.42511522387
 21
-19836.5
 31
0.0
  0
LINE
  5
CD
330
1F
100
AcDbEntity
  8
05-ダクト外線
100
AcDbLine
 10
19785.42511522387
 20
-19763.5
 30
0.0
 11
19785.42511522387
 21
-19836.5
 31
0.0
  0
LINE
  5
CE
330
1F
100
AcDbEntity
  8
06-ダクト内線
  6
DASHED2
 48
0.2
100
AcDbLine
 10
19655.42511522387
 20
-19835.90000000001
 30
0.0
 11
19716.02511522388
 21
-19835.90000000001
 31
0.0
  0
LINE
  5
CF
330
1F
100
AcDbEntity
  8
06-ダクト内線
  6
DASHED2
 48
0.2
100
AcDbLine
 10
19655.42511522387
 20
-19764.1
 30
0.0
 11
19716.02511522388
 21
-19764.1
 31
0.0
  0
ARC
  5
D0
330
1F
100
AcDbEntity
  8
06-ダクト内線
  6
DASHED2
 48
0.2
100
AcDbCircle
 10
19720.42511522387
 20
-19762.5
 30
0.0
 40
4.4
100
AcDbArc
 50
0.0
 51
180.0
  0
LINE
  5
D1
330
1F
100
AcDbEntity
  8
06-ダクト内線
  6
DASHED2
 48
0.2
100
AcDbLine
 10
19716.02511522388
 20
-19762.5
 30
0.0
 11
19716.02511522388
 21
-19764.1
 31
0.0
  0
LINE
  5
D2
330
1F
100
AcDbEntity
  8
06-ダクト内線
  6
DASHED2
 48
0.2
100
AcDbLine
 10
19724.8251152239
 20
-19762.5
 30
0.0
 11
19724.8251152239
 21
-19764.1
 31
0.0
  0
LINE
  5
D3
330
1F
100
AcDbEntity
  8
06-ダクト内線
  6
DASHED2
 48
0.2
100
AcDbLine
 10
19724.8251152239
 20
-19764.1
 30
0.0
 11
19785.42511522387
 21
-19764.1
 31
0.0
  0
LINE
  5
D4
330
1F
100
AcDbEntity
  8
06-ダクト内線
  6
DASHED2
 48
0.2
100
AcDbLine
 10
19724.8251152239
 20
-19835.90000000001
 30
0.0
 11
19785.42511522387
 21
-19835.90000000001
 31
0.0
  0
ARC
  5
D5
330
1F
100
AcDbEntity
  8
06-ダクト内線
  6
DASHED2
 48
0.2
100
AcDbCircle
 10
19720.42511522387
 20
-19837.5
 30
0.0
 40
4.4
100
AcDbArc
 50
180.0
 51
0.0
  0
LINE
  5
D6
330
1F
100
AcDbEntity
  8
06-ダクト内線
  6
DASHED2
 48
0.2
100
AcDbLine
 10
19716.02511522388
 20
-19835.90000000001
 30
0.0
 11
19716.02511522388
 21
-19837.5
 31
0.0
  0
LINE
  5
D7
330
1F
100
AcDbEntity
  8
06-ダクト内線
  6
DASHED2
 48
0.2
100
AcDbLine
 10
19724.8251152239
 20
-19835.90000000001
 30
0.0
 11
19724.8251152239
 21
-19837.5
 31
0.0
  0
INSERT
  5
DB
330
1F
100
AcDbEntity
  8
寸法
100
AcDbBlockReference
  2
INS-DRBGF
 10
19599.125
 20
-19800.0
 30
0.0
  0
INSERT
  5
E5
330
1F
100
AcDbEntity
  8
寸法
100
AcDbBlockReference
  2
INS-DP1X4
 10
19685.425
 20
-19710.35
 30
0.0
  0
INSERT
  5
EF
330
1F
100
AcDbEntity
  8
寸法
100
AcDbBlockReference
  2
INS-D8AKV
 10
19720.425
 20
-19709.7
 30
0.0
  0
INSERT
  5
F7
330
1F
100
AcDbEntity
  8
寸法
100
AcDbBlockReference
  2
INS-D4BMN
 10
19756.195
 20
-19710.35
 30
0.0
  0
TEXT
  5
FE
330
1F
100
AcDbEntity
  8
03-文字-2
100
AcDbText
 10
19418.52719855754
 20
-19973.16889336805
 30
0.0
 40
49.955
  1
ニップルφ75-0.6t
 41
0.9971781027269427
 72
     1
 11
19720.42511522421
 21
-19948.19139336805
 31
0.0
100
AcDbText
 73
     2
  0
LINE
  5
FF
330
1F
100
AcDbEntity
  8
シンボル
100
AcDbLine
 10
16720.42511522387
 20
-21000.0
 30
0.0
 11
20720.42511522387
 21
-21000.0
 31
0.0
  0
TEXT
  5
100
330
1F
100
AcDbEntity
  8
03-文字-2
100
AcDbText
 10
17046.26797236688
 20
-21499.91000000019
 30
0.0
 40
199.82
  1
管径 φ125
 41
0.997383736138513
 72
     1
 11
17720.42511522402
 21
-21400.00000000019
 31
0.0
100
AcDbText
 73
     2
  0
LINE
  5
101
330
1F
100
AcDbEntity
  8
シンボル
100
AcDbLine
 10
16720.42511522387
 20
-21800.0
 30
0.0
 11
20720.42511522387
 21
-21800.0
 31
0.0
  0
TEXT
  5
102
330
1F
100
AcDbEntity
  8
03-文字-2
100
AcDbText
 10
17063.25368665218
 20
-22299.91000000005
 30
0.0
 40
199.82
  1
管径 φ150
 41
0.997383736138513
 72
     1
 11
17720.42511522361
 21
-22200.00000000005
 31
0.0
100
AcDbText
 73
     2
  0
LINE
  5
103
330
1F
100
AcDbEntity
  8
シンボル
100
AcDbLine
 10
16720.42511522387
 20
-22600.0
 30
0.0
 11
20720.42511522387
 21
-22600.0
 31
0.0
  0
TEXT
  5
104
330
1F
100
AcDbEntity
  8
03-文字-2
100
AcDbText
 10
17046.26797236688
 20
-23099.91000000009
 30
0.0
 40
199.82
  1
管径 φ175
 41
0.997383736138513
 72
     1
 11
17720.42511522402
 21
-23000.00000000009
 31
0.0
100
AcDbText
 73
     2
  0
LINE
  5
105
330
1F
100
AcDbEntity
  8
シンボル
100
AcDbLine
 10
16720.42511522387
 20
-23400.0
 30
0.0
 11
20720.42511522387
 21
-23400.0
 31
0.0
  0
TEXT
  5
106
330
1F
100
AcDbEntity
  8
03-文字-2
100
AcDbText
 10
17047.43940093822
 20
-23899.91000000016
 30
0.0
 40
199.82
  1
管径 φ200
 41
0.997383736138513
 72
     1
 11
17720.42511522393
 21
-23800.00000000016
 31
0.0
100
AcDbText
 73
     2
  0
LINE
  5
107
330
1F
100
AcDbEntity
  8
シンボル
100
AcDbLine
 10
16720.42511522387
 20
-24200.0
 30
0.0
 11
20720.42511522387
 21
-24200.0
 31
0.0
  0
TEXT
  5
108
330
1F
100
AcDbEntity
  8
03-文字-2
100
AcDbText
 10
17013.46797236682
 20
-24699.90999999989
 30
0.0
 40
199.82
  1
管径 φ225
 41
0.997383736138513
 72
     1
 11
17720.42511522397
 21
-24599.99999999989
 31
0.0
100
AcDbText
 73
     2
  0
LINE
  5
109
330
1F
100
AcDbEntity
  8
シンボル
100
AcDbLine
 10
16720.42511522387
 20
-25000.0
 30
0.0
 11
20720.42511522387
 21
-25000.0
 31
0.0
  0
TEXT
  5
10A
330
1F
100
AcDbEntity
  8
03-文字-2
100
AcDbText
 10
17030.45368665236
 20
-25499.91000000052
 30
0.0
 40
199.82
  1
管径 φ250
 41
0.997383736138513
 72
     1
 11
17720.42511522379
 21
-25400.00000000052
 31
0.0
100
AcDbText
 73
     2
  0
LINE
  5
10B
330
1F
100
AcDbEntity
  8
シンボル
100
AcDbLine
 10
16720.42511522387
 20
-25800.0
 30
0.0
 11
20720.42511522387
 21
-25800.0
 31
0.0
  0
TEXT
  5
10C
330
1F
100
AcDbEntity
  8
03-文字-2
100
AcDbText
 10
17013.46797236706
 20
-26299.91000000047
 30
0.0
 40
199.82
  1
管径 φ275
 41
0.997383736138513
 72
     1
 11
17720.4251152242
 21
-26200.00000000047
 31
0.0
100
AcDbText
 73
     2
  0
LINE
  5
10D
330
1F
100
AcDbEntity
  8
シンボル
100
AcDbLine
 10
16720.42511522387
 20
-26600.0
 30
0.0
 11
20720.42511522387
 21
-26600.0
 31
0.0
  0
TEXT
  5
10E
330
1F
100
AcDbEntity
  8
03-文字-2
100
AcDbText
 10
17047.43940093813
 20
-27199.91000000031
 30
0.0
 40
199.82
  1
管径 φ300
 41
0.997383736138513
 72
     1
 11
17720.42511522385
 21
-27100.00000000031
 31
0.0
100
AcDbText
 73
     2
  0
LINE
  5
10F
330
1F
100
AcDbEntity
  8
シンボル
100
AcDbLine
 10
16720.42511522387
 20
-27600.0
 30
0.0
 11
20720.42511522387
 21
-27600.0
 31
0.0
  0
TEXT
  5
110
330
1F
100
AcDbEntity
  8
03-文字-2
100
AcDbText
 10
17013.46797236659
 20
-28199.910000001
 30
0.0
 40
199.82
  1
管径 φ325
 41
0.997383736138513
 72
     1
 11
17720.42511522373
 21
-28100.000000001
 31
0.0
100
AcDbText
 73
     2
  0
LINE
  5
111
330
1F
100
AcDbEntity
  8
シンボル
100
AcDbLine
 10
16720.42511522387
 20
-28600.0
 30
0.0
 11
20720.42511522387
 21
-28600.0
 31
0.0
  0
TEXT
  5
112
330
1F
100
AcDbEntity
  8
03-文字-2
100
AcDbText
 10
17030.45368665238
 20
-29199.90999999953
 30
0.0
 40
199.82
  1
管径 φ350
 41
0.997383736138513
 72
     1
 11
17720.42511522381
 21
-29099.99999999953
 31
0.0
100
AcDbText
 73
     2
  0
LINE
  5
113
330
1F
100
AcDbEntity
  8
シンボル
100
AcDbLine
 10
16720.42511522387
 20
-29600.0
 30
0.0
 11
20720.42511522387
 21
-29600.0
 31
0.0
  0
TEXT
  5
114
330
1F
100
AcDbEntity
  8
03-文字-2
100
AcDbText
 10
17013.4679723663
 20
-30199.90999999905
 30
0.0
 40
199.82
  1
管径 φ375
 41
0.997383736138513
 72
     1
 11
17720.42511522345
 21
-30099.99999999905
 31
0.0
100
AcDbText
 73
     2
  0
LINE
  5
115
330
1F
100
AcDbEntity
  8
シンボル
100
AcDbLine
 10
16720.42511522387
 20
-30600.0
 30
0.0
 11
20720.42511522387
 21
-30600.0
 31
0.0
  0
TEXT
  5
116
330
1F
100
AcDbEntity
  8
03-文字-2
100
AcDbText
 10
17047.43940093868
 20
-31199.91000000056
 30
0.0
 40
199.82
  1
管径 φ400
 41
0.997383736138513
 72
     1
 11
17720.4251152244
 21
-31100.00000000056
 31
0.0
100
AcDbText
 73
     2
  0
LINE
  5
117
330
1F
100
AcDbEntity
  8
シンボル
100
AcDbLine
 10
16720.42511522387
 20
-31600.0
 30
0.0
 11
20720.42511522387
 21
-31600.0
 31
0.0
  0
LINE
  5
118
330
1F
100
AcDbEntity
  8
シンボル
100
AcDbLine
 10
16720.42511522387
 20
-32800.0
 30
0.0
 11
20720.42511522387
 21
-32800.0
 31
0.0
  0
TEXT
  5
119
330
1F
100
AcDbEntity
  8
03-文字-2
100
AcDbText
 10
17030.45368665238
 20
-32299.91000000021
 30
0.0
 40
199.82
  1
管径 φ450
 41
0.997383736138513
 72
     1
 11
17720.42511522381
 21
-32200.00000000021
 31
0.0
100
AcDbText
 73
     2
  0
LINE
  5
11A
330
1F
100
AcDbEntity
  8
シンボル
100
AcDbLine
 10
16720.42511522387
 20
-34000.0
 30
0.0
 11
20720.42511522387
 21
-34000.0
 31
0.0
  0
TEXT
  5
11B
330
1F
100
AcDbEntity
  8
03-文字-2
100
AcDbText
 10
17047.4394009386
 20
-33499.91000000002
 30
0.0
 40
199.82
  1
管径 φ500
 41
0.997383736138513
 72
     1
 11
17720.42511522431
 21
-33400.00000000001
 31
0.0
100
AcDbText
 73
     2
  0
LINE
  5
11C
330
1F
100
AcDbEntity
  8
04-ダクトセンター
100
AcDbLine
 10
19655.42511522387
 20
-20600.0
 30
0.0
 11
19785.42511522387
 21
-20600.0
 31
0.0
  0
ARC
  5
11D
330
1F
100
AcDbEntity
  8
05-ダクト外線
100
AcDbCircle
 10
19720.42511522387
 20
-20650.0
 30
0.0
 40
5.0
100
AcDbArc
 50
180.0
 51
0.0
  0
LINE
  5
11E
330
1F
100
AcDbEntity
  8
05-ダクト外線
100
AcDbLine
 10
19655.42511522387
 20
-20649.0
 30
0.0
 11
19715.42511522387
 21
-20649.0
 31
0.0
  0
LINE
  5
11F
330
1F
100
AcDbEntity
  8
05-ダクト外線
100
AcDbLine
 10
19655.42511522387
 20
-20551.0
 30
0.0
 11
19715.42511522387
 21
-20551.0
 31
0.0
  0
ARC
  5
120
330
1F
100
AcDbEntity
  8
05-ダクト外線
100
AcDbCircle
 10
19720.42511522387
 20
-20550.0
 30
0.0
 40
5.0
100
AcDbArc
 50
0.0
 51
180.0
  0
LINE
  5
121
330
1F
100
AcDbEntity
  8
05-ダクト外線
100
AcDbLine
 10
19715.42511522387
 20
-20550.0
 30
0.0
 11
19715.42511522387
 21
-20650.0
 31
0.0
  0
LINE
  5
122
330
1F
100
AcDbEntity
  8
05-ダクト外線
100
AcDbLine
 10
19725.42511522387
 20
-20550.0
 30
0.0
 11
19725.42511522387
 21
-20650.0
 31
0.0
  0
LINE
  5
123
330
1F
100
AcDbEntity
  8
05-ダクト外線
100
AcDbLine
 10
19725.42511522387
 20
-20551.0
 30
0.0
 11
19785.42511522387
 21
-20551.0
 31
0.0
  0
LINE
  5
124
330
1F
100
AcDbEntity
  8
05-ダクト外線
100
AcDbLine
 10
19725.42511522387
 20
-20649.0
 30
0.0
 11
19785.42511522387
 21
-20649.0
 31
0.0
  0
LINE
  5
125
330
1F
100
AcDbEntity
  8
05-ダクト外線
100
AcDbLine
 10
19655.42511522387
 20
-20551.0
 30
0.0
 11
19655.42511522387
 21
-20649.0
 31
0.0
  0
LINE
  5
126
330
1F
100
AcDbEntity
  8
05-ダクト外線
100
AcDbLine
 10
19785.42511522387
 20
-20551.0
 30
0.0
 11
19785.42511522387
 21
-20649.0
 31
0.0
  0
LINE
  5
127
330
1F
100
AcDbEntity
  8
06-ダクト内線
  6
DASHED2
 48
0.2
100
AcDbLine
 10
19655.42511522387
 20
-20648.40000000001
 30
0.0
 11
19716.02511522388
 21
-20648.40000000001
 31
0.0
  0
LINE
  5
128
330
1F
100
AcDbEntity
  8
06-ダクト内線
  6
DASHED2
 48
0.2
100
AcDbLine
 10
19655.42511522387
 20
-20551.6
 30
0.0
 11
19716.02511522388
 21
-20551.6
 31
0.0
  0
ARC
  5
129
330
1F
100
AcDbEntity
  8
06-ダクト内線
  6
DASHED2
 48
0.2
100
AcDbCircle
 10
19720.42511522387
 20
-20550.0
 30
0.0
 40
4.4
100
AcDbArc
 50
0.0
 51
180.0
  0
LINE
  5
12A
330
1F
100
AcDbEntity
  8
06-ダクト内線
  6
DASHED2
 48
0.2
100
AcDbLine
 10
19716.02511522388
 20
-20550.0
 30
0.0
 11
19716.02511522388
 21
-20551.6
 31
0.0
  0
LINE
  5
12B
330
1F
100
AcDbEntity
  8
06-ダクト内線
  6
DASHED2
 48
0.2
100
AcDbLine
 10
19724.8251152239
 20
-20550.0
 30
0.0
 11
19724.8251152239
 21
-20551.6
 31
0.0
  0
LINE
  5
12C
330
1F
100
AcDbEntity
  8
06-ダクト内線
  6
DASHED2
 48
0.2
100
AcDbLine
 10
19724.8251152239
 20
-20551.6
 30
0.0
 11
19785.42511522387
 21
-20551.6
 31
0.0
  0
LINE
  5
12D
330
1F
100
AcDbEntity
  8
06-ダクト内線
  6
DASHED2
 48
0.2
100
AcDbLine
 10
19724.8251152239
 20
-20648.40000000001
 30
0.0
 11
19785.42511522387
 21
-20648.40000000001
 31
0.0
  0
ARC
  5
12E
330
1F
100
AcDbEntity
  8
06-ダクト内線
  6
DASHED2
 48
0.2
100
AcDbCircle
 10
19720.42511522387
 20
-20650.0
 30
0.0
 40
4.4
100
AcDbArc
 50
180.0
 51
0.0
  0
LINE
  5
12F
330
1F
100
AcDbEntity
  8
06-ダクト内線
  6
DASHED2
 48
0.2
100
AcDbLine
 10
19716.02511522388
 20
-20648.40000000001
 30
0.0
 11
19716.02511522388
 21
-20650.0
 31
0.0
  0
LINE
  5
130
330
1F
100
AcDbEntity
  8
06-ダクト内線
  6
DASHED2
 48
0.2
100
AcDbLine
 10
19724.8251152239
 20
-20648.40000000001
 30
0.0
 11
19724.8251152239
 21
-20650.0
 31
0.0
  0
INSERT
  5
134
330
1F
100
AcDbEntity
  8
寸法
100
AcDbBlockReference
  2
INS-D6SXV
 10
19599.125
 20
-20600.0
 30
0.0
  0
INSERT
  5
13E
330
1F
100
AcDbEntity
  8
寸法
100
AcDbBlockReference
  2
INS-D510W
 10
19685.425
 20
-20497.85
 30
0.0
  0
INSERT
  5
148
330
1F
100
AcDbEntity
  8
寸法
100
AcDbBlockReference
  2
INS-D66OD
 10
19720.425
 20
-20497.2
 30
0.0
  0
INSERT
  5
150
330
1F
100
AcDbEntity
  8
寸法
100
AcDbBlockReference
  2
INS-DZL7V
 10
19756.195
 20
-20497.85
 30
0.0
  0
TEXT
  5
157
330
1F
100
AcDbEntity
  8
03-文字-2
100
AcDbText
 10
19410.05588445538
 20
-20785.66889336888
 30
0.0
 40
49.955
  1
ニップルφ100-0.6t
 41
0.9971562090994912
 72
     1
 11
19720.42511522461
 21
-20760.69139336888
 31
0.0
100
AcDbText
 73
     2
  0
LINE
  5
158
330
1F
100
AcDbEntity
  8
04-ダクトセンター
100
AcDbLine
 10
19655.42511522387
 20
-21400.0
 30
0.0
 11
19785.42511522387
 21
-21400.0
 31
0.0
  0
ARC
  5
159
330
1F
100
AcDbEntity
  8
05-ダクト外線
100
AcDbCircle
 10
19720.42511522387
 20
-21462.5
 30
0.0
 40
5.0
100
AcDbArc
 50
180.0
 51
0.0
  0
LINE
  5
15A
330
1F
100
AcDbEntity
  8
05-ダクト外線
100
AcDbLine
 10
19655.42511522387
 20
-21461.5
 30
0.0
 11
19715.42511522387
 21
-21461.5
 31
0.0
  0
LINE
  5
15B
330
1F
100
AcDbEntity
  8
05-ダクト外線
100
AcDbLine
 10
19655.42511522387
 20
-21338.5
 30
0.0
 11
19715.42511522387
 21
-21338.5
 31
0.0
  0
ARC
  5
15C
330
1F
100
AcDbEntity
  8
05-ダクト外線
100
AcDbCircle
 10
19720.42511522387
 20
-21337.5
 30
0.0
 40
5.0
100
AcDbArc
 50
0.0
 51
180.0
  0
LINE
  5
15D
330
1F
100
AcDbEntity
  8
05-ダクト外線
100
AcDbLine
 10
19715.42511522387
 20
-21337.5
 30
0.0
 11
19715.42511522387
 21
-21462.5
 31
0.0
  0
LINE
  5
15E
330
1F
100
AcDbEntity
  8
05-ダクト外線
100
AcDbLine
 10
19725.42511522387
 20
-21337.5
 30
0.0
 11
19725.42511522387
 21
-21462.5
 31
0.0
  0
LINE
  5
15F
330
1F
100
AcDbEntity
  8
05-ダクト外線
100
AcDbLine
 10
19725.42511522387
 20
-21338.5
 30
0.0
 11
19785.42511522387
 21
-21338.5
 31
0.0
  0
LINE
  5
160
330
1F
100
AcDbEntity
  8
05-ダクト外線
100
AcDbLine
 10
19725.42511522387
 20
-21461.5
 30
0.0
 11
19785.42511522387
 21
-21461.5
 31
0.0
  0
LINE
  5
161
330
1F
100
AcDbEntity
  8
05-ダクト外線
100
AcDbLine
 10
19655.42511522387
 20
-21338.5
 30
0.0
 11
19655.42511522387
 21
-21461.5
 31
0.0
  0
LINE
  5
162
330
1F
100
AcDbEntity
  8
05-ダクト外線
100
AcDbLine
 10
19785.42511522387
 20
-21338.5
 30
0.0
 11
19785.42511522387
 21
-21461.5
 31
0.0
  0
LINE
  5
163
330
1F
100
AcDbEntity
  8
06-ダクト内線
  6
DASHED2
 48
0.2
100
AcDbLine
 10
19655.42511522387
 20
-21460.90000000001
 30
0.0
 11
19716.02511522388
 21
-21460.90000000001
 31
0.0
  0
LINE
  5
164
330
1F
100
AcDbEntity
  8
06-ダクト内線
  6
DASHED2
 48
0.2
100
AcDbLine
 10
19655.42511522387
 20
-21339.1
 30
0.0
 11
19716.02511522388
 21
-21339.1
 31
0.0
  0
ARC
  5
165
330
1F
100
AcDbEntity
  8
06-ダクト内線
  6
DASHED2
 48
0.2
100
AcDbCircle
 10
19720.42511522387
 20
-21337.5
 30
0.0
 40
4.4
100
AcDbArc
 50
0.0
 51
180.0
  0
LINE
  5
166
330
1F
100
AcDbEntity
  8
06-ダクト内線
  6
DASHED2
 48
0.2
100
AcDbLine
 10
19716.02511522388
 20
-21337.5
 30
0.0
 11
19716.02511522388
 21
-21339.1
 31
0.0
  0
LINE
  5
167
330
1F
100
AcDbEntity
  8
06-ダクト内線
  6
DASHED2
 48
0.2
100
AcDbLine
 10
19724.8251152239
 20
-21337.5
 30
0.0
 11
19724.8251152239
 21
-21339.1
 31
0.0
  0
LINE
  5
168
330
1F
100
AcDbEntity
  8
06-ダクト内線
  6
DASHED2
 48
0.2
100
AcDbLine
 10
19724.8251152239
 20
-21339.1
 30
0.0
 11
19785.42511522387
 21
-21339.1
 31
0.0
  0
LINE
  5
169
330
1F
100
AcDbEntity
  8
06-ダクト内線
  6
DASHED2
 48
0.2
100
AcDbLine
 10
19724.8251152239
 20
-21460.90000000001
 30
0.0
 11
19785.42511522387
 21
-21460.90000000001
 31
0.0
  0
ARC
  5
16A
330
1F
100
AcDbEntity
  8
06-ダクト内線
  6
DASHED2
 48
0.2
100
AcDbCircle
 10
19720.42511522387
 20
-21462.5
 30
0.0
 40
4.4
100
AcDbArc
 50
180.0
 51
0.0
  0
LINE
  5
16B
330
1F
100
AcDbEntity
  8
06-ダクト内線
  6
DASHED2
 48
0.2
100
AcDbLine
 10
19716.02511522388
 20
-21460.90000000001
 30
0.0
 11
19716.02511522388
 21
-21462.5
 31
0.0
  0
LINE
  5
16C
330
1F
100
AcDbEntity
  8
06-ダクト内線
  6
DASHED2
 48
0.2
100
AcDbLine
 10
19724.8251152239
 20
-21460.90000000001
 30
0.0
 11
19724.8251152239
 21
-21462.5
 31
0.0
  0
INSERT
  5
170
330
1F
100
AcDbEntity
  8
寸法
100
AcDbBlockReference
  2
INS-D6OLI
 10
19599.125
 20
-21400.0
 30
0.0
  0
INSERT
  5
17A
330
1F
100
AcDbEntity
  8
寸法
100
AcDbBlockReference
  2
INS-D3U2F
 10
19685.425
 20
-21285.35
 30
0.0
  0
INSERT
  5
184
330
1F
100
AcDbEntity
  8
寸法
100
AcDbBlockReference
  2
INS-D799B
 10
19720.425
 20
-21284.7
 30
0.0
  0
INSERT
  5
18C
330
1F
100
AcDbEntity
  8
寸法
100
AcDbBlockReference
  2
INS-D6K4O
 10
19756.195
 20
-21285.35
 30
0.0
  0
TEXT
  5
193
330
1F
100
AcDbEntity
  8
03-文字-2
100
AcDbText
 10
19401.46742291698
 20
-21598.16889336944
 30
0.0
 40
49.955
  1
ニップルφ125-0.6t
 41
0.9971562090994912
 72
     1
 11
19720.42511522468
 21
-21573.19139336944
 31
0.0
100
AcDbText
 73
     2
  0
LINE
  5
194
330
1F
100
AcDbEntity
  8
04-ダクトセンター
100
AcDbLine
 10
19655.42511522387
 20
-22200.0
 30
0.0
 11
19785.42511522387
 21
-22200.0
 31
0.0
  0
ARC
  5
195
330
1F
100
AcDbEntity
  8
05-ダクト外線
100
AcDbCircle
 10
19720.42511522387
 20
-22275.0
 30
0.0
 40
5.0
100
AcDbArc
 50
180.0
 51
0.0
  0
LINE
  5
196
330
1F
100
AcDbEntity
  8
05-ダクト外線
100
AcDbLine
 10
19655.42511522387
 20
-22274.0
 30
0.0
 11
19715.42511522387
 21
-22274.0
 31
0.0
  0
LINE
  5
197
330
1F
100
AcDbEntity
  8
05-ダクト外線
100
AcDbLine
 10
19655.42511522387
 20
-22126.0
 30
0.0
 11
19715.42511522387
 21
-22126.0
 31
0.0
  0
ARC
  5
198
330
1F
100
AcDbEntity
  8
05-ダクト外線
100
AcDbCircle
 10
19720.42511522387
 20
-22125.0
 30
0.0
 40
5.0
100
AcDbArc
 50
0.0
 51
180.0
  0
LINE
  5
199
330
1F
100
AcDbEntity
  8
05-ダクト外線
100
AcDbLine
 10
19715.42511522387
 20
-22125.0
 30
0.0
 11
19715.42511522387
 21
-22275.0
 31
0.0
  0
LINE
  5
19A
330
1F
100
AcDbEntity
  8
05-ダクト外線
100
AcDbLine
 10
19725.42511522387
 20
-22125.0
 30
0.0
 11
19725.42511522387
 21
-22275.0
 31
0.0
  0
LINE
  5
19B
330
1F
100
AcDbEntity
  8
05-ダクト外線
100
AcDbLine
 10
19725.42511522387
 20
-22126.0
 30
0.0
 11
19785.42511522387
 21
-22126.0
 31
0.0
  0
LINE
  5
19C
330
1F
100
AcDbEntity
  8
05-ダクト外線
100
AcDbLine
 10
19725.42511522387
 20
-22274.0
 30
0.0
 11
19785.42511522387
 21
-22274.0
 31
0.0
  0
LINE
  5
19D
330
1F
100
AcDbEntity
  8
05-ダクト外線
100
AcDbLine
 10
19655.42511522387
 20
-22126.0
 30
0.0
 11
19655.42511522387
 21
-22274.0
 31
0.0
  0
LINE
  5
19E
330
1F
100
AcDbEntity
  8
05-ダクト外線
100
AcDbLine
 10
19785.42511522387
 20
-22126.0
 30
0.0
 11
19785.42511522387
 21
-22274.0
 31
0.0
  0
LINE
  5
19F
330
1F
100
AcDbEntity
  8
06-ダクト内線
  6
DASHED2
 48
0.2
100
AcDbLine
 10
19655.42511522387
 20
-22273.40000000001
 30
0.0
 11
19716.02511522388
 21
-22273.40000000001
 31
0.0
  0
LINE
  5
1A0
330
1F
100
AcDbEntity
  8
06-ダクト内線
  6
DASHED2
 48
0.2
100
AcDbLine
 10
19655.42511522387
 20
-22126.6
 30
0.0
 11
19716.02511522388
 21
-22126.6
 31
0.0
  0
ARC
  5
1A1
330
1F
100
AcDbEntity
  8
06-ダクト内線
  6
DASHED2
 48
0.2
100
AcDbCircle
 10
19720.42511522387
 20
-22125.0
 30
0.0
 40
4.4
100
AcDbArc
 50
0.0
 51
180.0
  0
LINE
  5
1A2
330
1F
100
AcDbEntity
  8
06-ダクト内線
  6
DASHED2
 48
0.2
100
AcDbLine
 10
19716.02511522388
 20
-22125.0
 30
0.0
 11
19716.02511522388
 21
-22126.6
 31
0.0
  0
LINE
  5
1A3
330
1F
100
AcDbEntity
  8
06-ダクト内線
  6
DASHED2
 48
0.2
100
AcDbLine
 10
19724.8251152239
 20
-22125.0
 30
0.0
 11
19724.8251152239
 21
-22126.6
 31
0.0
  0
LINE
  5
1A4
330
1F
100
AcDbEntity
  8
06-ダクト内線
  6
DASHED2
 48
0.2
100
AcDbLine
 10
19724.8251152239
 20
-22126.6
 30
0.0
 11
19785.42511522387
 21
-22126.6
 31
0.0
  0
LINE
  5
1A5
330
1F
100
AcDbEntity
  8
06-ダクト内線
  6
DASHED2
 48
0.2
100
AcDbLine
 10
19724.8251152239
 20
-22273.40000000001
 30
0.0
 11
19785.42511522387
 21
-22273.40000000001
 31
0.0
  0
ARC
  5
1A6
330
1F
100
AcDbEntity
  8
06-ダクト内線
  6
DASHED2
 48
0.2
100
AcDbCircle
 10
19720.42511522387
 20
-22275.0
 30
0.0
 40
4.4
100
AcDbArc
 50
180.0
 51
0.0
  0
LINE
  5
1A7
330
1F
100
AcDbEntity
  8
06-ダクト内線
  6
DASHED2
 48
0.2
100
AcDbLine
 10
19716.02511522388
 20
-22273.40000000001
 30
0.0
 11
19716.02511522388
 21
-22275.0
 31
0.0
  0
LINE
  5
1A8
330
1F
100
AcDbEntity
  8
06-ダクト内線
  6
DASHED2
 48
0.2
100
AcDbLine
 10
19724.8251152239
 20
-22273.40000000001
 30
0.0
 11
19724.8251152239
 21
-22275.0
 31
0.0
  0
INSERT
  5
1AC
330
1F
100
AcDbEntity
  8
寸法
100
AcDbBlockReference
  2
INS-D5V5R
 10
19599.125
 20
-22200.0
 30
0.0
  0
INSERT
  5
1B6
330
1F
100
AcDbEntity
  8
寸法
100
AcDbBlockReference
  2
INS-D79IC
 10
19685.425
 20
-22072.85
 30
0.0
  0
INSERT
  5
1C0
330
1F
100
AcDbEntity
  8
寸法
100
AcDbBlockReference
  2
INS-D7X52
 10
19720.425
 20
-22072.2
 30
0.0
  0
INSERT
  5
1C8
330
1F
100
AcDbEntity
  8
寸法
100
AcDbBlockReference
  2
INS-D8W5G
 10
19755.425
 20
-22072.85
 30
0.0
  0
TEXT
  5
1CF
330
1F
100
AcDbEntity
  8
03-文字-2
100
AcDbText
 10
19405.76165368622
 20
-22410.668893369
 30
0.0
 40
49.955
  1
ニップルφ150-0.6t
 41
0.9971562090994912
 72
     1
 11
19720.42511522468
 21
-22385.691393369
 31
0.0
100
AcDbText
 73
     2
  0
LINE
  5
1D0
330
1F
100
AcDbEntity
  8
04-ダクトセンター
100
AcDbLine
 10
19655.42511522387
 20
-23000.0
 30
0.0
 11
19785.42511522387
 21
-23000.0
 31
0.0
  0
ARC
  5
1D1
330
1F
100
AcDbEntity
  8
05-ダクト外線
100
AcDbCircle
 10
19720.42511522387
 20
-23087.5
 30
0.0
 40
5.0
100
AcDbArc
 50
180.0
 51
0.0
  0
LINE
  5
1D2
330
1F
100
AcDbEntity
  8
05-ダクト外線
100
AcDbLine
 10
19655.42511522387
 20
-23086.5
 30
0.0
 11
19715.42511522387
 21
-23086.5
 31
0.0
  0
LINE
  5
1D3
330
1F
100
AcDbEntity
  8
05-ダクト外線
100
AcDbLine
 10
19655.42511522387
 20
-22913.5
 30
0.0
 11
19715.42511522387
 21
-22913.5
 31
0.0
  0
ARC
  5
1D4
330
1F
100
AcDbEntity
  8
05-ダクト外線
100
AcDbCircle
 10
19720.42511522387
 20
-22912.5
 30
0.0
 40
5.0
100
AcDbArc
 50
0.0
 51
180.0
  0
LINE
  5
1D5
330
1F
100
AcDbEntity
  8
05-ダクト外線
100
AcDbLine
 10
19715.42511522387
 20
-22912.5
 30
0.0
 11
19715.42511522387
 21
-23087.5
 31
0.0
  0
LINE
  5
1D6
330
1F
100
AcDbEntity
  8
05-ダクト外線
100
AcDbLine
 10
19725.42511522387
 20
-22912.5
 30
0.0
 11
19725.42511522387
 21
-23087.5
 31
0.0
  0
LINE
  5
1D7
330
1F
100
AcDbEntity
  8
05-ダクト外線
100
AcDbLine
 10
19725.42511522387
 20
-22913.5
 30
0.0
 11
19785.42511522387
 21
-22913.5
 31
0.0
  0
LINE
  5
1D8
330
1F
100
AcDbEntity
  8
05-ダクト外線
100
AcDbLine
 10
19725.42511522387
 20
-23086.5
 30
0.0
 11
19785.42511522387
 21
-23086.5
 31
0.0
  0
LINE
  5
1D9
330
1F
100
AcDbEntity
  8
05-ダクト外線
100
AcDbLine
 10
19655.42511522387
 20
-22913.5
 30
0.0
 11
19655.42511522387
 21
-23086.5
 31
0.0
  0
LINE
  5
1DA
330
1F
100
AcDbEntity
  8
05-ダクト外線
100
AcDbLine
 10
19785.42511522387
 20
-22913.5
 30
0.0
 11
19785.42511522387
 21
-23086.5
 31
0.0
  0
LINE
  5
1DB
330
1F
100
AcDbEntity
  8
06-ダクト内線
  6
DASHED2
 48
0.2
100
AcDbLine
 10
19655.42511522387
 20
-23085.90000000001
 30
0.0
 11
19716.02511522388
 21
-23085.90000000001
 31
0.0
  0
LINE
  5
1DC
330
1F
100
AcDbEntity
  8
06-ダクト内線
  6
DASHED2
 48
0.2
100
AcDbLine
 10
19655.42511522387
 20
-22914.1
 30
0.0
 11
19716.02511522388
 21
-22914.1
 31
0.0
  0
ARC
  5
1DD
330
1F
100
AcDbEntity
  8
06-ダクト内線
  6
DASHED2
 48
0.2
100
AcDbCircle
 10
19720.42511522387
 20
-22912.5
 30
0.0
 40
4.4
100
AcDbArc
 50
0.0
 51
180.0
  0
LINE
  5
1DE
330
1F
100
AcDbEntity
  8
06-ダクト内線
  6
DASHED2
 48
0.2
100
AcDbLine
 10
19716.02511522388
 20
-22912.5
 30
0.0
 11
19716.02511522388
 21
-22914.1
 31
0.0
  0
LINE
  5
1DF
330
1F
100
AcDbEntity
  8
06-ダクト内線
  6
DASHED2
 48
0.2
100
AcDbLine
 10
19724.8251152239
 20
-22912.5
 30
0.0
 11
19724.8251152239
 21
-22914.1
 31
0.0
  0
LINE
  5
1E0
330
1F
100
AcDbEntity
  8
06-ダクト内線
  6
DASHED2
 48
0.2
100
AcDbLine
 10
19724.8251152239
 20
-22914.1
 30
0.0
 11
19785.42511522387
 21
-22914.1
 31
0.0
  0
LINE
  5
1E1
330
1F
100
AcDbEntity
  8
06-ダクト内線
  6
DASHED2
 48
0.2
100
AcDbLine
 10
19724.8251152239
 20
-23085.90000000001
 30
0.0
 11
19785.42511522387
 21
-23085.90000000001
 31
0.0
  0
ARC
  5
1E2
330
1F
100
AcDbEntity
  8
06-ダクト内線
  6
DASHED2
 48
0.2
100
AcDbCircle
 10
19720.42511522387
 20
-23087.5
 30
0.0
 40
4.4
100
AcDbArc
 50
180.0
 51
0.0
  0
LINE
  5
1E3
330
1F
100
AcDbEntity
  8
06-ダクト内線
  6
DASHED2
 48
0.2
100
AcDbLine
 10
19716.02511522388
 20
-23085.90000000001
 30
0.0
 11
19716.02511522388
 21
-23087.5
 31
0.0
  0
LINE
  5
1E4
330
1F
100
AcDbEntity
  8
06-ダクト内線
  6
DASHED2
 48
0.2
100
AcDbLine
 10
19724.8251152239
 20
-23085.90000000001
 30
0.0
 11
19724.8251152239
 21
-23087.5
 31
0.0
  0
INSERT
  5
1E8
330
1F
100
AcDbEntity
  8
寸法
100
AcDbBlockReference
  2
INS-DQADP
 10
19599.125
 20
-23000.0
 30
0.0
  0
INSERT
  5
1F2
330
1F
100
AcDbEntity
  8
寸法
100
AcDbBlockReference
  2
INS-DEBCD
 10
19685.425
 20
-22860.35
 30
0.0
  0
INSERT
  5
1FC
330
1F
100
AcDbEntity
  8
寸法
100
AcDbBlockReference
  2
INS-D4KG6
 10
19720.425
 20
-22859.7
 30
0.0
  0
INSERT
  5
204
330
1F
100
AcDbEntity
  8
寸法
100
AcDbBlockReference
  2
INS-D47P4
 10
19755.425
 20
-22860.35
 30
0.0
  0
TEXT
  5
20B
330
1F
100
AcDbEntity
  8
03-文字-2
100
AcDbText
 10
19401.46742291646
 20
-23223.16889337038
 30
0.0
 40
49.955
  1
ニップルφ175-0.6t
 41
0.9971562090994912
 72
     1
 11
19720.42511522416
 21
-23198.19139337038
 31
0.0
100
AcDbText
 73
     2
  0
LINE
  5
20C
330
1F
100
AcDbEntity
  8
04-ダクトセンター
100
AcDbLine
 10
19655.42511522387
 20
-23800.0
 30
0.0
 11
19785.42511522387
 21
-23800.0
 31
0.0
  0
ARC
  5
20D
330
1F
100
AcDbEntity
  8
05-ダクト外線
100
AcDbCircle
 10
19720.42511522387
 20
-23900.0
 30
0.0
 40
5.0
100
AcDbArc
 50
180.0
 51
0.0
  0
LINE
  5
20E
330
1F
100
AcDbEntity
  8
05-ダクト外線
100
AcDbLine
 10
19655.42511522387
 20
-23899.0
 30
0.0
 11
19715.42511522387
 21
-23899.0
 31
0.0
  0
LINE
  5
20F
330
1F
100
AcDbEntity
  8
05-ダクト外線
100
AcDbLine
 10
19655.42511522387
 20
-23701.0
 30
0.0
 11
19715.42511522387
 21
-23701.0
 31
0.0
  0
ARC
  5
210
330
1F
100
AcDbEntity
  8
05-ダクト外線
100
AcDbCircle
 10
19720.42511522387
 20
-23700.0
 30
0.0
 40
5.0
100
AcDbArc
 50
0.0
 51
180.0
  0
LINE
  5
211
330
1F
100
AcDbEntity
  8
05-ダクト外線
100
AcDbLine
 10
19715.42511522387
 20
-23700.0
 30
0.0
 11
19715.42511522387
 21
-23900.0
 31
0.0
  0
LINE
  5
212
330
1F
100
AcDbEntity
  8
05-ダクト外線
100
AcDbLine
 10
19725.42511522387
 20
-23700.0
 30
0.0
 11
19725.42511522387
 21
-23900.0
 31
0.0
  0
LINE
  5
213
330
1F
100
AcDbEntity
  8
05-ダクト外線
100
AcDbLine
 10
19725.42511522387
 20
-23701.0
 30
0.0
 11
19785.42511522387
 21
-23701.0
 31
0.0
  0
LINE
  5
214
330
1F
100
AcDbEntity
  8
05-ダクト外線
100
AcDbLine
 10
19725.42511522387
 20
-23899.0
 30
0.0
 11
19785.42511522387
 21
-23899.0
 31
0.0
  0
LINE
  5
215
330
1F
100
AcDbEntity
  8
05-ダクト外線
100
AcDbLine
 10
19655.42511522387
 20
-23701.0
 30
0.0
 11
19655.42511522387
 21
-23899.0
 31
0.0
  0
LINE
  5
216
330
1F
100
AcDbEntity
  8
05-ダクト外線
100
AcDbLine
 10
19785.42511522387
 20
-23701.0
 30
0.0
 11
19785.42511522387
 21
-23899.0
 31
0.0
  0
LINE
  5
217
330
1F
100
AcDbEntity
  8
06-ダクト内線
  6
DASHED2
 48
0.2
100
AcDbLine
 10
19655.42511522387
 20
-23898.40000000001
 30
0.0
 11
19716.02511522388
 21
-23898.40000000001
 31
0.0
  0
LINE
  5
218
330
1F
100
AcDbEntity
  8
06-ダクト内線
  6
DASHED2
 48
0.2
100
AcDbLine
 10
19655.42511522387
 20
-23701.6
 30
0.0
 11
19716.02511522388
 21
-23701.6
 31
0.0
  0
ARC
  5
219
330
1F
100
AcDbEntity
  8
06-ダクト内線
  6
DASHED2
 48
0.2
100
AcDbCircle
 10
19720.42511522387
 20
-23700.0
 30
0.0
 40
4.4
100
AcDbArc
 50
0.0
 51
180.0
  0
LINE
  5
21A
330
1F
100
AcDbEntity
  8
06-ダクト内線
  6
DASHED2
 48
0.2
100
AcDbLine
 10
19716.02511522388
 20
-23700.0
 30
0.0
 11
19716.02511522388
 21
-23701.6
 31
0.0
  0
LINE
  5
21B
330
1F
100
AcDbEntity
  8
06-ダクト内線
  6
DASHED2
 48
0.2
100
AcDbLine
 10
19724.8251152239
 20
-23700.0
 30
0.0
 11
19724.8251152239
 21
-23701.6
 31
0.0
  0
LINE
  5
21C
330
1F
100
AcDbEntity
  8
06-ダクト内線
  6
DASHED2
 48
0.2
100
AcDbLine
 10
19724.8251152239
 20
-23701.6
 30
0.0
 11
19785.42511522387
 21
-23701.6
 31
0.0
  0
LINE
  5
21D
330
1F
100
AcDbEntity
  8
06-ダクト内線
  6
DASHED2
 48
0.2
100
AcDbLine
 10
19724.8251152239
 20
-23898.40000000001
 30
0.0
 11
19785.42511522387
 21
-23898.40000000001
 31
0.0
  0
ARC
  5
21E
330
1F
100
AcDbEntity
  8
06-ダクト内線
  6
DASHED2
 48
0.2
100
AcDbCircle
 10
19720.42511522387
 20
-23900.0
 30
0.0
 40
4.4
100
AcDbArc
 50
180.0
 51
0.0
  0
LINE
  5
21F
330
1F
100
AcDbEntity
  8
06-ダクト内線
  6
DASHED2
 48
0.2
100
AcDbLine
 10
19716.02511522388
 20
-23898.40000000001
 30
0.0
 11
19716.02511522388
 21
-23900.0
 31
0.0
  0
LINE
  5
220
330
1F
100
AcDbEntity
  8
06-ダクト内線
  6
DASHED2
 48
0.2
100
AcDbLine
 10
19724.8251152239
 20
-23898.40000000001
 30
0.0
 11
19724.8251152239
 21
-23900.0
 31
0.0
  0
INSERT
  5
224
330
1F
100
AcDbEntity
  8
寸法
100
AcDbBlockReference
  2
INS-D66P8
 10
19599.125
 20
-23800.0
 30
0.0
  0
INSERT
  5
22E
330
1F
100
AcDbEntity
  8
寸法
100
AcDbBlockReference
  2
INS-D8J52
 10
19685.425
 20
-23647.85
 30
0.0
  0
INSERT
  5
238
330
1F
100
AcDbEntity
  8
寸法
100
AcDbBlockReference
  2
INS-DR7WJ
 10
19720.425
 20
-23647.2
 30
0.0
  0
INSERT
  5
240
330
1F
100
AcDbEntity
  8
寸法
100
AcDbBlockReference
  2
INS-D3RIW
 10
19755.425
 20
-23647.85
 30
0.0
  0
TEXT
  5
247
330
1F
100
AcDbEntity
  8
03-文字-2
100
AcDbText
 10
19401.76357676165
 20
-24035.6688933674
 30
0.0
 40
49.955
  1
ニップルφ200-0.6t
 41
0.9971562090994912
 72
     1
 11
19720.42511522319
 21
-24010.6913933674
 31
0.0
100
AcDbText
 73
     2
  0
LINE
  5
248
330
1F
100
AcDbEntity
  8
04-ダクトセンター
100
AcDbLine
 10
19655.42511522387
 20
-24600.0
 30
0.0
 11
19785.42511522387
 21
-24600.0
 31
0.0
  0
ARC
  5
249
330
1F
100
AcDbEntity
  8
05-ダクト外線
100
AcDbCircle
 10
19720.42511522387
 20
-24712.5
 30
0.0
 40
5.0
100
AcDbArc
 50
180.0
 51
0.0
  0
LINE
  5
24A
330
1F
100
AcDbEntity
  8
05-ダクト外線
100
AcDbLine
 10
19655.42511522387
 20
-24711.5
 30
0.0
 11
19715.42511522387
 21
-24711.5
 31
0.0
  0
LINE
  5
24B
330
1F
100
AcDbEntity
  8
05-ダクト外線
100
AcDbLine
 10
19655.42511522387
 20
-24488.5
 30
0.0
 11
19715.42511522387
 21
-24488.5
 31
0.0
  0
ARC
  5
24C
330
1F
100
AcDbEntity
  8
05-ダクト外線
100
AcDbCircle
 10
19720.42511522387
 20
-24487.5
 30
0.0
 40
5.0
100
AcDbArc
 50
0.0
 51
180.0
  0
LINE
  5
24D
330
1F
100
AcDbEntity
  8
05-ダクト外線
100
AcDbLine
 10
19715.42511522387
 20
-24487.5
 30
0.0
 11
19715.42511522387
 21
-24712.5
 31
0.0
  0
LINE
  5
24E
330
1F
100
AcDbEntity
  8
05-ダクト外線
100
AcDbLine
 10
19725.42511522387
 20
-24487.5
 30
0.0
 11
19725.42511522387
 21
-24712.5
 31
0.0
  0
LINE
  5
24F
330
1F
100
AcDbEntity
  8
05-ダクト外線
100
AcDbLine
 10
19725.42511522387
 20
-24488.5
 30
0.0
 11
19785.42511522387
 21
-24488.5
 31
0.0
  0
LINE
  5
250
330
1F
100
AcDbEntity
  8
05-ダクト外線
100
AcDbLine
 10
19725.42511522387
 20
-24711.5
 30
0.0
 11
19785.42511522387
 21
-24711.5
 31
0.0
  0
LINE
  5
251
330
1F
100
AcDbEntity
  8
05-ダクト外線
100
AcDbLine
 10
19655.42511522387
 20
-24488.5
 30
0.0
 11
19655.42511522387
 21
-24711.5
 31
0.0
  0
LINE
  5
252
330
1F
100
AcDbEntity
  8
05-ダクト外線
100
AcDbLine
 10
19785.42511522387
 20
-24488.5
 30
0.0
 11
19785.42511522387
 21
-24711.5
 31
0.0
  0
LINE
  5
253
330
1F
100
AcDbEntity
  8
06-ダクト内線
  6
DASHED2
 48
0.2
100
AcDbLine
 10
19655.42511522387
 20
-24710.90000000001
 30
0.0
 11
19716.02511522388
 21
-24710.90000000001
 31
0.0
  0
LINE
  5
254
330
1F
100
AcDbEntity
  8
06-ダクト内線
  6
DASHED2
 48
0.2
100
AcDbLine
 10
19655.42511522387
 20
-24489.1
 30
0.0
 11
19716.02511522388
 21
-24489.1
 31
0.0
  0
ARC
  5
255
330
1F
100
AcDbEntity
  8
06-ダクト内線
  6
DASHED2
 48
0.2
100
AcDbCircle
 10
19720.42511522387
 20
-24487.5
 30
0.0
 40
4.4
100
AcDbArc
 50
0.0
 51
180.0
  0
LINE
  5
256
330
1F
100
AcDbEntity
  8
06-ダクト内線
  6
DASHED2
 48
0.2
100
AcDbLine
 10
19716.02511522388
 20
-24487.5
 30
0.0
 11
19716.02511522388
 21
-24489.1
 31
0.0
  0
LINE
  5
257
330
1F
100
AcDbEntity
  8
06-ダクト内線
  6
DASHED2
 48
0.2
100
AcDbLine
 10
19724.8251152239
 20
-24487.5
 30
0.0
 11
19724.8251152239
 21
-24489.1
 31
0.0
  0
LINE
  5
258
330
1F
100
AcDbEntity
  8
06-ダクト内線
  6
DASHED2
 48
0.2
100
AcDbLine
 10
19724.8251152239
 20
-24489.1
 30
0.0
 11
19785.42511522387
 21
-24489.1
 31
0.0
  0
LINE
  5
259
330
1F
100
AcDbEntity
  8
06-ダクト内線
  6
DASHED2
 48
0.2
100
AcDbLine
 10
19724.8251152239
 20
-24710.90000000001
 30
0.0
 11
19785.42511522387
 21
-24710.90000000001
 31
0.0
  0
ARC
  5
25A
330
1F
100
AcDbEntity
  8
06-ダクト内線
  6
DASHED2
 48
0.2
100
AcDbCircle
 10
19720.42511522387
 20
-24712.5
 30
0.0
 40
4.4
100
AcDbArc
 50
180.0
 51
0.0
  0
LINE
  5
25B
330
1F
100
AcDbEntity
  8
06-ダクト内線
  6
DASHED2
 48
0.2
100
AcDbLine
 10
19716.02511522388
 20
-24710.90000000001
 30
0.0
 11
19716.02511522388
 21
-24712.5
 31
0.0
  0
LINE
  5
25C
330
1F
100
AcDbEntity
  8
06-ダクト内線
  6
DASHED2
 48
0.2
100
AcDbLine
 10
19724.8251152239
 20
-24710.90000000001
 30
0.0
 11
19724.8251152239
 21
-24712.5
 31
0.0
  0
INSERT
  5
260
330
1F
100
AcDbEntity
  8
寸法
100
AcDbBlockReference
  2
INS-D7JH8
 10
19599.125
 20
-24600.0
 30
0.0
  0
INSERT
  5
26A
330
1F
100
AcDbEntity
  8
寸法
100
AcDbBlockReference
  2
INS-DCF7A
 10
19685.425
 20
-24435.35
 30
0.0
  0
INSERT
  5
274
330
1F
100
AcDbEntity
  8
寸法
100
AcDbBlockReference
  2
INS-DO5WJ
 10
19720.425
 20
-24434.7
 30
0.0
  0
INSERT
  5
27C
330
1F
100
AcDbEntity
  8
寸法
100
AcDbBlockReference
  2
INS-D5WJ7
 10
19755.425
 20
-24435.35
 30
0.0
  0
TEXT
  5
283
330
1F
100
AcDbEntity
  8
03-文字-2
100
AcDbText
 10
19393.17511522387
 20
-24848.16889336753
 30
0.0
 40
49.955
  1
ニップルφ225-0.6t
 41
0.9971562090994912
 72
     1
 11
19720.42511522387
 21
-24823.19139336753
 31
0.0
100
AcDbText
 73
     2
  0
LINE
  5
284
330
1F
100
AcDbEntity
  8
04-ダクトセンター
100
AcDbLine
 10
19655.42511522387
 20
-25400.0
 30
0.0
 11
19785.42511522387
 21
-25400.0
 31
0.0
  0
ARC
  5
285
330
1F
100
AcDbEntity
  8
05-ダクト外線
100
AcDbCircle
 10
19720.42511522387
 20
-25525.0
 30
0.0
 40
5.0
100
AcDbArc
 50
180.0
 51
0.0
  0
LINE
  5
286
330
1F
100
AcDbEntity
  8
05-ダクト外線
100
AcDbLine
 10
19655.42511522387
 20
-25524.0
 30
0.0
 11
19715.42511522387
 21
-25524.0
 31
0.0
  0
LINE
  5
287
330
1F
100
AcDbEntity
  8
05-ダクト外線
100
AcDbLine
 10
19655.42511522387
 20
-25276.0
 30
0.0
 11
19715.42511522387
 21
-25276.0
 31
0.0
  0
ARC
  5
288
330
1F
100
AcDbEntity
  8
05-ダクト外線
100
AcDbCircle
 10
19720.42511522387
 20
-25275.0
 30
0.0
 40
5.0
100
AcDbArc
 50
0.0
 51
180.0
  0
LINE
  5
289
330
1F
100
AcDbEntity
  8
05-ダクト外線
100
AcDbLine
 10
19715.42511522387
 20
-25275.0
 30
0.0
 11
19715.42511522387
 21
-25525.0
 31
0.0
  0
LINE
  5
28A
330
1F
100
AcDbEntity
  8
05-ダクト外線
100
AcDbLine
 10
19725.42511522387
 20
-25275.0
 30
0.0
 11
19725.42511522387
 21
-25525.0
 31
0.0
  0
LINE
  5
28B
330
1F
100
AcDbEntity
  8
05-ダクト外線
100
AcDbLine
 10
19725.42511522387
 20
-25276.0
 30
0.0
 11
19785.42511522387
 21
-25276.0
 31
0.0
  0
LINE
  5
28C
330
1F
100
AcDbEntity
  8
05-ダクト外線
100
AcDbLine
 10
19725.42511522387
 20
-25524.0
 30
0.0
 11
19785.42511522387
 21
-25524.0
 31
0.0
  0
LINE
  5
28D
330
1F
100
AcDbEntity
  8
05-ダクト外線
100
AcDbLine
 10
19655.42511522387
 20
-25276.0
 30
0.0
 11
19655.42511522387
 21
-25524.0
 31
0.0
  0
LINE
  5
28E
330
1F
100
AcDbEntity
  8
05-ダクト外線
100
AcDbLine
 10
19785.42511522387
 20
-25276.0
 30
0.0
 11
19785.42511522387
 21
-25524.0
 31
0.0
  0
LINE
  5
28F
330
1F
100
AcDbEntity
  8
06-ダクト内線
  6
DASHED2
 48
0.2
100
AcDbLine
 10
19655.42511522387
 20
-25523.40000000001
 30
0.0
 11
19716.02511522388
 21
-25523.40000000001
 31
0.0
  0
LINE
  5
290
330
1F
100
AcDbEntity
  8
06-ダクト内線
  6
DASHED2
 48
0.2
100
AcDbLine
 10
19655.42511522387
 20
-25276.6
 30
0.0
 11
19716.02511522388
 21
-25276.6
 31
0.0
  0
ARC
  5
291
330
1F
100
AcDbEntity
  8
06-ダクト内線
  6
DASHED2
 48
0.2
100
AcDbCircle
 10
19720.42511522387
 20
-25275.0
 30
0.0
 40
4.4
100
AcDbArc
 50
0.0
 51
180.0
  0
LINE
  5
292
330
1F
100
AcDbEntity
  8
06-ダクト内線
  6
DASHED2
 48
0.2
100
AcDbLine
 10
19716.02511522388
 20
-25275.0
 30
0.0
 11
19716.02511522388
 21
-25276.6
 31
0.0
  0
LINE
  5
293
330
1F
100
AcDbEntity
  8
06-ダクト内線
  6
DASHED2
 48
0.2
100
AcDbLine
 10
19724.8251152239
 20
-25275.0
 30
0.0
 11
19724.8251152239
 21
-25276.6
 31
0.0
  0
LINE
  5
294
330
1F
100
AcDbEntity
  8
06-ダクト内線
  6
DASHED2
 48
0.2
100
AcDbLine
 10
19724.8251152239
 20
-25276.6
 30
0.0
 11
19785.42511522387
 21
-25276.6
 31
0.0
  0
LINE
  5
295
330
1F
100
AcDbEntity
  8
06-ダクト内線
  6
DASHED2
 48
0.2
100
AcDbLine
 10
19724.8251152239
 20
-25523.40000000001
 30
0.0
 11
19785.42511522387
 21
-25523.40000000001
 31
0.0
  0
ARC
  5
296
330
1F
100
AcDbEntity
  8
06-ダクト内線
  6
DASHED2
 48
0.2
100
AcDbCircle
 10
19720.42511522387
 20
-25525.0
 30
0.0
 40
4.4
100
AcDbArc
 50
180.0
 51
0.0
  0
LINE
  5
297
330
1F
100
AcDbEntity
  8
06-ダクト内線
  6
DASHED2
 48
0.2
100
AcDbLine
 10
19716.02511522388
 20
-25523.40000000001
 30
0.0
 11
19716.02511522388
 21
-25525.0
 31
0.0
  0
LINE
  5
298
330
1F
100
AcDbEntity
  8
06-ダクト内線
  6
DASHED2
 48
0.2
100
AcDbLine
 10
19724.8251152239
 20
-25523.40000000001
 30
0.0
 11
19724.8251152239
 21
-25525.0
 31
0.0
  0
INSERT
  5
29C
330
1F
100
AcDbEntity
  8
寸法
100
AcDbBlockReference
  2
INS-DGK5E
 10
19599.125
 20
-25400.0
 30
0.0
  0
INSERT
  5
2A6
330
1F
100
AcDbEntity
  8
寸法
100
AcDbBlockReference
  2
INS-DOX5G
 10
19685.425
 20
-25222.85
 30
0.0
  0
INSERT
  5
2B0
330
1F
100
AcDbEntity
  8
寸法
100
AcDbBlockReference
  2
INS-DZIYU
 10
19720.425
 20
-25222.2
 30
0.0
  0
INSERT
  5
2B8
330
1F
100
AcDbEntity
  8
寸法
100
AcDbBlockReference
  2
INS-D5I98
 10
19755.425
 20
-25222.85
 30
0.0
  0
TEXT
  5
2BF
330
1F
100
AcDbEntity
  8
03-文字-2
100
AcDbText
 10
19397.46934599279
 20
-25660.66889336954
 30
0.0
 40
49.955
  1
ニップルφ250-0.6t
 41
0.9971562090994912
 72
     1
 11
19720.42511522356
 21
-25635.69139336954
 31
0.0
100
AcDbText
 73
     2
  0
LINE
  5
2C0
330
1F
100
AcDbEntity
  8
04-ダクトセンター
100
AcDbLine
 10
19655.42511522387
 20
-26200.0
 30
0.0
 11
19785.42511522387
 21
-26200.0
 31
0.0
  0
ARC
  5
2C1
330
1F
100
AcDbEntity
  8
05-ダクト外線
100
AcDbCircle
 10
19720.42511522387
 20
-26337.5
 30
0.0
 40
5.0
100
AcDbArc
 50
180.0
 51
0.0
  0
LINE
  5
2C2
330
1F
100
AcDbEntity
  8
05-ダクト外線
100
AcDbLine
 10
19655.42511522387
 20
-26336.5
 30
0.0
 11
19715.42511522387
 21
-26336.5
 31
0.0
  0
LINE
  5
2C3
330
1F
100
AcDbEntity
  8
05-ダクト外線
100
AcDbLine
 10
19655.42511522387
 20
-26063.5
 30
0.0
 11
19715.42511522387
 21
-26063.5
 31
0.0
  0
ARC
  5
2C4
330
1F
100
AcDbEntity
  8
05-ダクト外線
100
AcDbCircle
 10
19720.42511522387
 20
-26062.5
 30
0.0
 40
5.0
100
AcDbArc
 50
0.0
 51
180.0
  0
LINE
  5
2C5
330
1F
100
AcDbEntity
  8
05-ダクト外線
100
AcDbLine
 10
19715.42511522387
 20
-26062.5
 30
0.0
 11
19715.42511522387
 21
-26337.5
 31
0.0
  0
LINE
  5
2C6
330
1F
100
AcDbEntity
  8
05-ダクト外線
100
AcDbLine
 10
19725.42511522387
 20
-26062.5
 30
0.0
 11
19725.42511522387
 21
-26337.5
 31
0.0
  0
LINE
  5
2C7
330
1F
100
AcDbEntity
  8
05-ダクト外線
100
AcDbLine
 10
19725.42511522387
 20
-26063.5
 30
0.0
 11
19785.42511522387
 21
-26063.5
 31
0.0
  0
LINE
  5
2C8
330
1F
100
AcDbEntity
  8
05-ダクト外線
100
AcDbLine
 10
19725.42511522387
 20
-26336.5
 30
0.0
 11
19785.42511522387
 21
-26336.5
 31
0.0
  0
LINE
  5
2C9
330
1F
100
AcDbEntity
  8
05-ダクト外線
100
AcDbLine
 10
19655.42511522387
 20
-26063.5
 30
0.0
 11
19655.42511522387
 21
-26336.5
 31
0.0
  0
LINE
  5
2CA
330
1F
100
AcDbEntity
  8
05-ダクト外線
100
AcDbLine
 10
19785.42511522387
 20
-26063.5
 30
0.0
 11
19785.42511522387
 21
-26336.5
 31
0.0
  0
LINE
  5
2CB
330
1F
100
AcDbEntity
  8
06-ダクト内線
  6
DASHED2
 48
0.2
100
AcDbLine
 10
19655.42511522387
 20
-26335.90000000001
 30
0.0
 11
19716.02511522388
 21
-26335.90000000001
 31
0.0
  0
LINE
  5
2CC
330
1F
100
AcDbEntity
  8
06-ダクト内線
  6
DASHED2
 48
0.2
100
AcDbLine
 10
19655.42511522387
 20
-26064.1
 30
0.0
 11
19716.02511522388
 21
-26064.1
 31
0.0
  0
ARC
  5
2CD
330
1F
100
AcDbEntity
  8
06-ダクト内線
  6
DASHED2
 48
0.2
100
AcDbCircle
 10
19720.42511522387
 20
-26062.5
 30
0.0
 40
4.4
100
AcDbArc
 50
0.0
 51
180.0
  0
LINE
  5
2CE
330
1F
100
AcDbEntity
  8
06-ダクト内線
  6
DASHED2
 48
0.2
100
AcDbLine
 10
19716.02511522388
 20
-26062.5
 30
0.0
 11
19716.02511522388
 21
-26064.1
 31
0.0
  0
LINE
  5
2CF
330
1F
100
AcDbEntity
  8
06-ダクト内線
  6
DASHED2
 48
0.2
100
AcDbLine
 10
19724.8251152239
 20
-26062.5
 30
0.0
 11
19724.8251152239
 21
-26064.1
 31
0.0
  0
LINE
  5
2D0
330
1F
100
AcDbEntity
  8
06-ダクト内線
  6
DASHED2
 48
0.2
100
AcDbLine
 10
19724.8251152239
 20
-26064.1
 30
0.0
 11
19785.42511522387
 21
-26064.1
 31
0.0
  0
LINE
  5
2D1
330
1F
100
AcDbEntity
  8
06-ダクト内線
  6
DASHED2
 48
0.2
100
AcDbLine
 10
19724.8251152239
 20
-26335.90000000001
 30
0.0
 11
19785.42511522387
 21
-26335.90000000001
 31
0.0
  0
ARC
  5
2D2
330
1F
100
AcDbEntity
  8
06-ダクト内線
  6
DASHED2
 48
0.2
100
AcDbCircle
 10
19720.42511522387
 20
-26337.5
 30
0.0
 40
4.4
100
AcDbArc
 50
180.0
 51
0.0
  0
LINE
  5
2D3
330
1F
100
AcDbEntity
  8
06-ダクト内線
  6
DASHED2
 48
0.2
100
AcDbLine
 10
19716.02511522388
 20
-26335.90000000001
 30
0.0
 11
19716.02511522388
 21
-26337.5
 31
0.0
  0
LINE
  5
2D4
330
1F
100
AcDbEntity
  8
06-ダクト内線
  6
DASHED2
 48
0.2
100
AcDbLine
 10
19724.8251152239
 20
-26335.90000000001
 30
0.0
 11
19724.8251152239
 21
-26337.5
 31
0.0
  0
INSERT
  5
2D8
330
1F
100
AcDbEntity
  8
寸法
100
AcDbBlockReference
  2
INS-D8D8F
 10
19599.125
 20
-26200.0
 30
0.0
  0
INSERT
  5
2E2
330
1F
100
AcDbEntity
  8
寸法
100
AcDbBlockReference
  2
INS-DJAD0
 10
19685.425
 20
-26010.35
 30
0.0
  0
INSERT
  5
2EC
330
1F
100
AcDbEntity
  8
寸法
100
AcDbBlockReference
  2
INS-D4XZZ
 10
19720.425
 20
-26009.7
 30
0.0
  0
INSERT
  5
2F4
330
1F
100
AcDbEntity
  8
寸法
100
AcDbBlockReference
  2
INS-D4Z86
 10
19755.425
 20
-26010.35
 30
0.0
  0
TEXT
  5
2FB
330
1F
100
AcDbEntity
  8
03-文字-2
100
AcDbText
 10
19393.17511522387
 20
-26473.16889336939
 30
0.0
 40
49.955
  1
ニップルφ275-0.6t
 41
0.9971562090994912
 72
     1
 11
19720.42511522387
 21
-26448.19139336939
 31
0.0
100
AcDbText
 73
     2
  0
LINE
  5
2FC
330
1F
100
AcDbEntity
  8
04-ダクトセンター
100
AcDbLine
 10
19655.42511522387
 20
-27100.0
 30
0.0
 11
19785.42511522387
 21
-27100.0
 31
0.0
  0
ARC
  5
2FD
330
1F
100
AcDbEntity
  8
05-ダクト外線
100
AcDbCircle
 10
19720.42511522387
 20
-27250.0
 30
0.0
 40
5.0
100
AcDbArc
 50
180.0
 51
0.0
  0
LINE
  5
2FE
330
1F
100
AcDbEntity
  8
05-ダクト外線
100
AcDbLine
 10
19655.42511522387
 20
-27249.0
 30
0.0
 11
19715.42511522387
 21
-27249.0
 31
0.0
  0
LINE
  5
2FF
330
1F
100
AcDbEntity
  8
05-ダクト外線
100
AcDbLine
 10
19655.42511522387
 20
-26951.0
 30
0.0
 11
19715.42511522387
 21
-26951.0
 31
0.0
  0
ARC
  5
300
330
1F
100
AcDbEntity
  8
05-ダクト外線
100
AcDbCircle
 10
19720.42511522387
 20
-26950.0
 30
0.0
 40
5.0
100
AcDbArc
 50
0.0
 51
180.0
  0
LINE
  5
301
330
1F
100
AcDbEntity
  8
05-ダクト外線
100
AcDbLine
 10
19715.42511522387
 20
-26950.0
 30
0.0
 11
19715.42511522387
 21
-27250.0
 31
0.0
  0
LINE
  5
302
330
1F
100
AcDbEntity
  8
05-ダクト外線
100
AcDbLine
 10
19725.42511522387
 20
-26950.0
 30
0.0
 11
19725.42511522387
 21
-27250.0
 31
0.0
  0
LINE
  5
303
330
1F
100
AcDbEntity
  8
05-ダクト外線
100
AcDbLine
 10
19725.42511522387
 20
-26951.0
 30
0.0
 11
19785.42511522387
 21
-26951.0
 31
0.0
  0
LINE
  5
304
330
1F
100
AcDbEntity
  8
05-ダクト外線
100
AcDbLine
 10
19725.42511522387
 20
-27249.0
 30
0.0
 11
19785.42511522387
 21
-27249.0
 31
0.0
  0
LINE
  5
305
330
1F
100
AcDbEntity
  8
05-ダクト外線
100
AcDbLine
 10
19655.42511522387
 20
-26951.0
 30
0.0
 11
19655.42511522387
 21
-27249.0
 31
0.0
  0
LINE
  5
306
330
1F
100
AcDbEntity
  8
05-ダクト外線
100
AcDbLine
 10
19785.42511522387
 20
-26951.0
 30
0.0
 11
19785.42511522387
 21
-27249.0
 31
0.0
  0
LINE
  5
307
330
1F
100
AcDbEntity
  8
06-ダクト内線
  6
DASHED2
 48
0.2
100
AcDbLine
 10
19655.42511522387
 20
-27248.40000000001
 30
0.0
 11
19716.02511522388
 21
-27248.40000000001
 31
0.0
  0
LINE
  5
308
330
1F
100
AcDbEntity
  8
06-ダクト内線
  6
DASHED2
 48
0.2
100
AcDbLine
 10
19655.42511522387
 20
-26951.6
 30
0.0
 11
19716.02511522388
 21
-26951.6
 31
0.0
  0
ARC
  5
309
330
1F
100
AcDbEntity
  8
06-ダクト内線
  6
DASHED2
 48
0.2
100
AcDbCircle
 10
19720.42511522387
 20
-26950.0
 30
0.0
 40
4.4
100
AcDbArc
 50
0.0
 51
180.0
  0
LINE
  5
30A
330
1F
100
AcDbEntity
  8
06-ダクト内線
  6
DASHED2
 48
0.2
100
AcDbLine
 10
19716.02511522388
 20
-26950.0
 30
0.0
 11
19716.02511522388
 21
-26951.6
 31
0.0
  0
LINE
  5
30B
330
1F
100
AcDbEntity
  8
06-ダクト内線
  6
DASHED2
 48
0.2
100
AcDbLine
 10
19724.8251152239
 20
-26950.0
 30
0.0
 11
19724.8251152239
 21
-26951.6
 31
0.0
  0
LINE
  5
30C
330
1F
100
AcDbEntity
  8
06-ダクト内線
  6
DASHED2
 48
0.2
100
AcDbLine
 10
19724.8251152239
 20
-26951.6
 30
0.0
 11
19785.42511522387
 21
-26951.6
 31
0.0
  0
LINE
  5
30D
330
1F
100
AcDbEntity
  8
06-ダクト内線
  6
DASHED2
 48
0.2
100
AcDbLine
 10
19724.8251152239
 20
-27248.40000000001
 30
0.0
 11
19785.42511522387
 21
-27248.40000000001
 31
0.0
  0
ARC
  5
30E
330
1F
100
AcDbEntity
  8
06-ダクト内線
  6
DASHED2
 48
0.2
100
AcDbCircle
 10
19720.42511522387
 20
-27250.0
 30
0.0
 40
4.4
100
AcDbArc
 50
180.0
 51
0.0
  0
LINE
  5
30F
330
1F
100
AcDbEntity
  8
06-ダクト内線
  6
DASHED2
 48
0.2
100
AcDbLine
 10
19716.02511522388
 20
-27248.40000000001
 30
0.0
 11
19716.02511522388
 21
-27250.0
 31
0.0
  0
LINE
  5
310
330
1F
100
AcDbEntity
  8
06-ダクト内線
  6
DASHED2
 48
0.2
100
AcDbLine
 10
19724.8251152239
 20
-27248.40000000001
 30
0.0
 11
19724.8251152239
 21
-27250.0
 31
0.0
  0
INSERT
  5
314
330
1F
100
AcDbEntity
  8
寸法
100
AcDbBlockReference
  2
INS-D94NW
 10
19599.125
 20
-27100.0
 30
0.0
  0
INSERT
  5
31E
330
1F
100
AcDbEntity
  8
寸法
100
AcDbBlockReference
  2
INS-D8DN6
 10
19685.425
 20
-26897.85
 30
0.0
  0
INSERT
  5
328
330
1F
100
AcDbEntity
  8
寸法
100
AcDbBlockReference
  2
INS-D8UPD
 10
19720.425
 20
-26897.2
 30
0.0
  0
INSERT
  5
330
330
1F
100
AcDbEntity
  8
寸法
100
AcDbBlockReference
  2
INS-D5SJW
 10
19755.425
 20
-26897.85
 30
0.0
  0
TEXT
  5
337
330
1F
100
AcDbEntity
  8
03-文字-2
100
AcDbText
 10
19401.7635767631
 20
-27385.66889336869
 30
0.0
 40
49.955
  1
ニップルφ300-0.6t
 41
0.9971562090994912
 72
     1
 11
19720.42511522464
 21
-27360.69139336868
 31
0.0
100
AcDbText
 73
     2
  0
LINE
  5
338
330
1F
100
AcDbEntity
  8
04-ダクトセンター
100
AcDbLine
 10
19655.42511522387
 20
-28100.0
 30
0.0
 11
19785.42511522387
 21
-28100.0
 31
0.0
  0
ARC
  5
339
330
1F
100
AcDbEntity
  8
05-ダクト外線
100
AcDbCircle
 10
19720.42511522387
 20
-28262.5
 30
0.0
 40
5.0
100
AcDbArc
 50
180.0
 51
0.0
  0
LINE
  5
33A
330
1F
100
AcDbEntity
  8
05-ダクト外線
100
AcDbLine
 10
19655.42511522387
 20
-28261.5
 30
0.0
 11
19715.42511522387
 21
-28261.5
 31
0.0
  0
LINE
  5
33B
330
1F
100
AcDbEntity
  8
05-ダクト外線
100
AcDbLine
 10
19655.42511522387
 20
-27938.5
 30
0.0
 11
19715.42511522387
 21
-27938.5
 31
0.0
  0
ARC
  5
33C
330
1F
100
AcDbEntity
  8
05-ダクト外線
100
AcDbCircle
 10
19720.42511522387
 20
-27937.5
 30
0.0
 40
5.0
100
AcDbArc
 50
0.0
 51
180.0
  0
LINE
  5
33D
330
1F
100
AcDbEntity
  8
05-ダクト外線
100
AcDbLine
 10
19715.42511522387
 20
-27937.5
 30
0.0
 11
19715.42511522387
 21
-28262.5
 31
0.0
  0
LINE
  5
33E
330
1F
100
AcDbEntity
  8
05-ダクト外線
100
AcDbLine
 10
19725.42511522387
 20
-27937.5
 30
0.0
 11
19725.42511522387
 21
-28262.5
 31
0.0
  0
LINE
  5
33F
330
1F
100
AcDbEntity
  8
05-ダクト外線
100
AcDbLine
 10
19725.42511522387
 20
-27938.5
 30
0.0
 11
19785.42511522387
 21
-27938.5
 31
0.0
  0
LINE
  5
340
330
1F
100
AcDbEntity
  8
05-ダクト外線
100
AcDbLine
 10
19725.42511522387
 20
-28261.5
 30
0.0
 11
19785.42511522387
 21
-28261.5
 31
0.0
  0
LINE
  5
341
330
1F
100
AcDbEntity
  8
05-ダクト外線
100
AcDbLine
 10
19655.42511522387
 20
-27938.5
 30
0.0
 11
19655.42511522387
 21
-28261.5
 31
0.0
  0
LINE
  5
342
330
1F
100
AcDbEntity
  8
05-ダクト外線
100
AcDbLine
 10
19785.42511522387
 20
-27938.5
 30
0.0
 11
19785.42511522387
 21
-28261.5
 31
0.0
  0
INSERT
  5
346
330
1F
100
AcDbEntity
  8
寸法
100
AcDbBlockReference
  2
INS-D3MPO
 10
19599.125
 20
-28100.0
 30
0.0
  0
INSERT
  5
350
330
1F
100
AcDbEntity
  8
寸法
100
AcDbBlockReference
  2
INS-D7XZK
 10
19685.425
 20
-27885.35
 30
0.0
  0
INSERT
  5
35A
330
1F
100
AcDbEntity
  8
寸法
100
AcDbBlockReference
  2
INS-D8RP6
 10
19720.425
 20
-27884.7
 30
0.0
  0
INSERT
  5
362
330
1F
100
AcDbEntity
  8
寸法
100
AcDbBlockReference
  2
INS-DNNOS
 10
19755.695
 20
-27885.35
 30
0.0
  0
TEXT
  5
369
330
1F
100
AcDbEntity
  8
03-文字-2
100
AcDbText
 10
19393.17511522387
 20
-28398.16889336753
 30
0.0
 40
49.955
  1
ニップルφ325-0.8t
 41
0.9971562090994912
 72
     1
 11
19720.42511522387
 21
-28373.19139336753
 31
0.0
100
AcDbText
 73
     2
  0
LINE
  5
36A
330
1F
100
AcDbEntity
  8
06-ダクト内線
  6
DASHED2
 62
    20
 48
0.2
100
AcDbLine
 10
19655.42511522387
 20
-28260.7
 30
0.0
 11
19716.22511522389
 21
-28260.7
 31
0.0
  0
LINE
  5
36B
330
1F
100
AcDbEntity
  8
06-ダクト内線
  6
DASHED2
 62
    20
 48
0.2
100
AcDbLine
 10
19716.22511522389
 20
-28260.7
 30
0.0
 11
19716.22511522389
 21
-28262.5
 31
0.0
  0
ARC
  5
36C
330
1F
100
AcDbEntity
  8
06-ダクト内線
  6
DASHED2
 62
    20
 48
0.2
100
AcDbCircle
 10
19720.42511522387
 20
-28262.5
 30
0.0
 40
4.2
100
AcDbArc
 50
180.0
 51
0.0
  0
LINE
  5
36D
330
1F
100
AcDbEntity
  8
06-ダクト内線
  6
DASHED2
 62
    20
 48
0.2
100
AcDbLine
 10
19724.62511522388
 20
-28260.7
 30
0.0
 11
19724.62511522388
 21
-28262.5
 31
0.0
  0
LINE
  5
36E
330
1F
100
AcDbEntity
  8
06-ダクト内線
  6
DASHED2
 62
    20
 48
0.2
100
AcDbLine
 10
19724.62511522388
 20
-28260.7
 30
0.0
 11
19785.42511522387
 21
-28260.7
 31
0.0
  0
LINE
  5
36F
330
1F
100
AcDbEntity
  8
06-ダクト内線
  6
DASHED2
 62
    20
 48
0.2
100
AcDbLine
 10
19655.42511522387
 20
-27939.3
 30
0.0
 11
19716.22511522389
 21
-27939.3
 31
0.0
  0
LINE
  5
370
330
1F
100
AcDbEntity
  8
06-ダクト内線
  6
DASHED2
 62
    20
 48
0.2
100
AcDbLine
 10
19716.22511522389
 20
-27937.5
 30
0.0
 11
19716.22511522389
 21
-27939.3
 31
0.0
  0
ARC
  5
371
330
1F
100
AcDbEntity
  8
06-ダクト内線
  6
DASHED2
 62
    20
 48
0.2
100
AcDbCircle
 10
19720.42511522387
 20
-27937.5
 30
0.0
 40
4.2
100
AcDbArc
 50
0.0
 51
180.0
  0
LINE
  5
372
330
1F
100
AcDbEntity
  8
06-ダクト内線
  6
DASHED2
 62
    20
 48
0.2
100
AcDbLine
 10
19724.62511522388
 20
-27937.5
 30
0.0
 11
19724.62511522388
 21
-27939.3
 31
0.0
  0
LINE
  5
373
330
1F
100
AcDbEntity
  8
06-ダクト内線
  6
DASHED2
 62
    20
 48
0.2
100
AcDbLine
 10
19724.62511522388
 20
-27939.3
 30
0.0
 11
19785.42511522387
 21
-27939.3
 31
0.0
  0
LINE
  5
374
330
1F
100
AcDbEntity
  8
04-ダクトセンター
100
AcDbLine
 10
19655.42511522387
 20
-29100.00000000001
 30
0.0
 11
19785.42511522387
 21
-29100.00000000001
 31
0.0
  0
ARC
  5
375
330
1F
100
AcDbEntity
  8
05-ダクト外線
100
AcDbCircle
 10
19720.42511522387
 20
-29275.00000000001
 30
0.0
 40
5.0
100
AcDbArc
 50
180.0
 51
0.0
  0
LINE
  5
376
330
1F
100
AcDbEntity
  8
05-ダクト外線
100
AcDbLine
 10
19655.42511522387
 20
-29274.00000000001
 30
0.0
 11
19715.42511522387
 21
-29274.00000000001
 31
0.0
  0
LINE
  5
377
330
1F
100
AcDbEntity
  8
05-ダクト外線
100
AcDbLine
 10
19655.42511522387
 20
-28926.00000000001
 30
0.0
 11
19715.42511522387
 21
-28926.00000000001
 31
0.0
  0
ARC
  5
378
330
1F
100
AcDbEntity
  8
05-ダクト外線
100
AcDbCircle
 10
19720.42511522387
 20
-28925.00000000001
 30
0.0
 40
5.0
100
AcDbArc
 50
0.0
 51
180.0
  0
LINE
  5
379
330
1F
100
AcDbEntity
  8
05-ダクト外線
100
AcDbLine
 10
19715.42511522387
 20
-28925.00000000001
 30
0.0
 11
19715.42511522387
 21
-29275.00000000001
 31
0.0
  0
LINE
  5
37A
330
1F
100
AcDbEntity
  8
05-ダクト外線
100
AcDbLine
 10
19725.42511522387
 20
-28925.00000000001
 30
0.0
 11
19725.42511522387
 21
-29275.00000000001
 31
0.0
  0
LINE
  5
37B
330
1F
100
AcDbEntity
  8
05-ダクト外線
100
AcDbLine
 10
19725.42511522387
 20
-28926.00000000001
 30
0.0
 11
19785.42511522387
 21
-28926.00000000001
 31
0.0
  0
LINE
  5
37C
330
1F
100
AcDbEntity
  8
05-ダクト外線
100
AcDbLine
 10
19725.42511522387
 20
-29274.00000000001
 30
0.0
 11
19785.42511522387
 21
-29274.00000000001
 31
0.0
  0
LINE
  5
37D
330
1F
100
AcDbEntity
  8
05-ダクト外線
100
AcDbLine
 10
19655.42511522387
 20
-28926.00000000001
 30
0.0
 11
19655.42511522387
 21
-29274.00000000001
 31
0.0
  0
LINE
  5
37E
330
1F
100
AcDbEntity
  8
05-ダクト外線
100
AcDbLine
 10
19785.42511522387
 20
-28926.00000000001
 30
0.0
 11
19785.42511522387
 21
-29274.00000000001
 31
0.0
  0
INSERT
  5
382
330
1F
100
AcDbEntity
  8
寸法
100
AcDbBlockReference
  2
INS-DLX5I
 10
19599.125
 20
-29100.0
 30
0.0
  0
INSERT
  5
38C
330
1F
100
AcDbEntity
  8
寸法
100
AcDbBlockReference
  2
INS-D7DQV
 10
19685.425
 20
-28872.85
 30
0.0
  0
INSERT
  5
396
330
1F
100
AcDbEntity
  8
寸法
100
AcDbBlockReference
  2
INS-DSAIC
 10
19720.425
 20
-28872.2
 30
0.0
  0
INSERT
  5
39E
330
1F
100
AcDbEntity
  8
寸法
100
AcDbBlockReference
  2
INS-D93JO
 10
19755.425
 20
-28872.85
 30
0.0
  0
TEXT
  5
3A5
330
1F
100
AcDbEntity
  8
03-文字-2
100
AcDbText
 10
19397.46934599094
 20
-29410.66889336464
 30
0.0
 40
49.955
  1
ニップルφ350-0.8t
 41
0.9971562090994912
 72
     1
 11
19720.42511522171
 21
-29385.69139336464
 31
0.0
100
AcDbText
 73
     2
  0
LINE
  5
3A6
330
1F
100
AcDbEntity
  8
06-ダクト内線
  6
DASHED2
 62
    20
 48
0.2
100
AcDbLine
 10
19655.42511522387
 20
-29273.20000000001
 30
0.0
 11
19716.22511522389
 21
-29273.20000000001
 31
0.0
  0
LINE
  5
3A7
330
1F
100
AcDbEntity
  8
06-ダクト内線
  6
DASHED2
 62
    20
 48
0.2
100
AcDbLine
 10
19716.22511522389
 20
-29273.20000000001
 30
0.0
 11
19716.22511522389
 21
-29275.00000000001
 31
0.0
  0
ARC
  5
3A8
330
1F
100
AcDbEntity
  8
06-ダクト内線
  6
DASHED2
 62
    20
 48
0.2
100
AcDbCircle
 10
19720.42511522387
 20
-29275.00000000001
 30
0.0
 40
4.2
100
AcDbArc
 50
180.0
 51
0.0
  0
LINE
  5
3A9
330
1F
100
AcDbEntity
  8
06-ダクト内線
  6
DASHED2
 62
    20
 48
0.2
100
AcDbLine
 10
19724.62511522388
 20
-29273.20000000001
 30
0.0
 11
19724.62511522388
 21
-29275.00000000001
 31
0.0
  0
LINE
  5
3AA
330
1F
100
AcDbEntity
  8
06-ダクト内線
  6
DASHED2
 62
    20
 48
0.2
100
AcDbLine
 10
19724.62511522388
 20
-29273.20000000001
 30
0.0
 11
19785.42511522387
 21
-29273.20000000001
 31
0.0
  0
LINE
  5
3AB
330
1F
100
AcDbEntity
  8
06-ダクト内線
  6
DASHED2
 62
    20
 48
0.2
100
AcDbLine
 10
19655.42511522387
 20
-28926.80000000001
 30
0.0
 11
19716.22511522389
 21
-28926.80000000001
 31
0.0
  0
LINE
  5
3AC
330
1F
100
AcDbEntity
  8
06-ダクト内線
  6
DASHED2
 62
    20
 48
0.2
100
AcDbLine
 10
19716.22511522389
 20
-28925.00000000001
 30
0.0
 11
19716.22511522389
 21
-28926.80000000001
 31
0.0
  0
ARC
  5
3AD
330
1F
100
AcDbEntity
  8
06-ダクト内線
  6
DASHED2
 62
    20
 48
0.2
100
AcDbCircle
 10
19720.42511522387
 20
-28925.00000000001
 30
0.0
 40
4.2
100
AcDbArc
 50
0.0
 51
180.0
  0
LINE
  5
3AE
330
1F
100
AcDbEntity
  8
06-ダクト内線
  6
DASHED2
 62
    20
 48
0.2
100
AcDbLine
 10
19724.62511522388
 20
-28925.00000000001
 30
0.0
 11
19724.62511522388
 21
-28926.80000000001
 31
0.0
  0
LINE
  5
3AF
330
1F
100
AcDbEntity
  8
06-ダクト内線
  6
DASHED2
 62
    20
 48
0.2
100
AcDbLine
 10
19724.62511522388
 20
-28926.80000000001
 30
0.0
 11
19785.42511522387
 21
-28926.80000000001
 31
0.0
  0
LINE
  5
3B0
330
1F
100
AcDbEntity
  8
04-ダクトセンター
100
AcDbLine
 10
19655.42511522387
 20
-30100.00000000001
 30
0.0
 11
19785.42511522387
 21
-30100.00000000001
 31
0.0
  0
ARC
  5
3B1
330
1F
100
AcDbEntity
  8
05-ダクト外線
100
AcDbCircle
 10
19720.42511522387
 20
-30287.50000000001
 30
0.0
 40
5.0
100
AcDbArc
 50
180.0
 51
0.0
  0
LINE
  5
3B2
330
1F
100
AcDbEntity
  8
05-ダクト外線
100
AcDbLine
 10
19655.42511522387
 20
-30286.50000000001
 30
0.0
 11
19715.42511522387
 21
-30286.50000000001
 31
0.0
  0
LINE
  5
3B3
330
1F
100
AcDbEntity
  8
05-ダクト外線
100
AcDbLine
 10
19655.42511522387
 20
-29913.50000000001
 30
0.0
 11
19715.42511522387
 21
-29913.50000000001
 31
0.0
  0
ARC
  5
3B4
330
1F
100
AcDbEntity
  8
05-ダクト外線
100
AcDbCircle
 10
19720.42511522387
 20
-29912.50000000001
 30
0.0
 40
5.0
100
AcDbArc
 50
0.0
 51
180.0
  0
LINE
  5
3B5
330
1F
100
AcDbEntity
  8
05-ダクト外線
100
AcDbLine
 10
19715.42511522387
 20
-29912.50000000001
 30
0.0
 11
19715.42511522387
 21
-30287.50000000001
 31
0.0
  0
LINE
  5
3B6
330
1F
100
AcDbEntity
  8
05-ダクト外線
100
AcDbLine
 10
19725.42511522387
 20
-29912.50000000001
 30
0.0
 11
19725.42511522387
 21
-30287.50000000001
 31
0.0
  0
LINE
  5
3B7
330
1F
100
AcDbEntity
  8
05-ダクト外線
100
AcDbLine
 10
19725.42511522387
 20
-29913.50000000001
 30
0.0
 11
19785.42511522387
 21
-29913.50000000001
 31
0.0
  0
LINE
  5
3B8
330
1F
100
AcDbEntity
  8
05-ダクト外線
100
AcDbLine
 10
19725.42511522387
 20
-30286.50000000001
 30
0.0
 11
19785.42511522387
 21
-30286.50000000001
 31
0.0
  0
LINE
  5
3B9
330
1F
100
AcDbEntity
  8
05-ダクト外線
100
AcDbLine
 10
19655.42511522387
 20
-29913.50000000001
 30
0.0
 11
19655.42511522387
 21
-30286.50000000001
 31
0.0
  0
LINE
  5
3BA
330
1F
100
AcDbEntity
  8
05-ダクト外線
100
AcDbLine
 10
19785.42511522387
 20
-29913.50000000001
 30
0.0
 11
19785.42511522387
 21
-30286.50000000001
 31
0.0
  0
INSERT
  5
3BE
330
1F
100
AcDbEntity
  8
寸法
100
AcDbBlockReference
  2
INS-D4W31
 10
19599.125
 20
-30100.0
 30
0.0
  0
INSERT
  5
3C8
330
1F
100
AcDbEntity
  8
寸法
100
AcDbBlockReference
  2
INS-D5R72
 10
19685.425
 20
-29860.35
 30
0.0
  0
INSERT
  5
3D2
330
1F
100
AcDbEntity
  8
寸法
100
AcDbBlockReference
  2
INS-DX9M5
 10
19720.425
 20
-29859.7
 30
0.0
  0
INSERT
  5
3DA
330
1F
100
AcDbEntity
  8
寸法
100
AcDbBlockReference
  2
INS-D6RF5
 10
19755.425
 20
-29860.35
 30
0.0
  0
TEXT
  5
3E1
330
1F
100
AcDbEntity
  8
03-文字-2
100
AcDbText
 10
19393.17511522387
 20
-30423.16889336567
 30
0.0
 40
49.955
  1
ニップルφ375-0.8t
 41
0.9971562090994912
 72
     1
 11
19720.42511522387
 21
-30398.19139336567
 31
0.0
100
AcDbText
 73
     2
  0
LINE
  5
3E2
330
1F
100
AcDbEntity
  8
06-ダクト内線
  6
DASHED2
 62
    20
 48
0.2
100
AcDbLine
 10
19655.42511522387
 20
-30285.70000000001
 30
0.0
 11
19716.22511522389
 21
-30285.70000000001
 31
0.0
  0
LINE
  5
3E3
330
1F
100
AcDbEntity
  8
06-ダクト内線
  6
DASHED2
 62
    20
 48
0.2
100
AcDbLine
 10
19716.22511522389
 20
-30285.70000000001
 30
0.0
 11
19716.22511522389
 21
-30287.50000000001
 31
0.0
  0
ARC
  5
3E4
330
1F
100
AcDbEntity
  8
06-ダクト内線
  6
DASHED2
 62
    20
 48
0.2
100
AcDbCircle
 10
19720.42511522387
 20
-30287.50000000001
 30
0.0
 40
4.2
100
AcDbArc
 50
180.0
 51
0.0
  0
LINE
  5
3E5
330
1F
100
AcDbEntity
  8
06-ダクト内線
  6
DASHED2
 62
    20
 48
0.2
100
AcDbLine
 10
19724.62511522388
 20
-30285.70000000001
 30
0.0
 11
19724.62511522388
 21
-30287.50000000001
 31
0.0
  0
LINE
  5
3E6
330
1F
100
AcDbEntity
  8
06-ダクト内線
  6
DASHED2
 62
    20
 48
0.2
100
AcDbLine
 10
19724.62511522388
 20
-30285.70000000001
 30
0.0
 11
19785.42511522387
 21
-30285.70000000001
 31
0.0
  0
LINE
  5
3E7
330
1F
100
AcDbEntity
  8
06-ダクト内線
  6
DASHED2
 62
    20
 48
0.2
100
AcDbLine
 10
19655.42511522387
 20
-29914.30000000001
 30
0.0
 11
19716.22511522389
 21
-29914.30000000001
 31
0.0
  0
LINE
  5
3E8
330
1F
100
AcDbEntity
  8
06-ダクト内線
  6
DASHED2
 62
    20
 48
0.2
100
AcDbLine
 10
19716.22511522389
 20
-29912.50000000001
 30
0.0
 11
19716.22511522389
 21
-29914.30000000001
 31
0.0
  0
ARC
  5
3E9
330
1F
100
AcDbEntity
  8
06-ダクト内線
  6
DASHED2
 62
    20
 48
0.2
100
AcDbCircle
 10
19720.42511522387
 20
-29912.50000000001
 30
0.0
 40
4.2
100
AcDbArc
 50
0.0
 51
180.0
  0
LINE
  5
3EA
330
1F
100
AcDbEntity
  8
06-ダクト内線
  6
DASHED2
 62
    20
 48
0.2
100
AcDbLine
 10
19724.62511522388
 20
-29912.50000000001
 30
0.0
 11
19724.62511522388
 21
-29914.30000000001
 31
0.0
  0
LINE
  5
3EB
330
1F
100
AcDbEntity
  8
06-ダクト内線
  6
DASHED2
 62
    20
 48
0.2
100
AcDbLine
 10
19724.62511522388
 20
-29914.30000000001
 30
0.0
 11
19785.42511522387
 21
-29914.30000000001
 31
0.0
  0
LINE
  5
3EC
330
1F
100
AcDbEntity
  8
04-ダクトセンター
100
AcDbLine
 10
19655.42511522387
 20
-31100.00000000001
 30
0.0
 11
19785.42511522387
 21
-31100.00000000001
 31
0.0
  0
ARC
  5
3ED
330
1F
100
AcDbEntity
  8
05-ダクト外線
100
AcDbCircle
 10
19720.42511522387
 20
-31300.00000000001
 30
0.0
 40
5.0
100
AcDbArc
 50
180.0
 51
0.0
  0
LINE
  5
3EE
330
1F
100
AcDbEntity
  8
05-ダクト外線
100
AcDbLine
 10
19655.42511522387
 20
-31299.00000000001
 30
0.0
 11
19715.42511522387
 21
-31299.00000000001
 31
0.0
  0
LINE
  5
3EF
330
1F
100
AcDbEntity
  8
05-ダクト外線
100
AcDbLine
 10
19655.42511522387
 20
-30901.00000000001
 30
0.0
 11
19715.42511522387
 21
-30901.00000000001
 31
0.0
  0
ARC
  5
3F0
330
1F
100
AcDbEntity
  8
05-ダクト外線
100
AcDbCircle
 10
19720.42511522387
 20
-30900.00000000001
 30
0.0
 40
5.0
100
AcDbArc
 50
0.0
 51
180.0
  0
LINE
  5
3F1
330
1F
100
AcDbEntity
  8
05-ダクト外線
100
AcDbLine
 10
19715.42511522387
 20
-30900.00000000001
 30
0.0
 11
19715.42511522387
 21
-31300.00000000001
 31
0.0
  0
LINE
  5
3F2
330
1F
100
AcDbEntity
  8
05-ダクト外線
100
AcDbLine
 10
19725.42511522387
 20
-30900.00000000001
 30
0.0
 11
19725.42511522387
 21
-31300.00000000001
 31
0.0
  0
LINE
  5
3F3
330
1F
100
AcDbEntity
  8
05-ダクト外線
100
AcDbLine
 10
19725.42511522387
 20
-30901.00000000001
 30
0.0
 11
19785.42511522387
 21
-30901.00000000001
 31
0.0
  0
LINE
  5
3F4
330
1F
100
AcDbEntity
  8
05-ダクト外線
100
AcDbLine
 10
19725.42511522387
 20
-31299.00000000001
 30
0.0
 11
19785.42511522387
 21
-31299.00000000001
 31
0.0
  0
LINE
  5
3F5
330
1F
100
AcDbEntity
  8
05-ダクト外線
100
AcDbLine
 10
19655.42511522387
 20
-30901.00000000001
 30
0.0
 11
19655.42511522387
 21
-31299.00000000001
 31
0.0
  0
LINE
  5
3F6
330
1F
100
AcDbEntity
  8
05-ダクト外線
100
AcDbLine
 10
19785.42511522387
 20
-30901.00000000001
 30
0.0
 11
19785.42511522387
 21
-31299.00000000001
 31
0.0
  0
INSERT
  5
3FA
330
1F
100
AcDbEntity
  8
寸法
100
AcDbBlockReference
  2
INS-D8JC3
 10
19599.125
 20
-31100.0
 30
0.0
  0
INSERT
  5
404
330
1F
100
AcDbEntity
  8
寸法
100
AcDbBlockReference
  2
INS-DJBEG
 10
19685.425
 20
-30847.85
 30
0.0
  0
INSERT
  5
40E
330
1F
100
AcDbEntity
  8
寸法
100
AcDbBlockReference
  2
INS-D8NJ7
 10
19720.425
 20
-30847.2
 30
0.0
  0
INSERT
  5
416
330
1F
100
AcDbEntity
  8
寸法
100
AcDbBlockReference
  2
INS-D85HI
 10
19755.445
 20
-30847.85
 30
0.0
  0
TEXT
  5
41D
330
1F
100
AcDbEntity
  8
03-文字-2
100
AcDbText
 10
19401.76357676206
 20
-31435.66889337035
 30
0.0
 40
49.955
  1
ニップルφ400-0.8t
 41
0.9971562090994912
 72
     1
 11
19720.4251152236
 21
-31410.69139337035
 31
0.0
100
AcDbText
 73
     2
  0
LINE
  5
41E
330
1F
100
AcDbEntity
  8
06-ダクト内線
  6
DASHED2
 62
    20
 48
0.2
100
AcDbLine
 10
19655.42511522387
 20
-31298.20000000001
 30
0.0
 11
19716.22511522389
 21
-31298.20000000001
 31
0.0
  0
LINE
  5
41F
330
1F
100
AcDbEntity
  8
06-ダクト内線
  6
DASHED2
 62
    20
 48
0.2
100
AcDbLine
 10
19716.22511522389
 20
-31298.20000000001
 30
0.0
 11
19716.22511522389
 21
-31300.00000000001
 31
0.0
  0
ARC
  5
420
330
1F
100
AcDbEntity
  8
06-ダクト内線
  6
DASHED2
 62
    20
 48
0.2
100
AcDbCircle
 10
19720.42511522387
 20
-31300.00000000001
 30
0.0
 40
4.2
100
AcDbArc
 50
180.0
 51
0.0
  0
LINE
  5
421
330
1F
100
AcDbEntity
  8
06-ダクト内線
  6
DASHED2
 62
    20
 48
0.2
100
AcDbLine
 10
19724.62511522388
 20
-31298.20000000001
 30
0.0
 11
19724.62511522388
 21
-31300.00000000001
 31
0.0
  0
LINE
  5
422
330
1F
100
AcDbEntity
  8
06-ダクト内線
  6
DASHED2
 62
    20
 48
0.2
100
AcDbLine
 10
19724.62511522388
 20
-31298.20000000001
 30
0.0
 11
19785.42511522387
 21
-31298.20000000001
 31
0.0
  0
LINE
  5
423
330
1F
100
AcDbEntity
  8
06-ダクト内線
  6
DASHED2
 62
    20
 48
0.2
100
AcDbLine
 10
19655.42511522387
 20
-30901.80000000001
 30
0.0
 11
19716.22511522389
 21
-30901.80000000001
 31
0.0
  0
LINE
  5
424
330
1F
100
AcDbEntity
  8
06-ダクト内線
  6
DASHED2
 62
    20
 48
0.2
100
AcDbLine
 10
19716.22511522389
 20
-30900.00000000001
 30
0.0
 11
19716.22511522389
 21
-30901.80000000001
 31
0.0
  0
ARC
  5
425
330
1F
100
AcDbEntity
  8
06-ダクト内線
  6
DASHED2
 62
    20
 48
0.2
100
AcDbCircle
 10
19720.42511522387
 20
-30900.00000000001
 30
0.0
 40
4.2
100
AcDbArc
 50
0.0
 51
180.0
  0
LINE
  5
426
330
1F
100
AcDbEntity
  8
06-ダクト内線
  6
DASHED2
 62
    20
 48
0.2
100
AcDbLine
 10
19724.62511522388
 20
-30900.00000000001
 30
0.0
 11
19724.62511522388
 21
-30901.80000000001
 31
0.0
  0
LINE
  5
427
330
1F
100
AcDbEntity
  8
06-ダクト内線
  6
DASHED2
 62
    20
 48
0.2
100
AcDbLine
 10
19724.62511522388
 20
-30901.80000000001
 30
0.0
 11
19785.42511522387
 21
-30901.80000000001
 31
0.0
  0
LINE
  5
428
330
1F
100
AcDbEntity
  8
04-ダクトセンター
100
AcDbLine
 10
19615.42511522387
 20
-32200.00000000001
 30
0.0
 11
19825.42511522387
 21
-32200.00000000001
 31
0.0
  0
ARC
  5
429
330
1F
100
AcDbEntity
  8
05-ダクト外線
100
AcDbCircle
 10
19720.42511522387
 20
-32425.00000000001
 30
0.0
 40
5.0
100
AcDbArc
 50
180.0
 51
0.0
  0
LINE
  5
42A
330
1F
100
AcDbEntity
  8
05-ダクト外線
100
AcDbLine
 10
19615.42511522387
 20
-32424.00000000001
 30
0.0
 11
19715.42511522387
 21
-32424.00000000001
 31
0.0
  0
LINE
  5
42B
330
1F
100
AcDbEntity
  8
05-ダクト外線
100
AcDbLine
 10
19615.42511522387
 20
-31976.00000000001
 30
0.0
 11
19715.42511522387
 21
-31976.00000000001
 31
0.0
  0
ARC
  5
42C
330
1F
100
AcDbEntity
  8
05-ダクト外線
100
AcDbCircle
 10
19720.42511522387
 20
-31975.00000000001
 30
0.0
 40
5.0
100
AcDbArc
 50
0.0
 51
180.0
  0
LINE
  5
42D
330
1F
100
AcDbEntity
  8
05-ダクト外線
100
AcDbLine
 10
19715.42511522387
 20
-31975.00000000001
 30
0.0
 11
19715.42511522387
 21
-32425.00000000001
 31
0.0
  0
LINE
  5
42E
330
1F
100
AcDbEntity
  8
05-ダクト外線
100
AcDbLine
 10
19725.42511522387
 20
-31975.00000000001
 30
0.0
 11
19725.42511522387
 21
-32425.00000000001
 31
0.0
  0
LINE
  5
42F
330
1F
100
AcDbEntity
  8
05-ダクト外線
100
AcDbLine
 10
19725.42511522387
 20
-31976.00000000001
 30
0.0
 11
19825.42511522387
 21
-31976.00000000001
 31
0.0
  0
LINE
  5
430
330
1F
100
AcDbEntity
  8
05-ダクト外線
100
AcDbLine
 10
19725.42511522387
 20
-32424.00000000001
 30
0.0
 11
19825.42511522387
 21
-32424.00000000001
 31
0.0
  0
LINE
  5
431
330
1F
100
AcDbEntity
  8
05-ダクト外線
100
AcDbLine
 10
19615.42511522387
 20
-31976.00000000001
 30
0.0
 11
19615.42511522387
 21
-32424.00000000001
 31
0.0
  0
LINE
  5
432
330
1F
100
AcDbEntity
  8
05-ダクト外線
100
AcDbLine
 10
19825.42511522387
 20
-31976.00000000001
 30
0.0
 11
19825.42511522387
 21
-32424.00000000001
 31
0.0
  0
INSERT
  5
436
330
1F
100
AcDbEntity
  8
寸法
100
AcDbBlockReference
  2
INS-D70QF
 10
19559.125
 20
-32200.0
 30
0.0
  0
INSERT
  5
440
330
1F
100
AcDbEntity
  8
寸法
100
AcDbBlockReference
  2
INS-DXXSJ
 10
19665.425
 20
-31922.85
 30
0.0
  0
INSERT
  5
44A
330
1F
100
AcDbEntity
  8
寸法
100
AcDbBlockReference
  2
INS-DRJNF
 10
19720.425
 20
-31922.2
 30
0.0
  0
INSERT
  5
452
330
1F
100
AcDbEntity
  8
寸法
100
AcDbBlockReference
  2
INS-DQ13F
 10
19775.425
 20
-31922.85
 30
0.0
  0
TEXT
  5
459
330
1F
100
AcDbEntity
  8
03-文字-2
100
AcDbText
 10
19397.46934599272
 20
-32560.66889336874
 30
0.0
 40
49.955
  1
ニップルφ450-0.8t
 41
0.9971562090994912
 72
     1
 11
19720.42511522349
 21
-32535.69139336874
 31
0.0
100
AcDbText
 73
     2
  0
LINE
  5
45A
330
1F
100
AcDbEntity
  8
06-ダクト内線
  6
DASHED2
 62
    20
 48
0.2
100
AcDbLine
 10
19615.42511522387
 20
-32423.20000000002
 30
0.0
 11
19716.22511522389
 21
-32423.20000000002
 31
0.0
  0
LINE
  5
45B
330
1F
100
AcDbEntity
  8
06-ダクト内線
  6
DASHED2
 62
    20
 48
0.2
100
AcDbLine
 10
19716.22511522389
 20
-32423.20000000002
 30
0.0
 11
19716.22511522389
 21
-32425.00000000001
 31
0.0
  0
ARC
  5
45C
330
1F
100
AcDbEntity
  8
06-ダクト内線
  6
DASHED2
 62
    20
 48
0.2
100
AcDbCircle
 10
19720.42511522387
 20
-32425.00000000001
 30
0.0
 40
4.2
100
AcDbArc
 50
180.0
 51
0.0
  0
LINE
  5
45D
330
1F
100
AcDbEntity
  8
06-ダクト内線
  6
DASHED2
 62
    20
 48
0.2
100
AcDbLine
 10
19724.62511522388
 20
-32423.20000000002
 30
0.0
 11
19724.62511522388
 21
-32425.00000000001
 31
0.0
  0
LINE
  5
45E
330
1F
100
AcDbEntity
  8
06-ダクト内線
  6
DASHED2
 62
    20
 48
0.2
100
AcDbLine
 10
19724.62511522388
 20
-32423.20000000002
 30
0.0
 11
19825.42511522387
 21
-32423.20000000002
 31
0.0
  0
LINE
  5
45F
330
1F
100
AcDbEntity
  8
06-ダクト内線
  6
DASHED2
 62
    20
 48
0.2
100
AcDbLine
 10
19615.42511522387
 20
-31976.80000000001
 30
0.0
 11
19716.22511522389
 21
-31976.80000000001
 31
0.0
  0
LINE
  5
460
330
1F
100
AcDbEntity
  8
06-ダクト内線
  6
DASHED2
 62
    20
 48
0.2
100
AcDbLine
 10
19716.22511522389
 20
-31975.00000000001
 30
0.0
 11
19716.22511522389
 21
-31976.80000000001
 31
0.0
  0
ARC
  5
461
330
1F
100
AcDbEntity
  8
06-ダクト内線
  6
DASHED2
 62
    20
 48
0.2
100
AcDbCircle
 10
19720.42511522387
 20
-31975.00000000001
 30
0.0
 40
4.2
100
AcDbArc
 50
0.0
 51
180.0
  0
LINE
  5
462
330
1F
100
AcDbEntity
  8
06-ダクト内線
  6
DASHED2
 62
    20
 48
0.2
100
AcDbLine
 10
19724.62511522388
 20
-31975.00000000001
 30
0.0
 11
19724.62511522388
 21
-31976.80000000001
 31
0.0
  0
LINE
  5
463
330
1F
100
AcDbEntity
  8
06-ダクト内線
  6
DASHED2
 62
    20
 48
0.2
100
AcDbLine
 10
19724.62511522388
 20
-31976.80000000001
 30
0.0
 11
19825.42511522387
 21
-31976.80000000001
 31
0.0
  0
LINE
  5
464
330
1F
100
AcDbEntity
  8
04-ダクトセンター
100
AcDbLine
 10
19615.42511522387
 20
-33400.00000000001
 30
0.0
 11
19825.42511522387
 21
-33400.00000000001
 31
0.0
  0
ARC
  5
465
330
1F
100
AcDbEntity
  8
05-ダクト外線
100
AcDbCircle
 10
19720.42511522387
 20
-33650.00000000001
 30
0.0
 40
5.0
100
AcDbArc
 50
180.0
 51
0.0
  0
LINE
  5
466
330
1F
100
AcDbEntity
  8
05-ダクト外線
100
AcDbLine
 10
19615.42511522387
 20
-33649.00000000001
 30
0.0
 11
19715.42511522387
 21
-33649.00000000001
 31
0.0
  0
LINE
  5
467
330
1F
100
AcDbEntity
  8
05-ダクト外線
100
AcDbLine
 10
19615.42511522387
 20
-33151.00000000001
 30
0.0
 11
19715.42511522387
 21
-33151.00000000001
 31
0.0
  0
ARC
  5
468
330
1F
100
AcDbEntity
  8
05-ダクト外線
100
AcDbCircle
 10
19720.42511522387
 20
-33150.00000000001
 30
0.0
 40
5.0
100
AcDbArc
 50
0.0
 51
180.0
  0
LINE
  5
469
330
1F
100
AcDbEntity
  8
05-ダクト外線
100
AcDbLine
 10
19715.42511522387
 20
-33150.00000000001
 30
0.0
 11
19715.42511522387
 21
-33650.00000000001
 31
0.0
  0
LINE
  5
46A
330
1F
100
AcDbEntity
  8
05-ダクト外線
100
AcDbLine
 10
19725.42511522387
 20
-33150.00000000001
 30
0.0
 11
19725.42511522387
 21
-33650.00000000001
 31
0.0
  0
LINE
  5
46B
330
1F
100
AcDbEntity
  8
05-ダクト外線
100
AcDbLine
 10
19725.42511522387
 20
-33151.00000000001
 30
0.0
 11
19825.42511522387
 21
-33151.00000000001
 31
0.0
  0
LINE
  5
46C
330
1F
100
AcDbEntity
  8
05-ダクト外線
100
AcDbLine
 10
19725.42511522387
 20
-33649.00000000001
 30
0.0
 11
19825.42511522387
 21
-33649.00000000001
 31
0.0
  0
LINE
  5
46D
330
1F
100
AcDbEntity
  8
05-ダクト外線
100
AcDbLine
 10
19615.42511522387
 20
-33151.00000000001
 30
0.0
 11
19615.42511522387
 21
-33649.00000000001
 31
0.0
  0
LINE
  5
46E
330
1F
100
AcDbEntity
  8
05-ダクト外線
100
AcDbLine
 10
19825.42511522387
 20
-33151.00000000001
 30
0.0
 11
19825.42511522387
 21
-33649.00000000001
 31
0.0
  0
INSERT
  5
472
330
1F
100
AcDbEntity
  8
寸法
100
AcDbBlockReference
  2
INS-D5ZZ5
 10
19559.125
 20
-33400.0
 30
0.0
  0
INSERT
  5
47C
330
1F
100
AcDbEntity
  8
寸法
100
AcDbBlockReference
  2
INS-D8IRS
 10
19665.425
 20
-33097.85
 30
0.0
  0
INSERT
  5
486
330
1F
100
AcDbEntity
  8
寸法
100
AcDbBlockReference
  2
INS-DB2EL
 10
19720.425
 20
-33097.2
 30
0.0
  0
INSERT
  5
48E
330
1F
100
AcDbEntity
  8
寸法
100
AcDbBlockReference
  2
INS-DZ4BF
 10
19775.425
 20
-33097.85
 30
0.0
  0
TEXT
  5
495
330
1F
100
AcDbEntity
  8
03-文字-2
100
AcDbText
 10
19401.76357676123
 20
-33785.6688933641
 30
0.0
 40
49.955
  1
ニップルφ500-0.8t
 41
0.9971562090994912
 72
     1
 11
19720.42511522277
 21
-33760.6913933641
 31
0.0
100
AcDbText
 73
     2
  0
LINE
  5
496
330
1F
100
AcDbEntity
  8
06-ダクト内線
  6
DASHED2
 62
    20
 48
0.2
100
AcDbLine
 10
19615.42511522387
 20
-33648.20000000001
 30
0.0
 11
19716.22511522389
 21
-33648.20000000001
 31
0.0
  0
LINE
  5
497
330
1F
100
AcDbEntity
  8
06-ダクト内線
  6
DASHED2
 62
    20
 48
0.2
100
AcDbLine
 10
19716.22511522389
 20
-33648.20000000001
 30
0.0
 11
19716.22511522389
 21
-33650.00000000001
 31
0.0
  0
ARC
  5
498
330
1F
100
AcDbEntity
  8
06-ダクト内線
  6
DASHED2
 62
    20
 48
0.2
100
AcDbCircle
 10
19720.42511522387
 20
-33650.00000000001
 30
0.0
 40
4.2
100
AcDbArc
 50
180.0
 51
0.0
  0
LINE
  5
499
330
1F
100
AcDbEntity
  8
06-ダクト内線
  6
DASHED2
 62
    20
 48
0.2
100
AcDbLine
 10
19724.62511522388
 20
-33648.20000000001
 30
0.0
 11
19724.62511522388
 21
-33650.00000000001
 31
0.0
  0
LINE
  5
49A
330
1F
100
AcDbEntity
  8
06-ダクト内線
  6
DASHED2
 62
    20
 48
0.2
100
AcDbLine
 10
19724.62511522388
 20
-33648.20000000001
 30
0.0
 11
19825.42511522387
 21
-33648.20000000001
 31
0.0
  0
LINE
  5
49B
330
1F
100
AcDbEntity
  8
06-ダクト内線
  6
DASHED2
 62
    20
 48
0.2
100
AcDbLine
 10
19615.42511522387
 20
-33151.80000000002
 30
0.0
 11
19716.22511522389
 21
-33151.80000000002
 31
0.0
  0
LINE
  5
49C
330
1F
100
AcDbEntity
  8
06-ダクト内線
  6
DASHED2
 62
    20
 48
0.2
100
AcDbLine
 10
19716.22511522389
 20
-33150.00000000001
 30
0.0
 11
19716.22511522389
 21
-33151.80000000002
 31
0.0
  0
ARC
  5
49D
330
1F
100
AcDbEntity
  8
06-ダクト内線
  6
DASHED2
 62
    20
 48
0.2
100
AcDbCircle
 10
19720.42511522387
 20
-33150.00000000001
 30
0.0
 40
4.2
100
AcDbArc
 50
0.0
 51
180.0
  0
LINE
  5
49E
330
1F
100
AcDbEntity
  8
06-ダクト内線
  6
DASHED2
 62
    20
 48
0.2
100
AcDbLine
 10
19724.62511522388
 20
-33150.00000000001
 30
0.0
 11
19724.62511522388
 21
-33151.80000000002
 31
0.0
  0
LINE
  5
49F
330
1F
100
AcDbEntity
  8
06-ダクト内線
  6
DASHED2
 62
    20
 48
0.2
100
AcDbLine
 10
19724.62511522388
 20
-33151.80000000002
 30
0.0
 11
19825.42511522387
 21
-33151.80000000002
 31
0.0
  0
ENDSEC
  0
SECTION
  2
OBJECTS
  0
DICTIONARY
  5
C
330
0
100
AcDbDictionary
281
     1
  3
ACAD_GROUP
350
D
  3
ACAD_LAYOUT
350
1A
  3
ACAD_MATERIAL
350
43
  3
ACAD_MLEADERSTYLE
350
6B
  3
ACAD_MLINESTYLE
350
17
  3
ACAD_PLOTSETTINGS
350
19
  3
ACAD_PLOTSTYLENAME
350
E
  3
ACAD_SCALELIST
350
47
  3
ACAD_TABLESTYLE
350
69
  3
ACAD_VISUALSTYLE
350
2A
  3
AcDbVariableDictionary
350
4A0
  3
DWGPROPS
350
4A8
  0
DICTIONARY
  5
4A9
330
8
100
AcDbDictionary
280
     1
281
     1
  3
ACAD_XREC_ROUNDTRIP
360
4AA
  0
DICTIONARY
  5
D
102
{ACAD_REACTORS
330
C
102
}
330
C
100
AcDbDictionary
281
     1
  0
DICTIONARY
  5
1A
102
{ACAD_REACTORS
330
C
102
}
330
C
100
AcDbDictionary
281
     1
  3
Layout1
350
1E
  3
Model
350
22
  0
DICTIONARY
  5
43
102
{ACAD_REACTORS
330
C
102
}
330
C
100
AcDbDictionary
281
     1
  3
ByBlock
350
45
  3
ByLayer
350
44
  3
Global
350
46
  0
DICTIONARY
  5
6B
102
{ACAD_REACTORS
330
C
102
}
330
C
100
AcDbDictionary
281
     1
  3
Standard
350
6C
  0
DICTIONARY
  5
17
102
{ACAD_REACTORS
330
C
102
}
330
C
100
AcDbDictionary
281
     1
  3
Standard
350
18
  0
DICTIONARY
  5
19
102
{ACAD_REACTORS
330
C
102
}
330
C
100
AcDbDictionary
281
     1
  0
ACDBDICTIONARYWDFLT
  5
E
102
{ACAD_REACTORS
330
C
102
}
330
C
100
AcDbDictionary
281
     1
  3
Normal
350
F
100
AcDbDictionaryWithDefault
340
F
  0
DICTIONARY
  5
47
102
{ACAD_REACTORS
330
C
102
}
330
C
100
AcDbDictionary
281
     1
  3
A0
350
48
  3
A1
350
49
  3
A2
350
4A
  3
A3
350
4B
  3
A4
350
4C
  3
A5
350
4D
  3
A6
350
4E
  3
A7
350
4F
  3
A8
350
50
  3
A9
350
51
  3
B0
350
52
  3
B1
350
53
  3
B2
350
54
  3
B3
350
55
  3
B4
350
56
  3
B5
350
57
  3
B6
350
58
  3
B7
350
59
  3
B8
350
5A
  3
B9
350
5B
  3
C0
350
5C
  3
C1
350
5D
  3
C2
350
5E
  3
C3
350
5F
  3
C4
350
60
  3
C5
350
61
  3
C6
350
62
  3
C7
350
63
  3
C8
350
64
  3
C9
350
65
  3
D0
350
66
  3
D1
350
67
  3
D2
350
68
  0
DICTIONARY
  5
69
102
{ACAD_REACTORS
330
C
102
}
330
C
100
AcDbDictionary
281
     1
  3
Standard
350
6A
  0
DICTIONARY
  5
2A
102
{ACAD_REACTORS
330
C
102
}
330
C
100
AcDbDictionary
281
     1
  3
2dWireframe
350
2F
  3
Basic
350
32
  3
Brighten
350
36
  3
ColorChange
350
3A
  3
Conceptual
350
34
  3
Dim
350
35
  3
EdgeColorOff
350
3D
  3
Facepattern
350
39
  3
Flat
350
2B
  3
FlatWithEdges
350
2C
  3
Gouraud
350
2D
  3
GouraudWithEdges
350
2E
  3
Hidden
350
31
  3
JitterOff
350
3B
  3
Linepattern
350
38
  3
OverhangOff
350
3C
  3
Realistic
350
33
  3
Shaded
350
42
  3
Shaded with edges
350
41
  3
Shades of Gray
350
3E
  3
Sketchy
350
3F
  3
Thicken
350
37
  3
Wireframe
350
30
  3
X-Ray
350
40
  0
DICTIONARY
  5
4A0
102
{ACAD_REACTORS
330
C
102
}
330
C
100
AcDbDictionary
281
     1
  3
CANNOSCALE
350
4AB
  3
CMLEADERSTYLE
350
4A2
  3
CTABLESTYLE
350
4A1
  3
DIMASSOC
350
4A6
  3
HIDETEXT
350
4A7
  3
MSLTSCALE
350
4AC
  3
XCLIPFRAME
350
4A3
  0
XRECORD
  5
4A8
102
{ACAD_REACTORS
330
C
102
}
330
C
100
AcDbXrecord
280
     1
  1
DWGPROPS COOKIE
  2

  3

  4

  6

  7

  8
kakz194
  9

300
=
301
=
302
=
303
=
304
=
305
=
306
=
307
=
308
=
309
=
 40
0.0
 41
2460341.72494213
 42
2460341.349943924
  1

 90
        0
  0
XRECORD
  5
4AA
102
{ACAD_REACTORS
330
4A9
102
}
330
4A9
100
AcDbXrecord
280
     1
102
VTR_0.000_0.000_1.000_1.000_VISUALSTYLE
340
2F
102
VTR_0.000_0.000_1.000_1.000_GRIDDISPLAY
 70
     3
102
VTR_0.000_0.000_1.000_1.000_GRIDMAJOR
 70
     5
102
VTR_0.000_0.000_1.000_1.000_DEFAULTLIGHTING
280
     1
102
VTR_0.000_0.000_1.000_1.000_DEFAULTLIGHTINGTYPE
 70
     1
102
VTR_0.000_0.000_1.000_1.000_BRIGHTNESS
141
0.0
102
VTR_0.000_0.000_1.000_1.000_CONTRAST
142
0.0
  0
LAYOUT
  5
1E
102
{ACAD_REACTORS
330
1A
102
}
330
1A
100
AcDbPlotSettings
  1

  2
none_device
  4

  6

 40
0.0
 41
0.0
 42
0.0
 43
0.0
 44
0.0
 45
0.0
 46
0.0
 47
0.0
 48
0.0
 49
0.0
140
0.0
141
0.0
142
1.0
143
1.0
 70
   688
 72
     0
 73
     0
 74
     5
  7

 75
    16
147
1.0
148
0.0
149
0.0
100
AcDbLayout
  1
Layout1
 70
     1
 71
     1
 10
0.0
 20
0.0
 11
12.0
 21
9.0
 12
0.0
 22
0.0
 32
0.0
 14
0.0
 24
0.0
 34
0.0
 15
12.0
 25
9.0
 35
0.0
146
0.0
 13
0.0
 23
0.0
 33
0.0
 16
1.0
 26
0.0
 36
0.0
 17
0.0
 27
1.0
 37
0.0
 76
     0
330
1B
  0
LAYOUT
  5
22
102
{ACAD_REACTORS
330
1A
102
}
330
1A
100
AcDbPlotSettings
  1

  2
none_device
  4
ISO_A1_(594.00_x_841.00_MM)
  6

 40
0.0
 41
0.0
 42
0.0
 43
0.0
 44
594.0
 45
841.0
 46
0.0
 47
0.0
 48
0.0
 49
0.0
140
0.0
141
0.0
142
1.0
143
1.0
 70
  1712
 72
     1
 73
     1
 74
     0
  7

 75
    16
147
1.0
148
0.0
149
0.0
100
AcDbLayout
  1
Model
 70
     1
 71
     0
 10
0.0
 20
0.0
 11
30276.0
 21
21384.0
 12
0.0
 22
0.0
 32
0.0
 14
0.0
 24
0.0
 34
0.0
 15
25230.0
 25
17820.0
 35
0.0
146
0.0
 13
0.0
 23
0.0
 33
0.0
 16
1.0
 26
0.0
 36
0.0
 17
0.0
 27
1.0
 37
0.0
 76
     0
330
1F
331
29
  0
MATERIAL
  5
45
102
{ACAD_REACTORS
330
43
102
}
102
{ACAD_XDICTIONARY
360
4DF
102
}
330
43
100
AcDbMaterial
  1
ByBlock
  0
MATERIAL
  5
44
102
{ACAD_REACTORS
330
43
102
}
102
{ACAD_XDICTIONARY
360
4DD
102
}
330
43
100
AcDbMaterial
  1
ByLayer
  0
MATERIAL
  5
46
102
{ACAD_REACTORS
330
43
102
}
102
{ACAD_XDICTIONARY
360
4E1
102
}
330
43
100
AcDbMaterial
  1
Global
  0
MLEADERSTYLE
  5
6C
102
{ACAD_REACTORS
330
6B
102
}
102
{ACAD_XDICTIONARY
360
4E4
102
}
330
6B
100
AcDbMLeaderStyle
170
     2
171
     1
172
     0
 90
        2
 40
0.0
 41
0.0
173
     1
 91
-1056964608
340
14
 92
       -2
290
     1
 42
0.09
291
     1
 43
0.36
  3
Standard
341
0
 44
0.18
300

342
11
174
     1
178
     6
175
     1
176
     0
 93
-1056964608
 45
0.18
292
     0
297
     0
 46
0.18
343
0
 94
-1056964608
 47
1.0
 49
1.0
140
1.0
293
     1
141
0.0
294
     1
177
     0
142
1.0
295
     0
296
     0
143
0.125
1001
ACAD_MLEADERVER
1070
     2
  0
MLINESTYLE
  5
18
102
{ACAD_REACTORS
330
17
102
}
330
17
100
AcDbMlineStyle
  2
Standard
 70
     0
  3

 62
   256
 51
90.0
 52
90.0
 71
     2
 49
0.5
 62
   256
  6
BYLAYER
 49
-0.5
 62
   256
  6
BYLAYER
  0
ACDBPLACEHOLDER
  5
F
102
{ACAD_REACTORS
330
E
102
}
330
E
  0
SCALE
  5
48
102
{ACAD_REACTORS
330
47
102
}
330
47
100
AcDbScale
 70
     0
300
1:1
140
1.0
141
1.0
290
     1
  0
SCALE
  5
49
102
{ACAD_REACTORS
330
47
102
}
330
47
100
AcDbScale
 70
     0
300
1:2
140
1.0
141
2.0
290
     0
  0
SCALE
  5
4A
102
{ACAD_REACTORS
330
47
102
}
330
47
100
AcDbScale
 70
     0
300
1:4
140
1.0
141
4.0
290
     0
  0
SCALE
  5
4B
102
{ACAD_REACTORS
330
47
102
}
330
47
100
AcDbScale
 70
     0
300
1:5
140
1.0
141
5.0
290
     0
  0
SCALE
  5
4C
102
{ACAD_REACTORS
330
47
102
}
330
47
100
AcDbScale
 70
     0
300
1:8
140
1.0
141
8.0
290
     0
  0
SCALE
  5
4D
102
{ACAD_REACTORS
330
47
102
}
330
47
100
AcDbScale
 70
     0
300
1:10
140
1.0
141
10.0
290
     0
  0
SCALE
  5
4E
102
{ACAD_REACTORS
330
47
102
}
330
47
100
AcDbScale
 70
     0
300
1:16
140
1.0
141
16.0
290
     0
  0
SCALE
  5
4F
102
{ACAD_REACTORS
330
47
102
}
330
47
100
AcDbScale
 70
     0
300
1:20
140
1.0
141
20.0
290
     0
  0
SCALE
  5
50
102
{ACAD_REACTORS
330
47
102
}
330
47
100
AcDbScale
 70
     0
300
1:30
140
1.0
141
30.0
290
     0
  0
SCALE
  5
51
102
{ACAD_REACTORS
330
47
102
}
330
47
100
AcDbScale
 70
     0
300
1:40
140
1.0
141
40.0
290
     0
  0
SCALE
  5
52
102
{ACAD_REACTORS
330
47
102
}
330
47
100
AcDbScale
 70
     0
300
1:50
140
1.0
141
50.0
290
     0
  0
SCALE
  5
53
102
{ACAD_REACTORS
330
47
102
}
330
47
100
AcDbScale
 70
     0
300
1:100
140
1.0
141
100.0
290
     0
  0
SCALE
  5
54
102
{ACAD_REACTORS
330
47
102
}
330
47
100
AcDbScale
 70
     0
300
2:1
140
2.0
141
1.0
290
     0
  0
SCALE
  5
55
102
{ACAD_REACTORS
330
47
102
}
330
47
100
AcDbScale
 70
     0
300
4:1
140
4.0
141
1.0
290
     0
  0
SCALE
  5
56
102
{ACAD_REACTORS
330
47
102
}
330
47
100
AcDbScale
 70
     0
300
8:1
140
8.0
141
1.0
290
     0
  0
SCALE
  5
57
102
{ACAD_REACTORS
330
47
102
}
330
47
100
AcDbScale
 70
     0
300
10:1
140
10.0
141
1.0
290
     0
  0
SCALE
  5
58
102
{ACAD_REACTORS
330
47
102
}
330
47
100
AcDbScale
 70
     0
300
100:1
140
100.0
141
1.0
290
     0
  0
SCALE
  5
59
102
{ACAD_REACTORS
330
47
102
}
330
47
100
AcDbScale
 70
     0
300
1/128" = 1'-0"
140
0.0078125
141
12.0
290
     0
  0
SCALE
  5
5A
102
{ACAD_REACTORS
330
47
102
}
330
47
100
AcDbScale
 70
     0
300
1/64" = 1'-0"
140
0.015625
141
12.0
290
     0
  0
SCALE
  5
5B
102
{ACAD_REACTORS
330
47
102
}
330
47
100
AcDbScale
 70
     0
300
1/32" = 1'-0"
140
0.03125
141
12.0
290
     0
  0
SCALE
  5
5C
102
{ACAD_REACTORS
330
47
102
}
330
47
100
AcDbScale
 70
     0
300
1/16" = 1'-0"
140
0.0625
141
12.0
290
     0
  0
SCALE
  5
5D
102
{ACAD_REACTORS
330
47
102
}
330
47
100
AcDbScale
 70
     0
300
3/32" = 1'-0"
140
0.09375
141
12.0
290
     0
  0
SCALE
  5
5E
102
{ACAD_REACTORS
330
47
102
}
330
47
100
AcDbScale
 70
     0
300
1/8" = 1'-0"
140
0.125
141
12.0
290
     0
  0
SCALE
  5
5F
102
{ACAD_REACTORS
330
47
102
}
330
47
100
AcDbScale
 70
     0
300
3/16" = 1'-0"
140
0.1875
141
12.0
290
     0
  0
SCALE
  5
60
102
{ACAD_REACTORS
330
47
102
}
330
47
100
AcDbScale
 70
     0
300
1/4" = 1'-0"
140
0.25
141
12.0
290
     0
  0
SCALE
  5
61
102
{ACAD_REACTORS
330
47
102
}
330
47
100
AcDbScale
 70
     0
300
3/8" = 1'-0"
140
0.375
141
12.0
290
     0
  0
SCALE
  5
62
102
{ACAD_REACTORS
330
47
102
}
330
47
100
AcDbScale
 70
     0
300
1/2" = 1'-0"
140
0.5
141
12.0
290
     0
  0
SCALE
  5
63
102
{ACAD_REACTORS
330
47
102
}
330
47
100
AcDbScale
 70
     0
300
3/4" = 1'-0"
140
0.75
141
12.0
290
     0
  0
SCALE
  5
64
102
{ACAD_REACTORS
330
47
102
}
330
47
100
AcDbScale
 70
     0
300
1" = 1'-0"
140
1.0
141
12.0
290
     0
  0
SCALE
  5
65
102
{ACAD_REACTORS
330
47
102
}
330
47
100
AcDbScale
 70
     0
300
1-1/2" = 1'-0"
140
1.5
141
12.0
290
     0
  0
SCALE
  5
66
102
{ACAD_REACTORS
330
47
102
}
330
47
100
AcDbScale
 70
     0
300
3" = 1'-0"
140
3.0
141
12.0
290
     0
  0
SCALE
  5
67
102
{ACAD_REACTORS
330
47
102
}
330
47
100
AcDbScale
 70
     0
300
6" = 1'-0"
140
6.0
141
12.0
290
     0
  0
SCALE
  5
68
102
{ACAD_REACTORS
330
47
102
}
330
47
100
AcDbScale
 70
     0
300
1'-0" = 1'-0"
140
12.0
141
12.0
290
     0
  0
TABLESTYLE
  5
6A
102
{ACAD_REACTORS
330
69
102
}
330
69
100
AcDbTableStyle
  3
Standard
 70
     0
 71
     0
 40
0.06
 41
0.06
280
     0
281
     0
  7
Standard
140
0.18
170
     2
 62
     0
 63
   257
283
     0
274
    -2
284
     1
 64
     0
275
    -2
285
     1
 65
     0
276
    -2
286
     1
 66
     0
277
    -2
287
     1
 67
     0
278
    -2
288
     1
 68
     0
279
    -2
289
     1
 69
     0
  7
Standard
140
0.25
170
     5
 62
     0
 63
   257
283
     0
274
    -2
284
     1
 64
     0
275
    -2
285
     1
 65
     0
276
    -2
286
     1
 66
     0
277
    -2
287
     1
 67
     0
278
    -2
288
     1
 68
     0
279
    -2
289
     1
 69
     0
  7
Standard
140
0.18
170
     5
 62
     0
 63
   257
283
     0
274
    -2
284
     1
 64
     0
275
    -2
285
     1
 65
     0
276
    -2
286
     1
 66
     0
277
    -2
287
     1
 67
     0
278
    -2
288
     1
 68
     0
279
    -2
289
     1
 69
     0
  0
VISUALSTYLE
  5
2F
102
{ACAD_REACTORS
330
2A
102
}
102
{ACAD_XDICTIONARY
360
4B5
102
}
330
2A
100
AcDbVisualStyle
  2
2dWireframe
 70
     4
 71
     0
 72
     2
 73
     0
 90
        0
 40
0.6
 41
30.0
 62
     5
 63
     7
 74
     1
 91
        4
 64
     7
 65
   257
 75
     1
175
     1
 42
1.0
 92
        0
 66
   257
 43
1.0
 76
     1
 77
     6
 78
     2
 67
     7
 79
     5
170
     0
171
     0
290
     0
174
     0
 93
        1
 44
0.0
173
     0
291
     0
 45
0.0
1001
ACAD
1000
AcDbSavedByObjectVersion
1070
     0
  0
VISUALSTYLE
  5
32
102
{ACAD_REACTORS
330
2A
102
}
102
{ACAD_XDICTIONARY
360
4BB
102
}
330
2A
100
AcDbVisualStyle
  2
Basic
 70
     7
 71
     1
 72
     0
 73
     1
 90
        0
 40
0.6
 41
30.0
 62
     5
 63
     7
 74
     0
 91
        4
 64
     7
 65
   257
 75
     1
175
     1
 42
1.0
 92
        8
 66
     7
 43
1.0
 76
     1
 77
     6
 78
     2
 67
     7
 79
     5
170
     0
171
     0
290
     0
174
     0
 93
        1
 44
0.0
173
     0
291
     1
 45
0.0
1001
ACAD
1000
AcDbSavedByObjectVersion
1070
     0
  0
VISUALSTYLE
  5
36
102
{ACAD_REACTORS
330
2A
102
}
102
{ACAD_XDICTIONARY
360
4C3
102
}
330
2A
100
AcDbVisualStyle
  2
Brighten
 70
    12
 71
     2
 72
     2
 73
     0
 90
        0
 40
0.6
 41
30.0
 62
     5
 63
     7
 74
     1
 91
        4
 64
     7
 65
   257
 75
     1
175
     1
 42
1.0
 92
        8
 66
     7
 43
1.0
 76
     1
 77
     6
 78
     2
 67
     7
 79
     5
170
     0
171
     0
290
     0
174
     0
 93
        1
 44
50.0
173
     0
291
     1
 45
0.0
1001
ACAD
1000
AcDbSavedByObjectVersion
1070
     0
  0
VISUALSTYLE
  5
3A
102
{ACAD_REACTORS
330
2A
102
}
102
{ACAD_XDICTIONARY
360
4CB
102
}
330
2A
100
AcDbVisualStyle
  2
ColorChange
 70
    16
 71
     2
 72
     2
 73
     3
 90
        0
 40
0.6
 41
30.0
 62
     5
 63
     8
 74
     1
 91
        4
 64
     7
 65
   257
 75
     1
175
     1
 42
1.0
 92
        8
 66
     8
 43
1.0
 76
     1
 77
     6
 78
     2
 67
     7
 79
     5
170
     0
171
     0
290
     0
174
     0
 93
        1
 44
0.0
173
     0
291
     1
 45
0.0
1001
ACAD
1000
AcDbSavedByObjectVersion
1070
     0
  0
VISUALSTYLE
  5
34
102
{ACAD_REACTORS
330
2A
102
}
102
{ACAD_XDICTIONARY
360
4BF
102
}
330
2A
100
AcDbVisualStyle
  2
Conceptual
 70
     9
 71
     3
 72
     2
 73
     0
 90
        0
 40
0.6
 41
30.0
 62
     5
 63
     7
 74
     2
 91
        2
 64
     7
 65
   257
 75
     1
175
     1
 42
179.0
 92
        8
 66
     7
 43
1.0
 76
     1
 77
     6
 78
     2
 67
     7
 79
     3
170
     0
171
     0
290
     0
174
     0
 93
        1
 44
0.0
173
     0
291
     0
 45
0.0
1001
ACAD
1000
AcDbSavedByObjectVersion
1070
     0
  0
VISUALSTYLE
  5
35
102
{ACAD_REACTORS
330
2A
102
}
102
{ACAD_XDICTIONARY
360
4C1
102
}
330
2A
100
AcDbVisualStyle
  2
Dim
 70
    11
 71
     2
 72
     2
 73
     0
 90
        0
 40
0.6
 41
30.0
 62
     5
 63
     7
 74
     1
 91
        4
 64
     7
 65
   257
 75
     1
175
     1
 42
1.0
 92
        8
 66
     7
 43
1.0
 76
     1
 77
     6
 78
     2
 67
     7
 79
     5
170
     0
171
     0
290
     0
174
     0
 93
        1
 44
-50.0
173
     0
291
     1
 45
0.0
1001
ACAD
1000
AcDbSavedByObjectVersion
1070
     0
  0
VISUALSTYLE
  5
3D
102
{ACAD_REACTORS
330
2A
102
}
102
{ACAD_XDICTIONARY
360
4D1
102
}
330
2A
100
AcDbVisualStyle
  2
EdgeColorOff
 70
    22
 71
     2
 72
     2
 73
     0
 90
        0
 40
0.6
 41
30.0
 62
     5
 63
     7
 74
     1
 91
        4
 64
     7
 65
   257
 75
     1
175
     1
 42
1.0
 92
        8
 66
     7
 43
1.0
 76
     1
 77
     6
 78
     2
 67
     7
 79
     5
170
     0
171
     0
290
     0
174
     0
 93
        1
 44
0.0
173
     0
291
     1
 45
0.0
1001
ACAD
1000
AcDbSavedByObjectVersion
1070
     0
  0
VISUALSTYLE
  5
39
102
{ACAD_REACTORS
330
2A
102
}
102
{ACAD_XDICTIONARY
360
4C9
102
}
330
2A
100
AcDbVisualStyle
  2
Facepattern
 70
    15
 71
     2
 72
     2
 73
     0
 90
        0
 40
0.6
 41
30.0
 62
     5
 63
     7
 74
     1
 91
        4
 64
     7
 65
   257
 75
     1
175
     1
 42
1.0
 92
        8
 66
     7
 43
1.0
 76
     1
 77
     6
 78
     2
 67
     7
 79
     5
170
     0
171
     0
290
     0
174
     0
 93
        1
 44
0.0
173
     0
291
     1
 45
0.0
1001
ACAD
1000
AcDbSavedByObjectVersion
1070
     0
  0
VISUALSTYLE
  5
2B
102
{ACAD_REACTORS
330
2A
102
}
102
{ACAD_XDICTIONARY
360
4AD
102
}
330
2A
100
AcDbVisualStyle
  2
Flat
 70
     0
 71
     2
 72
     1
 73
     1
 90
        2
 40
0.6
 41
30.0
 62
     5
 63
     7
 74
     0
 91
        0
 64
     7
 65
   257
 75
     1
175
     1
 42
1.0
 92
        8
 66
     7
 43
1.0
 76
     1
 77
     6
 78
     2
 67
     7
 79
     5
170
     0
171
     0
290
     0
174
     0
 93
       13
 44
0.0
173
     0
291
     1
 45
0.0
1001
ACAD
1000
AcDbSavedByObjectVersion
1070
     0
  0
VISUALSTYLE
  5
2C
102
{ACAD_REACTORS
330
2A
102
}
102
{ACAD_XDICTIONARY
360
4AF
102
}
330
2A
100
AcDbVisualStyle
  2
FlatWithEdges
 70
     1
 71
     2
 72
     1
 73
     1
 90
        2
 40
0.6
 41
30.0
 62
     5
 63
     7
 74
     1
 91
        0
 64
     7
 65
   257
 75
     1
175
     1
 42
1.0
 92
        0
 66
   257
 43
1.0
 76
     1
 77
     6
 78
     2
 67
     7
 79
     5
170
     0
171
     0
290
     0
174
     0
 93
       13
 44
0.0
173
     0
291
     1
 45
0.0
1001
ACAD
1000
AcDbSavedByObjectVersion
1070
     0
  0
VISUALSTYLE
  5
2D
102
{ACAD_REACTORS
330
2A
102
}
102
{ACAD_XDICTIONARY
360
4B1
102
}
330
2A
100
AcDbVisualStyle
  2
Gouraud
 70
     2
 71
     2
 72
     2
 73
     1
 90
        2
 40
0.6
 41
30.0
 62
     5
 63
     7
 74
     0
 91
        0
 64
     7
 65
   257
 75
     1
175
     1
 42
1.0
 92
        0
 66
     7
 43
1.0
 76
     1
 77
     6
 78
     2
 67
     7
 79
     5
170
     0
171
     0
290
     0
174
     0
 93
       13
 44
0.0
173
     0
291
     1
 45
0.0
1001
ACAD
1000
AcDbSavedByObjectVersion
1070
     0
  0
VISUALSTYLE
  5
2E
102
{ACAD_REACTORS
330
2A
102
}
102
{ACAD_XDICTIONARY
360
4B3
102
}
330
2A
100
AcDbVisualStyle
  2
GouraudWithEdges
 70
     3
 71
     2
 72
     2
 73
     1
 90
        2
 40
0.6
 41
30.0
 62
     5
 63
     7
 74
     1
 91
        0
 64
     7
 65
   257
 75
     1
175
     1
 42
1.0
 92
        0
 66
   257
 43
1.0
 76
     1
 77
     6
 78
     2
 67
     7
 79
     5
170
     0
171
     0
290
     0
174
     0
 93
       13
 44
0.0
173
     0
291
     1
 45
0.0
1001
ACAD
1000
AcDbSavedByObjectVersion
1070
     0
  0
VISUALSTYLE
  5
31
102
{ACAD_REACTORS
330
2A
102
}
102
{ACAD_XDICTIONARY
360
4B9
102
}
330
2A
100
AcDbVisualStyle
  2
Hidden
 70
     6
 71
     1
 72
     2
 73
     2
 90
        0
 40
0.6
 41
30.0
 62
     5
 63
     7
 74
     2
 91
        2
 64
     7
 65
   257
 75
     2
175
     1
 42
40.0
 92
        0
 66
   257
 43
1.0
 76
     1
 77
     6
 78
     2
 67
     7
 79
     3
170
     0
171
     0
290
     0
174
     0
 93
        1
 44
0.0
173
     0
291
     0
 45
0.0
1001
ACAD
1000
AcDbSavedByObjectVersion
1070
     0
  0
VISUALSTYLE
  5
3B
102
{ACAD_REACTORS
330
2A
102
}
102
{ACAD_XDICTIONARY
360
4CD
102
}
330
2A
100
AcDbVisualStyle
  2
JitterOff
 70
    20
 71
     2
 72
     2
 73
     0
 90
        0
 40
0.6
 41
30.0
 62
     5
 63
     7
 74
     1
 91
        4
 64
     7
 65
   257
 75
     1
175
     1
 42
1.0
 92
       10
 66
     7
 43
1.0
 76
     1
 77
     6
 78
     2
 67
     7
 79
     5
170
     0
171
     0
290
     0
174
     0
 93
        1
 44
0.0
173
     0
291
     1
 45
0.0
1001
ACAD
1000
AcDbSavedByObjectVersion
1070
     0
  0
VISUALSTYLE
  5
38
102
{ACAD_REACTORS
330
2A
102
}
102
{ACAD_XDICTIONARY
360
4C7
102
}
330
2A
100
AcDbVisualStyle
  2
Linepattern
 70
    14
 71
     2
 72
     2
 73
     0
 90
        0
 40
0.6
 41
30.0
 62
     5
 63
     7
 74
     1
 91
        4
 64
     7
 65
   257
 75
     7
175
     7
 42
1.0
 92
        8
 66
     7
 43
1.0
 76
     1
 77
     6
 78
     2
 67
     7
 79
     5
170
     0
171
     0
290
     0
174
     0
 93
        1
 44
0.0
173
     0
291
     1
 45
0.0
1001
ACAD
1000
AcDbSavedByObjectVersion
1070
     0
  0
VISUALSTYLE
  5
3C
102
{ACAD_REACTORS
330
2A
102
}
102
{ACAD_XDICTIONARY
360
4CF
102
}
330
2A
100
AcDbVisualStyle
  2
OverhangOff
 70
    21
 71
     2
 72
     2
 73
     0
 90
        0
 40
0.6
 41
30.0
 62
     5
 63
     7
 74
     1
 91
        4
 64
     7
 65
   257
 75
     1
175
     1
 42
1.0
 92
        9
 66
     7
 43
1.0
 76
     1
 77
     6
 78
     2
 67
     7
 79
     5
170
     0
171
     0
290
     0
174
     0
 93
        1
 44
0.0
173
     0
291
     1
 45
0.0
1001
ACAD
1000
AcDbSavedByObjectVersion
1070
     0
  0
VISUALSTYLE
  5
33
102
{ACAD_REACTORS
330
2A
102
}
102
{ACAD_XDICTIONARY
360
4BD
102
}
330
2A
100
AcDbVisualStyle
  2
Realistic
 70
     8
 71
     2
 72
     3
 73
     0
 90
        2
 40
0.6
 41
30.0
 62
     5
 63
     7
 74
     0
 91
        0
 64
     7
 65
   257
 75
     1
175
     1
 42
1.0
 92
        8
 66
   257
 43
1.0
 76
     1
 77
     6
 78
     2
 67
     7
 79
     3
170
     0
171
     0
290
     0
174
     0
 93
       13
 44
0.0
173
     0
291
     0
 45
0.0
1001
ACAD
1000
AcDbSavedByObjectVersion
1070
     0
  0
VISUALSTYLE
  5
42
102
{ACAD_REACTORS
330
2A
102
}
102
{ACAD_XDICTIONARY
360
4DB
102
}
330
2A
100
AcDbVisualStyle
  2
Shaded
 70
    27
 71
     2
 72
     2
 73
     1
 90
        2
 40
0.6
 41
30.0
 62
     5
 63
     7
 74
     0
 91
        4
 64
     7
 65
   257
 75
     1
175
     1
 42
1.0
 92
        8
 66
   257
 43
1.0
 76
     1
 77
     6
 78
     2
 67
     8
 79
     3
170
     0
171
     0
290
     0
174
     0
 93
        5
 44
0.0
173
     0
291
     0
 45
0.0
1001
ACAD
1000
AcDbSavedByObjectVersion
1070
     0
  0
VISUALSTYLE
  5
41
102
{ACAD_REACTORS
330
2A
102
}
102
{ACAD_XDICTIONARY
360
4D9
102
}
330
2A
100
AcDbVisualStyle
  2
Shaded with edges
 70
    26
 71
     2
 72
     2
 73
     1
 90
        2
 40
0.6
 41
30.0
 62
     5
 63
     7
 74
     1
 91
       10
 64
     7
 65
   257
 75
     2
175
     1
 42
1.0
 92
        8
 66
   257
 43
1.0
 76
     1
 77
     6
 78
     2
 67
     7
 79
     3
170
     0
171
     0
290
     0
174
     0
 93
        5
 44
0.0
173
     0
291
     0
 45
0.0
1001
ACAD
1000
AcDbSavedByObjectVersion
1070
     0
  0
VISUALSTYLE
  5
3E
102
{ACAD_REACTORS
330
2A
102
}
102
{ACAD_XDICTIONARY
360
4D3
102
}
330
2A
100
AcDbVisualStyle
  2
Shades of Gray
 70
    23
 71
     2
 72
     2
 73
     3
 90
        0
 40
0.6
 41
30.0
 62
     5
 63
     7
 74
     2
 91
        2
 64
     7
 65
     7
 75
     1
175
     1
 42
40.0
 92
        8
 66
     7
 43
1.0
 76
     1
 77
     6
 78
     2
 67
     7
 79
     3
170
     0
171
     0
290
     0
174
     0
 93
        1
 44
0.0
173
     0
291
     0
 45
0.0
1001
ACAD
1000
AcDbSavedByObjectVersion
1070
     0
  0
VISUALSTYLE
  5
3F
102
{ACAD_REACTORS
330
2A
102
}
102
{ACAD_XDICTIONARY
360
4D5
102
}
330
2A
100
AcDbVisualStyle
  2
Sketchy
 70
    24
 71
     1
 72
     2
 73
     2
 90
        0
 40
0.6
 41
30.0
 62
     5
 63
     7
 74
     2
 91
        2
 64
     7
 65
     7
 75
     1
175
     1
 42
40.0
 92
       11
 66
     7
 43
1.0
 76
     1
 77
     6
 78
     2
 67
     7
 79
     6
170
     0
171
     0
290
     0
174
     0
 93
        1
 44
0.0
173
     0
291
     0
 45
0.0
1001
ACAD
1000
AcDbSavedByObjectVersion
1070
     0
  0
VISUALSTYLE
  5
37
102
{ACAD_REACTORS
330
2A
102
}
102
{ACAD_XDICTIONARY
360
4C5
102
}
330
2A
100
AcDbVisualStyle
  2
Thicken
 70
    13
 71
     2
 72
     2
 73
     0
 90
        0
 40
0.6
 41
30.0
 62
     5
 63
     7
 74
     1
 91
        4
 64
     7
 65
   257
 75
     1
175
     1
 42
1.0
 92
       12
 66
     7
 43
1.0
 76
     1
 77
     6
 78
     2
 67
     7
 79
     5
170
     0
171
     0
290
     0
174
     0
 93
        1
 44
0.0
173
     0
291
     1
 45
0.0
1001
ACAD
1000
AcDbSavedByObjectVersion
1070
     0
  0
VISUALSTYLE
  5
30
102
{ACAD_REACTORS
330
2A
102
}
102
{ACAD_XDICTIONARY
360
4B7
102
}
330
2A
100
AcDbVisualStyle
  2
Wireframe
 70
     5
 71
     0
 72
     2
 73
     0
 90
        0
 40
0.6
 41
30.0
 62
     5
 63
     7
 74
     1
 91
        4
 64
     7
 65
   257
 75
     1
175
     1
 42
1.0
 92
        0
 66
   257
 43
1.0
 76
     1
 77
     6
 78
     2
 67
     7
 79
     3
170
     0
171
     0
290
     0
174
     0
 93
        1
 44
0.0
173
     0
291
     0
 45
0.0
1001
ACAD
1000
AcDbSavedByObjectVersion
1070
     0
  0
VISUALSTYLE
  5
40
102
{ACAD_REACTORS
330
2A
102
}
102
{ACAD_XDICTIONARY
360
4D7
102
}
330
2A
100
AcDbVisualStyle
  2
X-Ray
 70
    25
 71
     2
 72
     2
 73
     1
 90
        1
 40
0.5
 41
30.0
 62
     5
 63
     7
 74
     1
 91
        0
 64
     7
 65
   257
 75
     1
175
     1
 42
1.0
 92
        8
 66
     7
 43
1.0
 76
     1
 77
     6
 78
     2
 67
     7
 79
     3
170
     0
171
     0
290
     0
174
     0
 93
       13
 44
0.0
173
     0
291
     0
 45
0.0
1001
ACAD
1000
AcDbSavedByObjectVersion
1070
     0
  0
DICTIONARYVAR
  5
4AB
102
{ACAD_REACTORS
330
4A0
102
}
330
4A0
100
DictionaryVariables
280
     0
  1
1:1
  0
DICTIONARYVAR
  5
4A2
102
{ACAD_REACTORS
330
4A0
102
}
330
4A0
100
DictionaryVariables
280
     0
  1
Standard
  0
DICTIONARYVAR
  5
4A1
102
{ACAD_REACTORS
330
4A0
102
}
330
4A0
100
DictionaryVariables
280
     0
  1
Standard
  0
DICTIONARYVAR
  5
4A6
102
{ACAD_REACTORS
330
4A0
102
}
330
4A0
100
DictionaryVariables
280
     0
  1
2
  0
DICTIONARYVAR
  5
4A7
102
{ACAD_REACTORS
330
4A0
102
}
330
4A0
100
DictionaryVariables
280
     0
  1
1
  0
DICTIONARYVAR
  5
4AC
102
{ACAD_REACTORS
330
4A0
102
}
330
4A0
100
DictionaryVariables
280
     0
  1
1
  0
DICTIONARYVAR
  5
4A3
102
{ACAD_REACTORS
330
4A0
102
}
330
4A0
100
DictionaryVariables
280
     0
  1
0
  0
DICTIONARY
  5
4DF
330
45
100
AcDbDictionary
280
     1
281
     1
  3
ACAD_XREC_ROUNDTRIP
360
4E0
  0
DICTIONARY
  5
4DD
330
44
100
AcDbDictionary
280
     1
281
     1
  3
ACAD_XREC_ROUNDTRIP
360
4DE
  0
DICTIONARY
  5
4E1
330
46
100
AcDbDictionary
280
     1
281
     1
  3
ACAD_XREC_ROUNDTRIP
360
4E2
  0
DICTIONARY
  5
4E4
330
6C
100
AcDbDictionary
280
     1
281
     1
  3
ACAD_XREC_ROUNDTRIP
360
4E5
  0
DICTIONARY
  5
4B5
330
2F
100
AcDbDictionary
280
     1
281
     1
  3
ACAD_XREC_ROUNDTRIP
360
4B6
  0
DICTIONARY
  5
4BB
330
32
100
AcDbDictionary
280
     1
281
     1
  3
ACAD_XREC_ROUNDTRIP
360
4BC
  0
DICTIONARY
  5
4C3
330
36
100
AcDbDictionary
280
     1
281
     1
  3
ACAD_XREC_ROUNDTRIP
360
4C4
  0
DICTIONARY
  5
4CB
330
3A
100
AcDbDictionary
280
     1
281
     1
  3
ACAD_XREC_ROUNDTRIP
360
4CC
  0
DICTIONARY
  5
4BF
330
34
100
AcDbDictionary
280
     1
281
     1
  3
ACAD_XREC_ROUNDTRIP
360
4C0
  0
DICTIONARY
  5
4C1
330
35
100
AcDbDictionary
280
     1
281
     1
  3
ACAD_XREC_ROUNDTRIP
360
4C2
  0
DICTIONARY
  5
4D1
330
3D
100
AcDbDictionary
280
     1
281
     1
  3
ACAD_XREC_ROUNDTRIP
360
4D2
  0
DICTIONARY
  5
4C9
330
39
100
AcDbDictionary
280
     1
281
     1
  3
ACAD_XREC_ROUNDTRIP
360
4CA
  0
DICTIONARY
  5
4AD
330
2B
100
AcDbDictionary
280
     1
281
     1
  3
ACAD_XREC_ROUNDTRIP
360
4AE
  0
DICTIONARY
  5
4AF
330
2C
100
AcDbDictionary
280
     1
281
     1
  3
ACAD_XREC_ROUNDTRIP
360
4B0
  0
DICTIONARY
  5
4B1
330
2D
100
AcDbDictionary
280
     1
281
     1
  3
ACAD_XREC_ROUNDTRIP
360
4B2
  0
DICTIONARY
  5
4B3
330
2E
100
AcDbDictionary
280
     1
281
     1
  3
ACAD_XREC_ROUNDTRIP
360
4B4
  0
DICTIONARY
  5
4B9
330
31
100
AcDbDictionary
280
     1
281
     1
  3
ACAD_XREC_ROUNDTRIP
360
4BA
  0
DICTIONARY
  5
4CD
330
3B
100
AcDbDictionary
280
     1
281
     1
  3
ACAD_XREC_ROUNDTRIP
360
4CE
  0
DICTIONARY
  5
4C7
330
38
100
AcDbDictionary
280
     1
281
     1
  3
ACAD_XREC_ROUNDTRIP
360
4C8
  0
DICTIONARY
  5
4CF
330
3C
100
AcDbDictionary
280
     1
281
     1
  3
ACAD_XREC_ROUNDTRIP
360
4D0
  0
DICTIONARY
  5
4BD
330
33
100
AcDbDictionary
280
     1
281
     1
  3
ACAD_XREC_ROUNDTRIP
360
4BE
  0
DICTIONARY
  5
4DB
330
42
100
AcDbDictionary
280
     1
281
     1
  3
ACAD_XREC_ROUNDTRIP
360
4DC
  0
DICTIONARY
  5
4D9
330
41
100
AcDbDictionary
280
     1
281
     1
  3
ACAD_XREC_ROUNDTRIP
360
4DA
  0
DICTIONARY
  5
4D3
330
3E
100
AcDbDictionary
280
     1
281
     1
  3
ACAD_XREC_ROUNDTRIP
360
4D4
  0
DICTIONARY
  5
4D5
330
3F
100
AcDbDictionary
280
     1
281
     1
  3
ACAD_XREC_ROUNDTRIP
360
4D6
  0
DICTIONARY
  5
4C5
330
37
100
AcDbDictionary
280
     1
281
     1
  3
ACAD_XREC_ROUNDTRIP
360
4C6
  0
DICTIONARY
  5
4B7
330
30
100
AcDbDictionary
280
     1
281
     1
  3
ACAD_XREC_ROUNDTRIP
360
4B8
  0
DICTIONARY
  5
4D7
330
40
100
AcDbDictionary
280
     1
281
     1
  3
ACAD_XREC_ROUNDTRIP
360
4D8
  0
XRECORD
  5
4E0
102
{ACAD_REACTORS
330
4DF
102
}
330
4DF
100
AcDbXrecord
280
     1
102
MATERIAL
148
0.0
149
0.0
149
0.0
 93
        0
 94
      127
282
     0
 72
     1
 77
     1
171
     1
175
     1
179
     1
273
     0
  0
XRECORD
  5
4DE
102
{ACAD_REACTORS
330
4DD
102
}
330
4DD
100
AcDbXrecord
280
     1
102
MATERIAL
148
0.0
149
0.0
149
0.0
 93
        0
 94
      127
282
     0
 72
     1
 77
     1
171
     1
175
     1
179
     1
273
     0
  0
XRECORD
  5
4E2
102
{ACAD_REACTORS
330
4E1
102
}
330
4E1
100
AcDbXrecord
280
     1
102
MATERIAL
148
0.0
149
0.0
149
0.0
 93
        0
 94
      127
282
     0
 72
     1
 77
     1
171
     1
175
     1
179
     1
273
     0
  0
XRECORD
  5
4E5
102
{ACAD_REACTORS
330
4E4
102
}
330
4E4
100
AcDbXrecord
280
     1
102
ACAD_ROUNDTRIP_2010_MLEADER_STYLE
  0
XRECORD
  5
4B6
102
{ACAD_REACTORS
330
4B5
102
}
330
4B5
100
AcDbXrecord
280
     1
102
RTVSPropertyOp0
 70
     1
102
RTVSPropertyOp1
 70
     1
102
RTVSPropertyOp2
 70
     1
102
RTVSPropertyOp3
 70
     1
102
RTVSPropertyOp4
 70
     1
102
RTVSPropertyOp5
 70
     1
102
RTVSPropertyOp6
 70
     1
102
RTVSPropertyOp7
 70
     1
102
RTVSPropertyOp8
 70
     1
102
RTVSPropertyOp9
 70
     1
102
RTVSPropertyOp10
 70
     1
102
RTVSPropertyOp11
 70
     1
102
RTVSPropertyOp12
 70
     1
102
RTVSPropertyOp13
 70
     1
102
RTVSPropertyOp14
 70
     1
102
RTVSPropertyOp15
 70
     1
102
RTVSPropertyOp16
 70
     1
102
RTVSPropertyOp17
 70
     1
102
RTVSPropertyOp18
 70
     1
102
RTVSPropertyOp19
 70
     1
102
RTVSPropertyOp20
 70
     1
102
RTVSPropertyOp21
 70
     1
102
RTVSPropertyOp22
 70
     1
102
RTVSPropertyOp23
 70
     1
102
RTVSPropertyOp24
 70
     1
102
RTVSPropertyOp25
 70
     1
102
RTVSPropertyOp26
 70
     1
102
RTVSPropertyOp27
 70
     1
102
RTVSPropertyOp28
 70
     1
102
RTVSPropertyOp29
 70
     1
102
RTVSPropertyOp30
 70
     1
102
RTVSPropertyOp31
 70
     1
102
RTVSPropertyOp32
 70
     1
102
RTVSPropertyOp33
 70
     1
102
RTVSPropertyOp34
 70
     1
102
RTVSPropertyOp35
 70
     1
102
RTVSPropertyOp36
 70
     1
102
RTVSPropertyOp37
 70
     1
102
RTVSPropertyOp38
 70
     1
102
RTVSPropertyOp39
 70
     1
102
RTVSPropertyOp40
 70
     1
102
RTVSPropertyOp41
 70
     1
102
RTVSPropertyOp42
 70
     1
102
RTVSPropertyOp43
 70
     1
102
RTVSPropertyOp44
 70
     1
102
RTVSPropertyOp45
 70
     1
102
RTVSPropertyOp46
 70
     1
102
RTVSPropertyOp47
 70
     1
102
RTVSPropertyOp48
 70
     1
102
RTVSPropertyOp49
 70
     1
102
RTVSPropertyOp50
 70
     1
102
RTVSPropertyOp51
 70
     0
102
RTVSPropertyOp52
 70
     0
102
RTVSPropertyOp53
 70
     1
102
RTVSPropertyOp54
 70
     1
102
RTVSPropertyOp55
 70
     1
102
RTVSPropertyOp56
 70
     1
102
RTVSPropertyOp57
 70
     1
102
RTVSPost2010Prop28
280
     1
102
RTVSPost2010PropOp28
 70
     1
102
RTVSPost2010Prop29
280
     1
102
RTVSPost2010PropOp29
 70
     1
102
RTVSPost2010Prop30
280
     0
102
RTVSPost2010PropOp30
 70
     1
102
RTVSPost2010Prop31
280
     0
102
RTVSPost2010PropOp31
 70
     1
102
RTVSPost2010Prop32
280
     0
102
RTVSPost2010PropOp32
 70
     1
102
RTVSPost2010Prop33
280
     0
102
RTVSPost2010PropOp33
 70
     1
102
RTVSPost2010Prop34
280
     0
102
RTVSPost2010PropOp34
 70
     1
102
RTVSPost2010Prop35
280
     0
102
RTVSPost2010PropOp35
 70
     1
102
RTVSPost2010Prop36
280
     0
102
RTVSPost2010PropOp36
 70
     1
102
RTVSPost2010Prop37
 90
       50
102
RTVSPost2010PropOp37
 70
     1
102
RTVSPost2010Prop38
140
0.0
102
RTVSPost2010PropOp38
 70
     1
102
RTVSPost2010Prop39
140
1.0
102
RTVSPost2010PropOp39
 70
     1
102
RTVSPost2010Prop40
 90
        0
102
RTVSPost2010PropOp40
 70
     1
102
RTVSPost2010Prop41ColorIndex
 90
       18
102
RTVSPost2010Prop41ColorRGB
 90
        0
102
RTVSPost2010PropOp41
 70
     1
102
RTVSPost2010Prop42
 90
       50
102
RTVSPost2010PropOp42
 70
     1
102
RTVSPost2010Prop43
 90
        3
102
RTVSPost2010PropOp43
 70
     1
102
RTVSPost2010Prop44ColorIndex
 90
        5
102
RTVSPost2010Prop44ColorRGB
 90
      255
102
RTVSPost2010PropOp44
 70
     1
102
RTVSPost2010Prop45
280
     0
102
RTVSPost2010PropOp45
 70
     1
102
RTVSPost2010Prop46
 90
       50
102
RTVSPost2010PropOp46
 70
     1
102
RTVSPost2010Prop47
 90
       50
102
RTVSPost2010PropOp47
 70
     1
102
RTVSPost2010Prop48
 90
       50
102
RTVSPost2010PropOp48
 70
     1
102
RTVSPost2010Prop49
280
     0
102
RTVSPost2010PropOp49
 70
     1
102
RTVSPost2010Prop50
 90
       50
102
RTVSPost2010PropOp50
 70
     1
102
RTVSPost2010Prop51ColorIndex
 90
      256
102
RTVSPost2010Prop51ColorRGB
 90
-16777216
102
RTVSPost2010PropOp51
 70
     0
102
RTVSPost2010Prop52
140
1.0
102
RTVSPost2010PropOp52
 70
     0
102
RTVSPost2010Prop53
 90
        2
102
RTVSPost2010PropOp53
 70
     1
102
RTVSPost2010Prop54
  1
strokes_ogs.tif
102
RTVSPost2010PropOp54
 70
     1
102
RTVSPost2010Prop55
280
     0
102
RTVSPost2010PropOp55
 70
     1
102
RTVSPost2010Prop56
140
1.0
102
RTVSPost2010PropOp56
 70
     1
102
RTVSPost2010Prop57
140
1.0
102
RTVSPost2010PropOp57
 70
     1
  0
XRECORD
  5
4BC
102
{ACAD_REACTORS
330
4BB
102
}
330
4BB
100
AcDbXrecord
280
     1
102
RTVSPropertyOp0
 70
     1
102
RTVSPropertyOp1
 70
     1
102
RTVSPropertyOp2
 70
     1
102
RTVSPropertyOp3
 70
     1
102
RTVSPropertyOp4
 70
     1
102
RTVSPropertyOp5
 70
     1
102
RTVSPropertyOp6
 70
     1
102
RTVSPropertyOp7
 70
     1
102
RTVSPropertyOp8
 70
     1
102
RTVSPropertyOp9
 70
     1
102
RTVSPropertyOp10
 70
     1
102
RTVSPropertyOp11
 70
     1
102
RTVSPropertyOp12
 70
     1
102
RTVSPropertyOp13
 70
     1
102
RTVSPropertyOp14
 70
     1
102
RTVSPropertyOp15
 70
     1
102
RTVSPropertyOp16
 70
     1
102
RTVSPropertyOp17
 70
     1
102
RTVSPropertyOp18
 70
     1
102
RTVSPropertyOp19
 70
     1
102
RTVSPropertyOp20
 70
     1
102
RTVSPropertyOp21
 70
     1
102
RTVSPropertyOp22
 70
     1
102
RTVSPropertyOp23
 70
     1
102
RTVSPropertyOp24
 70
     1
102
RTVSPropertyOp25
 70
     1
102
RTVSPropertyOp26
 70
     1
102
RTVSPropertyOp27
 70
     1
102
RTVSPropertyOp28
 70
     1
102
RTVSPropertyOp29
 70
     1
102
RTVSPropertyOp30
 70
     1
102
RTVSPropertyOp31
 70
     1
102
RTVSPropertyOp32
 70
     1
102
RTVSPropertyOp33
 70
     1
102
RTVSPropertyOp34
 70
     1
102
RTVSPropertyOp35
 70
     1
102
RTVSPropertyOp36
 70
     1
102
RTVSPropertyOp37
 70
     1
102
RTVSPropertyOp38
 70
     1
102
RTVSPropertyOp39
 70
     1
102
RTVSPropertyOp40
 70
     1
102
RTVSPropertyOp41
 70
     1
102
RTVSPropertyOp42
 70
     1
102
RTVSPropertyOp43
 70
     1
102
RTVSPropertyOp44
 70
     1
102
RTVSPropertyOp45
 70
     1
102
RTVSPropertyOp46
 70
     1
102
RTVSPropertyOp47
 70
     1
102
RTVSPropertyOp48
 70
     1
102
RTVSPropertyOp49
 70
     1
102
RTVSPropertyOp50
 70
     1
102
RTVSPropertyOp51
 70
     0
102
RTVSPropertyOp52
 70
     0
102
RTVSPropertyOp53
 70
     1
102
RTVSPropertyOp54
 70
     1
102
RTVSPropertyOp55
 70
     1
102
RTVSPropertyOp56
 70
     1
102
RTVSPropertyOp57
 70
     1
102
RTVSPost2010Prop28
280
     0
102
RTVSPost2010PropOp28
 70
     1
102
RTVSPost2010Prop29
280
     1
102
RTVSPost2010PropOp29
 70
     1
102
RTVSPost2010Prop30
280
     1
102
RTVSPost2010PropOp30
 70
     1
102
RTVSPost2010Prop31
280
     0
102
RTVSPost2010PropOp31
 70
     1
102
RTVSPost2010Prop32
280
     0
102
RTVSPost2010PropOp32
 70
     1
102
RTVSPost2010Prop33
280
     0
102
RTVSPost2010PropOp33
 70
     1
102
RTVSPost2010Prop34
280
     0
102
RTVSPost2010PropOp34
 70
     1
102
RTVSPost2010Prop35
280
     0
102
RTVSPost2010PropOp35
 70
     1
102
RTVSPost2010Prop36
280
     0
102
RTVSPost2010PropOp36
 70
     1
102
RTVSPost2010Prop37
 90
       50
102
RTVSPost2010PropOp37
 70
     1
102
RTVSPost2010Prop38
140
0.0
102
RTVSPost2010PropOp38
 70
     1
102
RTVSPost2010Prop39
140
1.0
102
RTVSPost2010PropOp39
 70
     1
102
RTVSPost2010Prop40
 90
        0
102
RTVSPost2010PropOp40
 70
     1
102
RTVSPost2010Prop41ColorIndex
 90
       18
102
RTVSPost2010Prop41ColorRGB
 90
        0
102
RTVSPost2010PropOp41
 70
     1
102
RTVSPost2010Prop42
 90
       50
102
RTVSPost2010PropOp42
 70
     1
102
RTVSPost2010Prop43
 90
        3
102
RTVSPost2010PropOp43
 70
     1
102
RTVSPost2010Prop44ColorIndex
 90
        5
102
RTVSPost2010Prop44ColorRGB
 90
      255
102
RTVSPost2010PropOp44
 70
     1
102
RTVSPost2010Prop45
280
     0
102
RTVSPost2010PropOp45
 70
     1
102
RTVSPost2010Prop46
 90
       50
102
RTVSPost2010PropOp46
 70
     1
102
RTVSPost2010Prop47
 90
       50
102
RTVSPost2010PropOp47
 70
     1
102
RTVSPost2010Prop48
 90
       50
102
RTVSPost2010PropOp48
 70
     1
102
RTVSPost2010Prop49
280
     0
102
RTVSPost2010PropOp49
 70
     1
102
RTVSPost2010Prop50
 90
       50
102
RTVSPost2010PropOp50
 70
     1
102
RTVSPost2010Prop51ColorIndex
 90
      256
102
RTVSPost2010Prop51ColorRGB
 90
-16777216
102
RTVSPost2010PropOp51
 70
     0
102
RTVSPost2010Prop52
140
1.0
102
RTVSPost2010PropOp52
 70
     0
102
RTVSPost2010Prop53
 90
        2
102
RTVSPost2010PropOp53
 70
     1
102
RTVSPost2010Prop54
  1
strokes_ogs.tif
102
RTVSPost2010PropOp54
 70
     1
102
RTVSPost2010Prop55
280
     0
102
RTVSPost2010PropOp55
 70
     1
102
RTVSPost2010Prop56
140
1.0
102
RTVSPost2010PropOp56
 70
     1
102
RTVSPost2010Prop57
140
1.0
102
RTVSPost2010PropOp57
 70
     1
  0
XRECORD
  5
4C4
102
{ACAD_REACTORS
330
4C3
102
}
330
4C3
100
AcDbXrecord
280
     1
102
RTVSPropertyOp0
 70
     1
102
RTVSPropertyOp1
 70
     1
102
RTVSPropertyOp2
 70
     1
102
RTVSPropertyOp3
 70
     1
102
RTVSPropertyOp4
 70
     1
102
RTVSPropertyOp5
 70
     1
102
RTVSPropertyOp6
 70
     1
102
RTVSPropertyOp7
 70
     1
102
RTVSPropertyOp8
 70
     1
102
RTVSPropertyOp9
 70
     1
102
RTVSPropertyOp10
 70
     1
102
RTVSPropertyOp11
 70
     1
102
RTVSPropertyOp12
 70
     1
102
RTVSPropertyOp13
 70
     1
102
RTVSPropertyOp14
 70
     1
102
RTVSPropertyOp15
 70
     1
102
RTVSPropertyOp16
 70
     1
102
RTVSPropertyOp17
 70
     1
102
RTVSPropertyOp18
 70
     1
102
RTVSPropertyOp19
 70
     1
102
RTVSPropertyOp20
 70
     1
102
RTVSPropertyOp21
 70
     1
102
RTVSPropertyOp22
 70
     1
102
RTVSPropertyOp23
 70
     1
102
RTVSPropertyOp24
 70
     1
102
RTVSPropertyOp25
 70
     1
102
RTVSPropertyOp26
 70
     1
102
RTVSPropertyOp27
 70
     1
102
RTVSPropertyOp28
 70
     1
102
RTVSPropertyOp29
 70
     1
102
RTVSPropertyOp30
 70
     1
102
RTVSPropertyOp31
 70
     1
102
RTVSPropertyOp32
 70
     1
102
RTVSPropertyOp33
 70
     1
102
RTVSPropertyOp34
 70
     1
102
RTVSPropertyOp35
 70
     1
102
RTVSPropertyOp36
 70
     1
102
RTVSPropertyOp37
 70
     1
102
RTVSPropertyOp38
 70
     1
102
RTVSPropertyOp39
 70
     1
102
RTVSPropertyOp40
 70
     1
102
RTVSPropertyOp41
 70
     1
102
RTVSPropertyOp42
 70
     1
102
RTVSPropertyOp43
 70
     1
102
RTVSPropertyOp44
 70
     1
102
RTVSPropertyOp45
 70
     1
102
RTVSPropertyOp46
 70
     1
102
RTVSPropertyOp47
 70
     1
102
RTVSPropertyOp48
 70
     1
102
RTVSPropertyOp49
 70
     1
102
RTVSPropertyOp50
 70
     1
102
RTVSPropertyOp51
 70
     0
102
RTVSPropertyOp52
 70
     0
102
RTVSPropertyOp53
 70
     1
102
RTVSPropertyOp54
 70
     1
102
RTVSPropertyOp55
 70
     1
102
RTVSPropertyOp56
 70
     1
102
RTVSPropertyOp57
 70
     1
102
RTVSPost2010Prop28
280
     0
102
RTVSPost2010PropOp28
 70
     1
102
RTVSPost2010Prop29
280
     1
102
RTVSPost2010PropOp29
 70
     1
102
RTVSPost2010Prop30
280
     1
102
RTVSPost2010PropOp30
 70
     1
102
RTVSPost2010Prop31
280
     0
102
RTVSPost2010PropOp31
 70
     1
102
RTVSPost2010Prop32
280
     0
102
RTVSPost2010PropOp32
 70
     1
102
RTVSPost2010Prop33
280
     0
102
RTVSPost2010PropOp33
 70
     1
102
RTVSPost2010Prop34
280
     0
102
RTVSPost2010PropOp34
 70
     1
102
RTVSPost2010Prop35
280
     0
102
RTVSPost2010PropOp35
 70
     1
102
RTVSPost2010Prop36
280
     0
102
RTVSPost2010PropOp36
 70
     1
102
RTVSPost2010Prop37
 90
       50
102
RTVSPost2010PropOp37
 70
     1
102
RTVSPost2010Prop38
140
0.0
102
RTVSPost2010PropOp38
 70
     1
102
RTVSPost2010Prop39
140
1.0
102
RTVSPost2010PropOp39
 70
     1
102
RTVSPost2010Prop40
 90
        0
102
RTVSPost2010PropOp40
 70
     1
102
RTVSPost2010Prop41ColorIndex
 90
       18
102
RTVSPost2010Prop41ColorRGB
 90
        0
102
RTVSPost2010PropOp41
 70
     1
102
RTVSPost2010Prop42
 90
       50
102
RTVSPost2010PropOp42
 70
     1
102
RTVSPost2010Prop43
 90
        3
102
RTVSPost2010PropOp43
 70
     1
102
RTVSPost2010Prop44ColorIndex
 90
        5
102
RTVSPost2010Prop44ColorRGB
 90
      255
102
RTVSPost2010PropOp44
 70
     1
102
RTVSPost2010Prop45
280
     0
102
RTVSPost2010PropOp45
 70
     1
102
RTVSPost2010Prop46
 90
       50
102
RTVSPost2010PropOp46
 70
     1
102
RTVSPost2010Prop47
 90
       50
102
RTVSPost2010PropOp47
 70
     1
102
RTVSPost2010Prop48
 90
       50
102
RTVSPost2010PropOp48
 70
     1
102
RTVSPost2010Prop49
280
     0
102
RTVSPost2010PropOp49
 70
     1
102
RTVSPost2010Prop50
 90
       50
102
RTVSPost2010PropOp50
 70
     1
102
RTVSPost2010Prop51ColorIndex
 90
      256
102
RTVSPost2010Prop51ColorRGB
 90
-16777216
102
RTVSPost2010PropOp51
 70
     0
102
RTVSPost2010Prop52
140
1.0
102
RTVSPost2010PropOp52
 70
     0
102
RTVSPost2010Prop53
 90
        2
102
RTVSPost2010PropOp53
 70
     1
102
RTVSPost2010Prop54
  1
strokes_ogs.tif
102
RTVSPost2010PropOp54
 70
     1
102
RTVSPost2010Prop55
280
     0
102
RTVSPost2010PropOp55
 70
     1
102
RTVSPost2010Prop56
140
1.0
102
RTVSPost2010PropOp56
 70
     1
102
RTVSPost2010Prop57
140
1.0
102
RTVSPost2010PropOp57
 70
     1
  0
XRECORD
  5
4CC
102
{ACAD_REACTORS
330
4CB
102
}
330
4CB
100
AcDbXrecord
280
     1
102
RTVSPropertyOp0
 70
     1
102
RTVSPropertyOp1
 70
     1
102
RTVSPropertyOp2
 70
     1
102
RTVSPropertyOp3
 70
     1
102
RTVSPropertyOp4
 70
     1
102
RTVSPropertyOp5
 70
     1
102
RTVSPropertyOp6
 70
     1
102
RTVSPropertyOp7
 70
     1
102
RTVSPropertyOp8
 70
     1
102
RTVSPropertyOp9
 70
     1
102
RTVSPropertyOp10
 70
     1
102
RTVSPropertyOp11
 70
     1
102
RTVSPropertyOp12
 70
     1
102
RTVSPropertyOp13
 70
     1
102
RTVSPropertyOp14
 70
     1
102
RTVSPropertyOp15
 70
     1
102
RTVSPropertyOp16
 70
     1
102
RTVSPropertyOp17
 70
     1
102
RTVSPropertyOp18
 70
     1
102
RTVSPropertyOp19
 70
     1
102
RTVSPropertyOp20
 70
     1
102
RTVSPropertyOp21
 70
     1
102
RTVSPropertyOp22
 70
     1
102
RTVSPropertyOp23
 70
     1
102
RTVSPropertyOp24
 70
     1
102
RTVSPropertyOp25
 70
     1
102
RTVSPropertyOp26
 70
     1
102
RTVSPropertyOp27
 70
     1
102
RTVSPropertyOp28
 70
     1
102
RTVSPropertyOp29
 70
     1
102
RTVSPropertyOp30
 70
     1
102
RTVSPropertyOp31
 70
     1
102
RTVSPropertyOp32
 70
     1
102
RTVSPropertyOp33
 70
     1
102
RTVSPropertyOp34
 70
     1
102
RTVSPropertyOp35
 70
     1
102
RTVSPropertyOp36
 70
     1
102
RTVSPropertyOp37
 70
     1
102
RTVSPropertyOp38
 70
     1
102
RTVSPropertyOp39
 70
     1
102
RTVSPropertyOp40
 70
     1
102
RTVSPropertyOp41
 70
     1
102
RTVSPropertyOp42
 70
     1
102
RTVSPropertyOp43
 70
     1
102
RTVSPropertyOp44
 70
     1
102
RTVSPropertyOp45
 70
     1
102
RTVSPropertyOp46
 70
     1
102
RTVSPropertyOp47
 70
     1
102
RTVSPropertyOp48
 70
     1
102
RTVSPropertyOp49
 70
     1
102
RTVSPropertyOp50
 70
     1
102
RTVSPropertyOp51
 70
     0
102
RTVSPropertyOp52
 70
     0
102
RTVSPropertyOp53
 70
     1
102
RTVSPropertyOp54
 70
     1
102
RTVSPropertyOp55
 70
     1
102
RTVSPropertyOp56
 70
     1
102
RTVSPropertyOp57
 70
     1
102
RTVSPost2010Prop28
280
     0
102
RTVSPost2010PropOp28
 70
     1
102
RTVSPost2010Prop29
280
     1
102
RTVSPost2010PropOp29
 70
     1
102
RTVSPost2010Prop30
280
     1
102
RTVSPost2010PropOp30
 70
     1
102
RTVSPost2010Prop31
280
     0
102
RTVSPost2010PropOp31
 70
     1
102
RTVSPost2010Prop32
280
     0
102
RTVSPost2010PropOp32
 70
     1
102
RTVSPost2010Prop33
280
     0
102
RTVSPost2010PropOp33
 70
     1
102
RTVSPost2010Prop34
280
     0
102
RTVSPost2010PropOp34
 70
     1
102
RTVSPost2010Prop35
280
     0
102
RTVSPost2010PropOp35
 70
     1
102
RTVSPost2010Prop36
280
     0
102
RTVSPost2010PropOp36
 70
     1
102
RTVSPost2010Prop37
 90
       50
102
RTVSPost2010PropOp37
 70
     1
102
RTVSPost2010Prop38
140
0.0
102
RTVSPost2010PropOp38
 70
     1
102
RTVSPost2010Prop39
140
1.0
102
RTVSPost2010PropOp39
 70
     1
102
RTVSPost2010Prop40
 90
        0
102
RTVSPost2010PropOp40
 70
     1
102
RTVSPost2010Prop41ColorIndex
 90
       18
102
RTVSPost2010Prop41ColorRGB
 90
        0
102
RTVSPost2010PropOp41
 70
     1
102
RTVSPost2010Prop42
 90
       50
102
RTVSPost2010PropOp42
 70
     1
102
RTVSPost2010Prop43
 90
        3
102
RTVSPost2010PropOp43
 70
     1
102
RTVSPost2010Prop44ColorIndex
 90
        5
102
RTVSPost2010Prop44ColorRGB
 90
      255
102
RTVSPost2010PropOp44
 70
     1
102
RTVSPost2010Prop45
280
     0
102
RTVSPost2010PropOp45
 70
     1
102
RTVSPost2010Prop46
 90
       50
102
RTVSPost2010PropOp46
 70
     1
102
RTVSPost2010Prop47
 90
       50
102
RTVSPost2010PropOp47
 70
     1
102
RTVSPost2010Prop48
 90
       50
102
RTVSPost2010PropOp48
 70
     1
102
RTVSPost2010Prop49
280
     0
102
RTVSPost2010PropOp49
 70
     1
102
RTVSPost2010Prop50
 90
       50
102
RTVSPost2010PropOp50
 70
     1
102
RTVSPost2010Prop51ColorIndex
 90
      256
102
RTVSPost2010Prop51ColorRGB
 90
-16777216
102
RTVSPost2010PropOp51
 70
     0
102
RTVSPost2010Prop52
140
1.0
102
RTVSPost2010PropOp52
 70
     0
102
RTVSPost2010Prop53
 90
        2
102
RTVSPost2010PropOp53
 70
     1
102
RTVSPost2010Prop54
  1
strokes_ogs.tif
102
RTVSPost2010PropOp54
 70
     1
102
RTVSPost2010Prop55
280
     0
102
RTVSPost2010PropOp55
 70
     1
102
RTVSPost2010Prop56
140
1.0
102
RTVSPost2010PropOp56
 70
     1
102
RTVSPost2010Prop57
140
1.0
102
RTVSPost2010PropOp57
 70
     1
  0
XRECORD
  5
4C0
102
{ACAD_REACTORS
330
4BF
102
}
330
4BF
100
AcDbXrecord
280
     1
102
RTVSPropertyOp0
 70
     1
102
RTVSPropertyOp1
 70
     1
102
RTVSPropertyOp2
 70
     1
102
RTVSPropertyOp3
 70
     1
102
RTVSPropertyOp4
 70
     1
102
RTVSPropertyOp5
 70
     1
102
RTVSPropertyOp6
 70
     1
102
RTVSPropertyOp7
 70
     1
102
RTVSPropertyOp8
 70
     1
102
RTVSPropertyOp9
 70
     1
102
RTVSPropertyOp10
 70
     1
102
RTVSPropertyOp11
 70
     1
102
RTVSPropertyOp12
 70
     1
102
RTVSPropertyOp13
 70
     1
102
RTVSPropertyOp14
 70
     1
102
RTVSPropertyOp15
 70
     1
102
RTVSPropertyOp16
 70
     1
102
RTVSPropertyOp17
 70
     1
102
RTVSPropertyOp18
 70
     1
102
RTVSPropertyOp19
 70
     1
102
RTVSPropertyOp20
 70
     1
102
RTVSPropertyOp21
 70
     1
102
RTVSPropertyOp22
 70
     1
102
RTVSPropertyOp23
 70
     1
102
RTVSPropertyOp24
 70
     1
102
RTVSPropertyOp25
 70
     1
102
RTVSPropertyOp26
 70
     1
102
RTVSPropertyOp27
 70
     1
102
RTVSPropertyOp28
 70
     1
102
RTVSPropertyOp29
 70
     1
102
RTVSPropertyOp30
 70
     1
102
RTVSPropertyOp31
 70
     1
102
RTVSPropertyOp32
 70
     1
102
RTVSPropertyOp33
 70
     1
102
RTVSPropertyOp34
 70
     1
102
RTVSPropertyOp35
 70
     1
102
RTVSPropertyOp36
 70
     1
102
RTVSPropertyOp37
 70
     1
102
RTVSPropertyOp38
 70
     1
102
RTVSPropertyOp39
 70
     1
102
RTVSPropertyOp40
 70
     1
102
RTVSPropertyOp41
 70
     1
102
RTVSPropertyOp42
 70
     1
102
RTVSPropertyOp43
 70
     1
102
RTVSPropertyOp44
 70
     1
102
RTVSPropertyOp45
 70
     1
102
RTVSPropertyOp46
 70
     1
102
RTVSPropertyOp47
 70
     1
102
RTVSPropertyOp48
 70
     1
102
RTVSPropertyOp49
 70
     1
102
RTVSPropertyOp50
 70
     1
102
RTVSPropertyOp51
 70
     0
102
RTVSPropertyOp52
 70
     0
102
RTVSPropertyOp53
 70
     1
102
RTVSPropertyOp54
 70
     1
102
RTVSPropertyOp55
 70
     1
102
RTVSPropertyOp56
 70
     1
102
RTVSPropertyOp57
 70
     1
102
RTVSPost2010Prop28
280
     0
102
RTVSPost2010PropOp28
 70
     1
102
RTVSPost2010Prop29
280
     1
102
RTVSPost2010PropOp29
 70
     1
102
RTVSPost2010Prop30
280
     1
102
RTVSPost2010PropOp30
 70
     1
102
RTVSPost2010Prop31
280
     0
102
RTVSPost2010PropOp31
 70
     1
102
RTVSPost2010Prop32
280
     0
102
RTVSPost2010PropOp32
 70
     1
102
RTVSPost2010Prop33
280
     0
102
RTVSPost2010PropOp33
 70
     1
102
RTVSPost2010Prop34
280
     0
102
RTVSPost2010PropOp34
 70
     1
102
RTVSPost2010Prop35
280
     0
102
RTVSPost2010PropOp35
 70
     1
102
RTVSPost2010Prop36
280
     0
102
RTVSPost2010PropOp36
 70
     1
102
RTVSPost2010Prop37
 90
       50
102
RTVSPost2010PropOp37
 70
     1
102
RTVSPost2010Prop38
140
0.0
102
RTVSPost2010PropOp38
 70
     1
102
RTVSPost2010Prop39
140
1.0
102
RTVSPost2010PropOp39
 70
     1
102
RTVSPost2010Prop40
 90
        0
102
RTVSPost2010PropOp40
 70
     1
102
RTVSPost2010Prop41ColorIndex
 90
       18
102
RTVSPost2010Prop41ColorRGB
 90
        0
102
RTVSPost2010PropOp41
 70
     1
102
RTVSPost2010Prop42
 90
       50
102
RTVSPost2010PropOp42
 70
     1
102
RTVSPost2010Prop43
 90
        3
102
RTVSPost2010PropOp43
 70
     1
102
RTVSPost2010Prop44ColorIndex
 90
        5
102
RTVSPost2010Prop44ColorRGB
 90
      255
102
RTVSPost2010PropOp44
 70
     1
102
RTVSPost2010Prop45
280
     0
102
RTVSPost2010PropOp45
 70
     1
102
RTVSPost2010Prop46
 90
       50
102
RTVSPost2010PropOp46
 70
     1
102
RTVSPost2010Prop47
 90
       50
102
RTVSPost2010PropOp47
 70
     1
102
RTVSPost2010Prop48
 90
       50
102
RTVSPost2010PropOp48
 70
     1
102
RTVSPost2010Prop49
280
     0
102
RTVSPost2010PropOp49
 70
     1
102
RTVSPost2010Prop50
 90
       50
102
RTVSPost2010PropOp50
 70
     1
102
RTVSPost2010Prop51ColorIndex
 90
      256
102
RTVSPost2010Prop51ColorRGB
 90
-16777216
102
RTVSPost2010PropOp51
 70
     0
102
RTVSPost2010Prop52
140
1.0
102
RTVSPost2010PropOp52
 70
     0
102
RTVSPost2010Prop53
 90
        2
102
RTVSPost2010PropOp53
 70
     1
102
RTVSPost2010Prop54
  1
strokes_ogs.tif
102
RTVSPost2010PropOp54
 70
     1
102
RTVSPost2010Prop55
280
     0
102
RTVSPost2010PropOp55
 70
     1
102
RTVSPost2010Prop56
140
1.0
102
RTVSPost2010PropOp56
 70
     1
102
RTVSPost2010Prop57
140
1.0
102
RTVSPost2010PropOp57
 70
     1
  0
XRECORD
  5
4C2
102
{ACAD_REACTORS
330
4C1
102
}
330
4C1
100
AcDbXrecord
280
     1
102
RTVSPropertyOp0
 70
     1
102
RTVSPropertyOp1
 70
     1
102
RTVSPropertyOp2
 70
     1
102
RTVSPropertyOp3
 70
     1
102
RTVSPropertyOp4
 70
     1
102
RTVSPropertyOp5
 70
     1
102
RTVSPropertyOp6
 70
     1
102
RTVSPropertyOp7
 70
     1
102
RTVSPropertyOp8
 70
     1
102
RTVSPropertyOp9
 70
     1
102
RTVSPropertyOp10
 70
     1
102
RTVSPropertyOp11
 70
     1
102
RTVSPropertyOp12
 70
     1
102
RTVSPropertyOp13
 70
     1
102
RTVSPropertyOp14
 70
     1
102
RTVSPropertyOp15
 70
     1
102
RTVSPropertyOp16
 70
     1
102
RTVSPropertyOp17
 70
     1
102
RTVSPropertyOp18
 70
     1
102
RTVSPropertyOp19
 70
     1
102
RTVSPropertyOp20
 70
     1
102
RTVSPropertyOp21
 70
     1
102
RTVSPropertyOp22
 70
     1
102
RTVSPropertyOp23
 70
     1
102
RTVSPropertyOp24
 70
     1
102
RTVSPropertyOp25
 70
     1
102
RTVSPropertyOp26
 70
     1
102
RTVSPropertyOp27
 70
     1
102
RTVSPropertyOp28
 70
     1
102
RTVSPropertyOp29
 70
     1
102
RTVSPropertyOp30
 70
     1
102
RTVSPropertyOp31
 70
     1
102
RTVSPropertyOp32
 70
     1
102
RTVSPropertyOp33
 70
     1
102
RTVSPropertyOp34
 70
     1
102
RTVSPropertyOp35
 70
     1
102
RTVSPropertyOp36
 70
     1
102
RTVSPropertyOp37
 70
     1
102
RTVSPropertyOp38
 70
     1
102
RTVSPropertyOp39
 70
     1
102
RTVSPropertyOp40
 70
     1
102
RTVSPropertyOp41
 70
     1
102
RTVSPropertyOp42
 70
     1
102
RTVSPropertyOp43
 70
     1
102
RTVSPropertyOp44
 70
     1
102
RTVSPropertyOp45
 70
     1
102
RTVSPropertyOp46
 70
     1
102
RTVSPropertyOp47
 70
     1
102
RTVSPropertyOp48
 70
     1
102
RTVSPropertyOp49
 70
     1
102
RTVSPropertyOp50
 70
     1
102
RTVSPropertyOp51
 70
     0
102
RTVSPropertyOp52
 70
     0
102
RTVSPropertyOp53
 70
     1
102
RTVSPropertyOp54
 70
     1
102
RTVSPropertyOp55
 70
     1
102
RTVSPropertyOp56
 70
     1
102
RTVSPropertyOp57
 70
     1
102
RTVSPost2010Prop28
280
     0
102
RTVSPost2010PropOp28
 70
     1
102
RTVSPost2010Prop29
280
     1
102
RTVSPost2010PropOp29
 70
     1
102
RTVSPost2010Prop30
280
     1
102
RTVSPost2010PropOp30
 70
     1
102
RTVSPost2010Prop31
280
     0
102
RTVSPost2010PropOp31
 70
     1
102
RTVSPost2010Prop32
280
     0
102
RTVSPost2010PropOp32
 70
     1
102
RTVSPost2010Prop33
280
     0
102
RTVSPost2010PropOp33
 70
     1
102
RTVSPost2010Prop34
280
     0
102
RTVSPost2010PropOp34
 70
     1
102
RTVSPost2010Prop35
280
     0
102
RTVSPost2010PropOp35
 70
     1
102
RTVSPost2010Prop36
280
     0
102
RTVSPost2010PropOp36
 70
     1
102
RTVSPost2010Prop37
 90
       50
102
RTVSPost2010PropOp37
 70
     1
102
RTVSPost2010Prop38
140
0.0
102
RTVSPost2010PropOp38
 70
     1
102
RTVSPost2010Prop39
140
1.0
102
RTVSPost2010PropOp39
 70
     1
102
RTVSPost2010Prop40
 90
        0
102
RTVSPost2010PropOp40
 70
     1
102
RTVSPost2010Prop41ColorIndex
 90
       18
102
RTVSPost2010Prop41ColorRGB
 90
        0
102
RTVSPost2010PropOp41
 70
     1
102
RTVSPost2010Prop42
 90
       50
102
RTVSPost2010PropOp42
 70
     1
102
RTVSPost2010Prop43
 90
        3
102
RTVSPost2010PropOp43
 70
     1
102
RTVSPost2010Prop44ColorIndex
 90
        5
102
RTVSPost2010Prop44ColorRGB
 90
      255
102
RTVSPost2010PropOp44
 70
     1
102
RTVSPost2010Prop45
280
     0
102
RTVSPost2010PropOp45
 70
     1
102
RTVSPost2010Prop46
 90
       50
102
RTVSPost2010PropOp46
 70
     1
102
RTVSPost2010Prop47
 90
       50
102
RTVSPost2010PropOp47
 70
     1
102
RTVSPost2010Prop48
 90
       50
102
RTVSPost2010PropOp48
 70
     1
102
RTVSPost2010Prop49
280
     0
102
RTVSPost2010PropOp49
 70
     1
102
RTVSPost2010Prop50
 90
       50
102
RTVSPost2010PropOp50
 70
     1
102
RTVSPost2010Prop51ColorIndex
 90
      256
102
RTVSPost2010Prop51ColorRGB
 90
-16777216
102
RTVSPost2010PropOp51
 70
     0
102
RTVSPost2010Prop52
140
1.0
102
RTVSPost2010PropOp52
 70
     0
102
RTVSPost2010Prop53
 90
        2
102
RTVSPost2010PropOp53
 70
     1
102
RTVSPost2010Prop54
  1
strokes_ogs.tif
102
RTVSPost2010PropOp54
 70
     1
102
RTVSPost2010Prop55
280
     0
102
RTVSPost2010PropOp55
 70
     1
102
RTVSPost2010Prop56
140
1.0
102
RTVSPost2010PropOp56
 70
     1
102
RTVSPost2010Prop57
140
1.0
102
RTVSPost2010PropOp57
 70
     1
  0
XRECORD
  5
4D2
102
{ACAD_REACTORS
330
4D1
102
}
330
4D1
100
AcDbXrecord
280
     1
102
RTVSPropertyOp0
 70
     0
102
RTVSPropertyOp1
 70
     0
102
RTVSPropertyOp2
 70
     0
102
RTVSPropertyOp3
 70
     0
102
RTVSPropertyOp4
 70
     0
102
RTVSPropertyOp5
 70
     0
102
RTVSPropertyOp6
 70
     0
102
RTVSPropertyOp7
 70
     0
102
RTVSPropertyOp8
 70
     0
102
RTVSPropertyOp9
 70
     0
102
RTVSPropertyOp10
 70
     0
102
RTVSPropertyOp11
 70
     0
102
RTVSPropertyOp12
 70
     0
102
RTVSPropertyOp13
 70
     0
102
RTVSPropertyOp14
 70
     2
102
RTVSPropertyOp15
 70
     0
102
RTVSPropertyOp16
 70
     0
102
RTVSPropertyOp17
 70
     0
102
RTVSPropertyOp18
 70
     0
102
RTVSPropertyOp19
 70
     0
102
RTVSPropertyOp20
 70
     0
102
RTVSPropertyOp21
 70
     0
102
RTVSPropertyOp22
 70
     0
102
RTVSPropertyOp23
 70
     0
102
RTVSPropertyOp24
 70
     0
102
RTVSPropertyOp25
 70
     0
102
RTVSPropertyOp26
 70
     0
102
RTVSPropertyOp27
 70
     0
102
RTVSPropertyOp28
 70
     0
102
RTVSPropertyOp29
 70
     0
102
RTVSPropertyOp30
 70
     0
102
RTVSPropertyOp31
 70
     0
102
RTVSPropertyOp32
 70
     0
102
RTVSPropertyOp33
 70
     0
102
RTVSPropertyOp34
 70
     0
102
RTVSPropertyOp35
 70
     0
102
RTVSPropertyOp36
 70
     0
102
RTVSPropertyOp37
 70
     0
102
RTVSPropertyOp38
 70
     0
102
RTVSPropertyOp39
 70
     0
102
RTVSPropertyOp40
 70
     0
102
RTVSPropertyOp41
 70
     0
102
RTVSPropertyOp42
 70
     0
102
RTVSPropertyOp43
 70
     0
102
RTVSPropertyOp44
 70
     0
102
RTVSPropertyOp45
 70
     0
102
RTVSPropertyOp46
 70
     0
102
RTVSPropertyOp47
 70
     0
102
RTVSPropertyOp48
 70
     0
102
RTVSPropertyOp49
 70
     0
102
RTVSPropertyOp50
 70
     0
102
RTVSPropertyOp51
 70
     0
102
RTVSPropertyOp52
 70
     0
102
RTVSPropertyOp53
 70
     0
102
RTVSPropertyOp54
 70
     0
102
RTVSPropertyOp55
 70
     0
102
RTVSPropertyOp56
 70
     0
102
RTVSPropertyOp57
 70
     0
102
RTVSPost2010Prop28
280
     0
102
RTVSPost2010PropOp28
 70
     0
102
RTVSPost2010Prop29
280
     1
102
RTVSPost2010PropOp29
 70
     0
102
RTVSPost2010Prop30
280
     1
102
RTVSPost2010PropOp30
 70
     0
102
RTVSPost2010Prop31
280
     0
102
RTVSPost2010PropOp31
 70
     0
102
RTVSPost2010Prop32
280
     0
102
RTVSPost2010PropOp32
 70
     0
102
RTVSPost2010Prop33
280
     0
102
RTVSPost2010PropOp33
 70
     0
102
RTVSPost2010Prop34
280
     0
102
RTVSPost2010PropOp34
 70
     0
102
RTVSPost2010Prop35
280
     0
102
RTVSPost2010PropOp35
 70
     0
102
RTVSPost2010Prop36
280
     0
102
RTVSPost2010PropOp36
 70
     0
102
RTVSPost2010Prop37
 90
       50
102
RTVSPost2010PropOp37
 70
     0
102
RTVSPost2010Prop38
140
0.0
102
RTVSPost2010PropOp38
 70
     0
102
RTVSPost2010Prop39
140
1.0
102
RTVSPost2010PropOp39
 70
     0
102
RTVSPost2010Prop40
 90
        0
102
RTVSPost2010PropOp40
 70
     0
102
RTVSPost2010Prop41ColorIndex
 90
       18
102
RTVSPost2010Prop41ColorRGB
 90
        0
102
RTVSPost2010PropOp41
 70
     0
102
RTVSPost2010Prop42
 90
       50
102
RTVSPost2010PropOp42
 70
     0
102
RTVSPost2010Prop43
 90
        3
102
RTVSPost2010PropOp43
 70
     0
102
RTVSPost2010Prop44ColorIndex
 90
        5
102
RTVSPost2010Prop44ColorRGB
 90
      255
102
RTVSPost2010PropOp44
 70
     0
102
RTVSPost2010Prop45
280
     0
102
RTVSPost2010PropOp45
 70
     0
102
RTVSPost2010Prop46
 90
       50
102
RTVSPost2010PropOp46
 70
     0
102
RTVSPost2010Prop47
 90
       50
102
RTVSPost2010PropOp47
 70
     0
102
RTVSPost2010Prop48
 90
       50
102
RTVSPost2010PropOp48
 70
     0
102
RTVSPost2010Prop49
280
     0
102
RTVSPost2010PropOp49
 70
     0
102
RTVSPost2010Prop50
 90
       50
102
RTVSPost2010PropOp50
 70
     0
102
RTVSPost2010Prop51ColorIndex
 90
      256
102
RTVSPost2010Prop51ColorRGB
 90
-16777216
102
RTVSPost2010PropOp51
 70
     0
102
RTVSPost2010Prop52
140
1.0
102
RTVSPost2010PropOp52
 70
     0
102
RTVSPost2010Prop53
 90
        2
102
RTVSPost2010PropOp53
 70
     0
102
RTVSPost2010Prop54
  1
strokes_ogs.tif
102
RTVSPost2010PropOp54
 70
     0
102
RTVSPost2010Prop55
280
     0
102
RTVSPost2010PropOp55
 70
     0
102
RTVSPost2010Prop56
140
1.0
102
RTVSPost2010PropOp56
 70
     0
102
RTVSPost2010Prop57
140
1.0
102
RTVSPost2010PropOp57
 70
     0
  0
XRECORD
  5
4CA
102
{ACAD_REACTORS
330
4C9
102
}
330
4C9
100
AcDbXrecord
280
     1
102
RTVSPropertyOp0
 70
     1
102
RTVSPropertyOp1
 70
     1
102
RTVSPropertyOp2
 70
     1
102
RTVSPropertyOp3
 70
     1
102
RTVSPropertyOp4
 70
     1
102
RTVSPropertyOp5
 70
     1
102
RTVSPropertyOp6
 70
     1
102
RTVSPropertyOp7
 70
     1
102
RTVSPropertyOp8
 70
     1
102
RTVSPropertyOp9
 70
     1
102
RTVSPropertyOp10
 70
     1
102
RTVSPropertyOp11
 70
     1
102
RTVSPropertyOp12
 70
     1
102
RTVSPropertyOp13
 70
     1
102
RTVSPropertyOp14
 70
     1
102
RTVSPropertyOp15
 70
     1
102
RTVSPropertyOp16
 70
     1
102
RTVSPropertyOp17
 70
     1
102
RTVSPropertyOp18
 70
     1
102
RTVSPropertyOp19
 70
     1
102
RTVSPropertyOp20
 70
     1
102
RTVSPropertyOp21
 70
     1
102
RTVSPropertyOp22
 70
     1
102
RTVSPropertyOp23
 70
     1
102
RTVSPropertyOp24
 70
     1
102
RTVSPropertyOp25
 70
     1
102
RTVSPropertyOp26
 70
     1
102
RTVSPropertyOp27
 70
     1
102
RTVSPropertyOp28
 70
     1
102
RTVSPropertyOp29
 70
     1
102
RTVSPropertyOp30
 70
     1
102
RTVSPropertyOp31
 70
     1
102
RTVSPropertyOp32
 70
     1
102
RTVSPropertyOp33
 70
     1
102
RTVSPropertyOp34
 70
     1
102
RTVSPropertyOp35
 70
     1
102
RTVSPropertyOp36
 70
     1
102
RTVSPropertyOp37
 70
     1
102
RTVSPropertyOp38
 70
     1
102
RTVSPropertyOp39
 70
     1
102
RTVSPropertyOp40
 70
     1
102
RTVSPropertyOp41
 70
     1
102
RTVSPropertyOp42
 70
     1
102
RTVSPropertyOp43
 70
     1
102
RTVSPropertyOp44
 70
     1
102
RTVSPropertyOp45
 70
     1
102
RTVSPropertyOp46
 70
     1
102
RTVSPropertyOp47
 70
     1
102
RTVSPropertyOp48
 70
     1
102
RTVSPropertyOp49
 70
     1
102
RTVSPropertyOp50
 70
     1
102
RTVSPropertyOp51
 70
     0
102
RTVSPropertyOp52
 70
     0
102
RTVSPropertyOp53
 70
     1
102
RTVSPropertyOp54
 70
     1
102
RTVSPropertyOp55
 70
     1
102
RTVSPropertyOp56
 70
     1
102
RTVSPropertyOp57
 70
     1
102
RTVSPost2010Prop28
280
     0
102
RTVSPost2010PropOp28
 70
     1
102
RTVSPost2010Prop29
280
     1
102
RTVSPost2010PropOp29
 70
     1
102
RTVSPost2010Prop30
280
     1
102
RTVSPost2010PropOp30
 70
     1
102
RTVSPost2010Prop31
280
     0
102
RTVSPost2010PropOp31
 70
     1
102
RTVSPost2010Prop32
280
     0
102
RTVSPost2010PropOp32
 70
     1
102
RTVSPost2010Prop33
280
     0
102
RTVSPost2010PropOp33
 70
     1
102
RTVSPost2010Prop34
280
     0
102
RTVSPost2010PropOp34
 70
     1
102
RTVSPost2010Prop35
280
     0
102
RTVSPost2010PropOp35
 70
     1
102
RTVSPost2010Prop36
280
     0
102
RTVSPost2010PropOp36
 70
     1
102
RTVSPost2010Prop37
 90
       50
102
RTVSPost2010PropOp37
 70
     1
102
RTVSPost2010Prop38
140
0.0
102
RTVSPost2010PropOp38
 70
     1
102
RTVSPost2010Prop39
140
1.0
102
RTVSPost2010PropOp39
 70
     1
102
RTVSPost2010Prop40
 90
        0
102
RTVSPost2010PropOp40
 70
     1
102
RTVSPost2010Prop41ColorIndex
 90
       18
102
RTVSPost2010Prop41ColorRGB
 90
        0
102
RTVSPost2010PropOp41
 70
     1
102
RTVSPost2010Prop42
 90
       50
102
RTVSPost2010PropOp42
 70
     1
102
RTVSPost2010Prop43
 90
        3
102
RTVSPost2010PropOp43
 70
     1
102
RTVSPost2010Prop44ColorIndex
 90
        5
102
RTVSPost2010Prop44ColorRGB
 90
      255
102
RTVSPost2010PropOp44
 70
     1
102
RTVSPost2010Prop45
280
     0
102
RTVSPost2010PropOp45
 70
     1
102
RTVSPost2010Prop46
 90
       50
102
RTVSPost2010PropOp46
 70
     1
102
RTVSPost2010Prop47
 90
       50
102
RTVSPost2010PropOp47
 70
     1
102
RTVSPost2010Prop48
 90
       50
102
RTVSPost2010PropOp48
 70
     1
102
RTVSPost2010Prop49
280
     0
102
RTVSPost2010PropOp49
 70
     1
102
RTVSPost2010Prop50
 90
       50
102
RTVSPost2010PropOp50
 70
     1
102
RTVSPost2010Prop51ColorIndex
 90
      256
102
RTVSPost2010Prop51ColorRGB
 90
-16777216
102
RTVSPost2010PropOp51
 70
     0
102
RTVSPost2010Prop52
140
1.0
102
RTVSPost2010PropOp52
 70
     0
102
RTVSPost2010Prop53
 90
        2
102
RTVSPost2010PropOp53
 70
     1
102
RTVSPost2010Prop54
  1
strokes_ogs.tif
102
RTVSPost2010PropOp54
 70
     1
102
RTVSPost2010Prop55
280
     0
102
RTVSPost2010PropOp55
 70
     1
102
RTVSPost2010Prop56
140
1.0
102
RTVSPost2010PropOp56
 70
     1
102
RTVSPost2010Prop57
140
1.0
102
RTVSPost2010PropOp57
 70
     1
  0
XRECORD
  5
4AE
102
{ACAD_REACTORS
330
4AD
102
}
330
4AD
100
AcDbXrecord
280
     1
102
RTVSPropertyOp0
 70
     1
102
RTVSPropertyOp1
 70
     1
102
RTVSPropertyOp2
 70
     1
102
RTVSPropertyOp3
 70
     1
102
RTVSPropertyOp4
 70
     1
102
RTVSPropertyOp5
 70
     1
102
RTVSPropertyOp6
 70
     1
102
RTVSPropertyOp7
 70
     1
102
RTVSPropertyOp8
 70
     1
102
RTVSPropertyOp9
 70
     1
102
RTVSPropertyOp10
 70
     1
102
RTVSPropertyOp11
 70
     1
102
RTVSPropertyOp12
 70
     1
102
RTVSPropertyOp13
 70
     1
102
RTVSPropertyOp14
 70
     1
102
RTVSPropertyOp15
 70
     1
102
RTVSPropertyOp16
 70
     1
102
RTVSPropertyOp17
 70
     1
102
RTVSPropertyOp18
 70
     1
102
RTVSPropertyOp19
 70
     1
102
RTVSPropertyOp20
 70
     1
102
RTVSPropertyOp21
 70
     1
102
RTVSPropertyOp22
 70
     1
102
RTVSPropertyOp23
 70
     1
102
RTVSPropertyOp24
 70
     1
102
RTVSPropertyOp25
 70
     1
102
RTVSPropertyOp26
 70
     1
102
RTVSPropertyOp27
 70
     1
102
RTVSPropertyOp28
 70
     1
102
RTVSPropertyOp29
 70
     1
102
RTVSPropertyOp30
 70
     1
102
RTVSPropertyOp31
 70
     1
102
RTVSPropertyOp32
 70
     1
102
RTVSPropertyOp33
 70
     1
102
RTVSPropertyOp34
 70
     1
102
RTVSPropertyOp35
 70
     1
102
RTVSPropertyOp36
 70
     1
102
RTVSPropertyOp37
 70
     1
102
RTVSPropertyOp38
 70
     1
102
RTVSPropertyOp39
 70
     1
102
RTVSPropertyOp40
 70
     1
102
RTVSPropertyOp41
 70
     1
102
RTVSPropertyOp42
 70
     1
102
RTVSPropertyOp43
 70
     1
102
RTVSPropertyOp44
 70
     1
102
RTVSPropertyOp45
 70
     1
102
RTVSPropertyOp46
 70
     1
102
RTVSPropertyOp47
 70
     1
102
RTVSPropertyOp48
 70
     1
102
RTVSPropertyOp49
 70
     1
102
RTVSPropertyOp50
 70
     1
102
RTVSPropertyOp51
 70
     0
102
RTVSPropertyOp52
 70
     0
102
RTVSPropertyOp53
 70
     1
102
RTVSPropertyOp54
 70
     1
102
RTVSPropertyOp55
 70
     1
102
RTVSPropertyOp56
 70
     1
102
RTVSPropertyOp57
 70
     1
102
RTVSPost2010Prop28
280
     0
102
RTVSPost2010PropOp28
 70
     1
102
RTVSPost2010Prop29
280
     1
102
RTVSPost2010PropOp29
 70
     1
102
RTVSPost2010Prop30
280
     1
102
RTVSPost2010PropOp30
 70
     1
102
RTVSPost2010Prop31
280
     0
102
RTVSPost2010PropOp31
 70
     1
102
RTVSPost2010Prop32
280
     0
102
RTVSPost2010PropOp32
 70
     1
102
RTVSPost2010Prop33
280
     0
102
RTVSPost2010PropOp33
 70
     1
102
RTVSPost2010Prop34
280
     0
102
RTVSPost2010PropOp34
 70
     1
102
RTVSPost2010Prop35
280
     0
102
RTVSPost2010PropOp35
 70
     1
102
RTVSPost2010Prop36
280
     0
102
RTVSPost2010PropOp36
 70
     1
102
RTVSPost2010Prop37
 90
       50
102
RTVSPost2010PropOp37
 70
     1
102
RTVSPost2010Prop38
140
0.0
102
RTVSPost2010PropOp38
 70
     1
102
RTVSPost2010Prop39
140
1.0
102
RTVSPost2010PropOp39
 70
     1
102
RTVSPost2010Prop40
 90
        0
102
RTVSPost2010PropOp40
 70
     1
102
RTVSPost2010Prop41ColorIndex
 90
       18
102
RTVSPost2010Prop41ColorRGB
 90
        0
102
RTVSPost2010PropOp41
 70
     1
102
RTVSPost2010Prop42
 90
       50
102
RTVSPost2010PropOp42
 70
     1
102
RTVSPost2010Prop43
 90
        3
102
RTVSPost2010PropOp43
 70
     1
102
RTVSPost2010Prop44ColorIndex
 90
        5
102
RTVSPost2010Prop44ColorRGB
 90
      255
102
RTVSPost2010PropOp44
 70
     1
102
RTVSPost2010Prop45
280
     0
102
RTVSPost2010PropOp45
 70
     1
102
RTVSPost2010Prop46
 90
       50
102
RTVSPost2010PropOp46
 70
     1
102
RTVSPost2010Prop47
 90
       50
102
RTVSPost2010PropOp47
 70
     1
102
RTVSPost2010Prop48
 90
       50
102
RTVSPost2010PropOp48
 70
     1
102
RTVSPost2010Prop49
280
     0
102
RTVSPost2010PropOp49
 70
     1
102
RTVSPost2010Prop50
 90
       50
102
RTVSPost2010PropOp50
 70
     1
102
RTVSPost2010Prop51ColorIndex
 90
      256
102
RTVSPost2010Prop51ColorRGB
 90
-16777216
102
RTVSPost2010PropOp51
 70
     0
102
RTVSPost2010Prop52
140
1.0
102
RTVSPost2010PropOp52
 70
     0
102
RTVSPost2010Prop53
 90
        2
102
RTVSPost2010PropOp53
 70
     1
102
RTVSPost2010Prop54
  1
strokes_ogs.tif
102
RTVSPost2010PropOp54
 70
     1
102
RTVSPost2010Prop55
280
     0
102
RTVSPost2010PropOp55
 70
     1
102
RTVSPost2010Prop56
140
1.0
102
RTVSPost2010PropOp56
 70
     1
102
RTVSPost2010Prop57
140
1.0
102
RTVSPost2010PropOp57
 70
     1
  0
XRECORD
  5
4B0
102
{ACAD_REACTORS
330
4AF
102
}
330
4AF
100
AcDbXrecord
280
     1
102
RTVSPropertyOp0
 70
     1
102
RTVSPropertyOp1
 70
     1
102
RTVSPropertyOp2
 70
     1
102
RTVSPropertyOp3
 70
     1
102
RTVSPropertyOp4
 70
     1
102
RTVSPropertyOp5
 70
     1
102
RTVSPropertyOp6
 70
     1
102
RTVSPropertyOp7
 70
     1
102
RTVSPropertyOp8
 70
     1
102
RTVSPropertyOp9
 70
     1
102
RTVSPropertyOp10
 70
     1
102
RTVSPropertyOp11
 70
     1
102
RTVSPropertyOp12
 70
     1
102
RTVSPropertyOp13
 70
     1
102
RTVSPropertyOp14
 70
     1
102
RTVSPropertyOp15
 70
     1
102
RTVSPropertyOp16
 70
     1
102
RTVSPropertyOp17
 70
     1
102
RTVSPropertyOp18
 70
     1
102
RTVSPropertyOp19
 70
     1
102
RTVSPropertyOp20
 70
     1
102
RTVSPropertyOp21
 70
     1
102
RTVSPropertyOp22
 70
     1
102
RTVSPropertyOp23
 70
     1
102
RTVSPropertyOp24
 70
     1
102
RTVSPropertyOp25
 70
     1
102
RTVSPropertyOp26
 70
     1
102
RTVSPropertyOp27
 70
     1
102
RTVSPropertyOp28
 70
     1
102
RTVSPropertyOp29
 70
     1
102
RTVSPropertyOp30
 70
     1
102
RTVSPropertyOp31
 70
     1
102
RTVSPropertyOp32
 70
     1
102
RTVSPropertyOp33
 70
     1
102
RTVSPropertyOp34
 70
     1
102
RTVSPropertyOp35
 70
     1
102
RTVSPropertyOp36
 70
     1
102
RTVSPropertyOp37
 70
     1
102
RTVSPropertyOp38
 70
     1
102
RTVSPropertyOp39
 70
     1
102
RTVSPropertyOp40
 70
     1
102
RTVSPropertyOp41
 70
     1
102
RTVSPropertyOp42
 70
     1
102
RTVSPropertyOp43
 70
     1
102
RTVSPropertyOp44
 70
     1
102
RTVSPropertyOp45
 70
     1
102
RTVSPropertyOp46
 70
     1
102
RTVSPropertyOp47
 70
     1
102
RTVSPropertyOp48
 70
     1
102
RTVSPropertyOp49
 70
     1
102
RTVSPropertyOp50
 70
     1
102
RTVSPropertyOp51
 70
     0
102
RTVSPropertyOp52
 70
     0
102
RTVSPropertyOp53
 70
     1
102
RTVSPropertyOp54
 70
     1
102
RTVSPropertyOp55
 70
     1
102
RTVSPropertyOp56
 70
     1
102
RTVSPropertyOp57
 70
     1
102
RTVSPost2010Prop28
280
     0
102
RTVSPost2010PropOp28
 70
     1
102
RTVSPost2010Prop29
280
     1
102
RTVSPost2010PropOp29
 70
     1
102
RTVSPost2010Prop30
280
     1
102
RTVSPost2010PropOp30
 70
     1
102
RTVSPost2010Prop31
280
     0
102
RTVSPost2010PropOp31
 70
     1
102
RTVSPost2010Prop32
280
     0
102
RTVSPost2010PropOp32
 70
     1
102
RTVSPost2010Prop33
280
     0
102
RTVSPost2010PropOp33
 70
     1
102
RTVSPost2010Prop34
280
     0
102
RTVSPost2010PropOp34
 70
     1
102
RTVSPost2010Prop35
280
     0
102
RTVSPost2010PropOp35
 70
     1
102
RTVSPost2010Prop36
280
     0
102
RTVSPost2010PropOp36
 70
     1
102
RTVSPost2010Prop37
 90
       50
102
RTVSPost2010PropOp37
 70
     1
102
RTVSPost2010Prop38
140
0.0
102
RTVSPost2010PropOp38
 70
     1
102
RTVSPost2010Prop39
140
1.0
102
RTVSPost2010PropOp39
 70
     1
102
RTVSPost2010Prop40
 90
        0
102
RTVSPost2010PropOp40
 70
     1
102
RTVSPost2010Prop41ColorIndex
 90
       18
102
RTVSPost2010Prop41ColorRGB
 90
        0
102
RTVSPost2010PropOp41
 70
     1
102
RTVSPost2010Prop42
 90
       50
102
RTVSPost2010PropOp42
 70
     1
102
RTVSPost2010Prop43
 90
        3
102
RTVSPost2010PropOp43
 70
     1
102
RTVSPost2010Prop44ColorIndex
 90
        5
102
RTVSPost2010Prop44ColorRGB
 90
      255
102
RTVSPost2010PropOp44
 70
     1
102
RTVSPost2010Prop45
280
     0
102
RTVSPost2010PropOp45
 70
     1
102
RTVSPost2010Prop46
 90
       50
102
RTVSPost2010PropOp46
 70
     1
102
RTVSPost2010Prop47
 90
       50
102
RTVSPost2010PropOp47
 70
     1
102
RTVSPost2010Prop48
 90
       50
102
RTVSPost2010PropOp48
 70
     1
102
RTVSPost2010Prop49
280
     0
102
RTVSPost2010PropOp49
 70
     1
102
RTVSPost2010Prop50
 90
       50
102
RTVSPost2010PropOp50
 70
     1
102
RTVSPost2010Prop51ColorIndex
 90
      256
102
RTVSPost2010Prop51ColorRGB
 90
-16777216
102
RTVSPost2010PropOp51
 70
     0
102
RTVSPost2010Prop52
140
1.0
102
RTVSPost2010PropOp52
 70
     0
102
RTVSPost2010Prop53
 90
        2
102
RTVSPost2010PropOp53
 70
     1
102
RTVSPost2010Prop54
  1
strokes_ogs.tif
102
RTVSPost2010PropOp54
 70
     1
102
RTVSPost2010Prop55
280
     0
102
RTVSPost2010PropOp55
 70
     1
102
RTVSPost2010Prop56
140
1.0
102
RTVSPost2010PropOp56
 70
     1
102
RTVSPost2010Prop57
140
1.0
102
RTVSPost2010PropOp57
 70
     1
  0
XRECORD
  5
4B2
102
{ACAD_REACTORS
330
4B1
102
}
330
4B1
100
AcDbXrecord
280
     1
102
RTVSPropertyOp0
 70
     1
102
RTVSPropertyOp1
 70
     1
102
RTVSPropertyOp2
 70
     1
102
RTVSPropertyOp3
 70
     1
102
RTVSPropertyOp4
 70
     1
102
RTVSPropertyOp5
 70
     1
102
RTVSPropertyOp6
 70
     1
102
RTVSPropertyOp7
 70
     1
102
RTVSPropertyOp8
 70
     1
102
RTVSPropertyOp9
 70
     1
102
RTVSPropertyOp10
 70
     1
102
RTVSPropertyOp11
 70
     1
102
RTVSPropertyOp12
 70
     1
102
RTVSPropertyOp13
 70
     1
102
RTVSPropertyOp14
 70
     1
102
RTVSPropertyOp15
 70
     1
102
RTVSPropertyOp16
 70
     1
102
RTVSPropertyOp17
 70
     1
102
RTVSPropertyOp18
 70
     1
102
RTVSPropertyOp19
 70
     1
102
RTVSPropertyOp20
 70
     1
102
RTVSPropertyOp21
 70
     1
102
RTVSPropertyOp22
 70
     1
102
RTVSPropertyOp23
 70
     1
102
RTVSPropertyOp24
 70
     1
102
RTVSPropertyOp25
 70
     1
102
RTVSPropertyOp26
 70
     1
102
RTVSPropertyOp27
 70
     1
102
RTVSPropertyOp28
 70
     1
102
RTVSPropertyOp29
 70
     1
102
RTVSPropertyOp30
 70
     1
102
RTVSPropertyOp31
 70
     1
102
RTVSPropertyOp32
 70
     1
102
RTVSPropertyOp33
 70
     1
102
RTVSPropertyOp34
 70
     1
102
RTVSPropertyOp35
 70
     1
102
RTVSPropertyOp36
 70
     1
102
RTVSPropertyOp37
 70
     1
102
RTVSPropertyOp38
 70
     1
102
RTVSPropertyOp39
 70
     1
102
RTVSPropertyOp40
 70
     1
102
RTVSPropertyOp41
 70
     1
102
RTVSPropertyOp42
 70
     1
102
RTVSPropertyOp43
 70
     1
102
RTVSPropertyOp44
 70
     1
102
RTVSPropertyOp45
 70
     1
102
RTVSPropertyOp46
 70
     1
102
RTVSPropertyOp47
 70
     1
102
RTVSPropertyOp48
 70
     1
102
RTVSPropertyOp49
 70
     1
102
RTVSPropertyOp50
 70
     1
102
RTVSPropertyOp51
 70
     0
102
RTVSPropertyOp52
 70
     0
102
RTVSPropertyOp53
 70
     1
102
RTVSPropertyOp54
 70
     1
102
RTVSPropertyOp55
 70
     1
102
RTVSPropertyOp56
 70
     1
102
RTVSPropertyOp57
 70
     1
102
RTVSPost2010Prop28
280
     0
102
RTVSPost2010PropOp28
 70
     1
102
RTVSPost2010Prop29
280
     1
102
RTVSPost2010PropOp29
 70
     1
102
RTVSPost2010Prop30
280
     1
102
RTVSPost2010PropOp30
 70
     1
102
RTVSPost2010Prop31
280
     0
102
RTVSPost2010PropOp31
 70
     1
102
RTVSPost2010Prop32
280
     0
102
RTVSPost2010PropOp32
 70
     1
102
RTVSPost2010Prop33
280
     0
102
RTVSPost2010PropOp33
 70
     1
102
RTVSPost2010Prop34
280
     0
102
RTVSPost2010PropOp34
 70
     1
102
RTVSPost2010Prop35
280
     0
102
RTVSPost2010PropOp35
 70
     1
102
RTVSPost2010Prop36
280
     0
102
RTVSPost2010PropOp36
 70
     1
102
RTVSPost2010Prop37
 90
       50
102
RTVSPost2010PropOp37
 70
     1
102
RTVSPost2010Prop38
140
0.0
102
RTVSPost2010PropOp38
 70
     1
102
RTVSPost2010Prop39
140
1.0
102
RTVSPost2010PropOp39
 70
     1
102
RTVSPost2010Prop40
 90
        0
102
RTVSPost2010PropOp40
 70
     1
102
RTVSPost2010Prop41ColorIndex
 90
       18
102
RTVSPost2010Prop41ColorRGB
 90
        0
102
RTVSPost2010PropOp41
 70
     1
102
RTVSPost2010Prop42
 90
       50
102
RTVSPost2010PropOp42
 70
     1
102
RTVSPost2010Prop43
 90
        3
102
RTVSPost2010PropOp43
 70
     1
102
RTVSPost2010Prop44ColorIndex
 90
        5
102
RTVSPost2010Prop44ColorRGB
 90
      255
102
RTVSPost2010PropOp44
 70
     1
102
RTVSPost2010Prop45
280
     0
102
RTVSPost2010PropOp45
 70
     1
102
RTVSPost2010Prop46
 90
       50
102
RTVSPost2010PropOp46
 70
     1
102
RTVSPost2010Prop47
 90
       50
102
RTVSPost2010PropOp47
 70
     1
102
RTVSPost2010Prop48
 90
       50
102
RTVSPost2010PropOp48
 70
     1
102
RTVSPost2010Prop49
280
     0
102
RTVSPost2010PropOp49
 70
     1
102
RTVSPost2010Prop50
 90
       50
102
RTVSPost2010PropOp50
 70
     1
102
RTVSPost2010Prop51ColorIndex
 90
      256
102
RTVSPost2010Prop51ColorRGB
 90
-16777216
102
RTVSPost2010PropOp51
 70
     0
102
RTVSPost2010Prop52
140
1.0
102
RTVSPost2010PropOp52
 70
     0
102
RTVSPost2010Prop53
 90
        2
102
RTVSPost2010PropOp53
 70
     1
102
RTVSPost2010Prop54
  1
strokes_ogs.tif
102
RTVSPost2010PropOp54
 70
     1
102
RTVSPost2010Prop55
280
     0
102
RTVSPost2010PropOp55
 70
     1
102
RTVSPost2010Prop56
140
1.0
102
RTVSPost2010PropOp56
 70
     1
102
RTVSPost2010Prop57
140
1.0
102
RTVSPost2010PropOp57
 70
     1
  0
XRECORD
  5
4B4
102
{ACAD_REACTORS
330
4B3
102
}
330
4B3
100
AcDbXrecord
280
     1
102
RTVSPropertyOp0
 70
     1
102
RTVSPropertyOp1
 70
     1
102
RTVSPropertyOp2
 70
     1
102
RTVSPropertyOp3
 70
     1
102
RTVSPropertyOp4
 70
     1
102
RTVSPropertyOp5
 70
     1
102
RTVSPropertyOp6
 70
     1
102
RTVSPropertyOp7
 70
     1
102
RTVSPropertyOp8
 70
     1
102
RTVSPropertyOp9
 70
     1
102
RTVSPropertyOp10
 70
     1
102
RTVSPropertyOp11
 70
     1
102
RTVSPropertyOp12
 70
     1
102
RTVSPropertyOp13
 70
     1
102
RTVSPropertyOp14
 70
     1
102
RTVSPropertyOp15
 70
     1
102
RTVSPropertyOp16
 70
     1
102
RTVSPropertyOp17
 70
     1
102
RTVSPropertyOp18
 70
     1
102
RTVSPropertyOp19
 70
     1
102
RTVSPropertyOp20
 70
     1
102
RTVSPropertyOp21
 70
     1
102
RTVSPropertyOp22
 70
     1
102
RTVSPropertyOp23
 70
     1
102
RTVSPropertyOp24
 70
     1
102
RTVSPropertyOp25
 70
     1
102
RTVSPropertyOp26
 70
     1
102
RTVSPropertyOp27
 70
     1
102
RTVSPropertyOp28
 70
     1
102
RTVSPropertyOp29
 70
     1
102
RTVSPropertyOp30
 70
     1
102
RTVSPropertyOp31
 70
     1
102
RTVSPropertyOp32
 70
     1
102
RTVSPropertyOp33
 70
     1
102
RTVSPropertyOp34
 70
     1
102
RTVSPropertyOp35
 70
     1
102
RTVSPropertyOp36
 70
     1
102
RTVSPropertyOp37
 70
     1
102
RTVSPropertyOp38
 70
     1
102
RTVSPropertyOp39
 70
     1
102
RTVSPropertyOp40
 70
     1
102
RTVSPropertyOp41
 70
     1
102
RTVSPropertyOp42
 70
     1
102
RTVSPropertyOp43
 70
     1
102
RTVSPropertyOp44
 70
     1
102
RTVSPropertyOp45
 70
     1
102
RTVSPropertyOp46
 70
     1
102
RTVSPropertyOp47
 70
     1
102
RTVSPropertyOp48
 70
     1
102
RTVSPropertyOp49
 70
     1
102
RTVSPropertyOp50
 70
     1
102
RTVSPropertyOp51
 70
     0
102
RTVSPropertyOp52
 70
     0
102
RTVSPropertyOp53
 70
     1
102
RTVSPropertyOp54
 70
     1
102
RTVSPropertyOp55
 70
     1
102
RTVSPropertyOp56
 70
     1
102
RTVSPropertyOp57
 70
     1
102
RTVSPost2010Prop28
280
     0
102
RTVSPost2010PropOp28
 70
     1
102
RTVSPost2010Prop29
280
     1
102
RTVSPost2010PropOp29
 70
     1
102
RTVSPost2010Prop30
280
     1
102
RTVSPost2010PropOp30
 70
     1
102
RTVSPost2010Prop31
280
     0
102
RTVSPost2010PropOp31
 70
     1
102
RTVSPost2010Prop32
280
     0
102
RTVSPost2010PropOp32
 70
     1
102
RTVSPost2010Prop33
280
     0
102
RTVSPost2010PropOp33
 70
     1
102
RTVSPost2010Prop34
280
     0
102
RTVSPost2010PropOp34
 70
     1
102
RTVSPost2010Prop35
280
     0
102
RTVSPost2010PropOp35
 70
     1
102
RTVSPost2010Prop36
280
     0
102
RTVSPost2010PropOp36
 70
     1
102
RTVSPost2010Prop37
 90
       50
102
RTVSPost2010PropOp37
 70
     1
102
RTVSPost2010Prop38
140
0.0
102
RTVSPost2010PropOp38
 70
     1
102
RTVSPost2010Prop39
140
1.0
102
RTVSPost2010PropOp39
 70
     1
102
RTVSPost2010Prop40
 90
        0
102
RTVSPost2010PropOp40
 70
     1
102
RTVSPost2010Prop41ColorIndex
 90
       18
102
RTVSPost2010Prop41ColorRGB
 90
        0
102
RTVSPost2010PropOp41
 70
     1
102
RTVSPost2010Prop42
 90
       50
102
RTVSPost2010PropOp42
 70
     1
102
RTVSPost2010Prop43
 90
        3
102
RTVSPost2010PropOp43
 70
     1
102
RTVSPost2010Prop44ColorIndex
 90
        5
102
RTVSPost2010Prop44ColorRGB
 90
      255
102
RTVSPost2010PropOp44
 70
     1
102
RTVSPost2010Prop45
280
     0
102
RTVSPost2010PropOp45
 70
     1
102
RTVSPost2010Prop46
 90
       50
102
RTVSPost2010PropOp46
 70
     1
102
RTVSPost2010Prop47
 90
       50
102
RTVSPost2010PropOp47
 70
     1
102
RTVSPost2010Prop48
 90
       50
102
RTVSPost2010PropOp48
 70
     1
102
RTVSPost2010Prop49
280
     0
102
RTVSPost2010PropOp49
 70
     1
102
RTVSPost2010Prop50
 90
       50
102
RTVSPost2010PropOp50
 70
     1
102
RTVSPost2010Prop51ColorIndex
 90
      256
102
RTVSPost2010Prop51ColorRGB
 90
-16777216
102
RTVSPost2010PropOp51
 70
     0
102
RTVSPost2010Prop52
140
1.0
102
RTVSPost2010PropOp52
 70
     0
102
RTVSPost2010Prop53
 90
        2
102
RTVSPost2010PropOp53
 70
     1
102
RTVSPost2010Prop54
  1
strokes_ogs.tif
102
RTVSPost2010PropOp54
 70
     1
102
RTVSPost2010Prop55
280
     0
102
RTVSPost2010PropOp55
 70
     1
102
RTVSPost2010Prop56
140
1.0
102
RTVSPost2010PropOp56
 70
     1
102
RTVSPost2010Prop57
140
1.0
102
RTVSPost2010PropOp57
 70
     1
  0
XRECORD
  5
4BA
102
{ACAD_REACTORS
330
4B9
102
}
330
4B9
100
AcDbXrecord
280
     1
102
RTVSPropertyOp0
 70
     1
102
RTVSPropertyOp1
 70
     1
102
RTVSPropertyOp2
 70
     1
102
RTVSPropertyOp3
 70
     1
102
RTVSPropertyOp4
 70
     1
102
RTVSPropertyOp5
 70
     1
102
RTVSPropertyOp6
 70
     1
102
RTVSPropertyOp7
 70
     1
102
RTVSPropertyOp8
 70
     1
102
RTVSPropertyOp9
 70
     1
102
RTVSPropertyOp10
 70
     1
102
RTVSPropertyOp11
 70
     1
102
RTVSPropertyOp12
 70
     1
102
RTVSPropertyOp13
 70
     1
102
RTVSPropertyOp14
 70
     1
102
RTVSPropertyOp15
 70
     1
102
RTVSPropertyOp16
 70
     1
102
RTVSPropertyOp17
 70
     1
102
RTVSPropertyOp18
 70
     1
102
RTVSPropertyOp19
 70
     1
102
RTVSPropertyOp20
 70
     1
102
RTVSPropertyOp21
 70
     1
102
RTVSPropertyOp22
 70
     1
102
RTVSPropertyOp23
 70
     1
102
RTVSPropertyOp24
 70
     1
102
RTVSPropertyOp25
 70
     1
102
RTVSPropertyOp26
 70
     1
102
RTVSPropertyOp27
 70
     1
102
RTVSPropertyOp28
 70
     1
102
RTVSPropertyOp29
 70
     1
102
RTVSPropertyOp30
 70
     1
102
RTVSPropertyOp31
 70
     1
102
RTVSPropertyOp32
 70
     1
102
RTVSPropertyOp33
 70
     1
102
RTVSPropertyOp34
 70
     1
102
RTVSPropertyOp35
 70
     1
102
RTVSPropertyOp36
 70
     1
102
RTVSPropertyOp37
 70
     1
102
RTVSPropertyOp38
 70
     1
102
RTVSPropertyOp39
 70
     1
102
RTVSPropertyOp40
 70
     1
102
RTVSPropertyOp41
 70
     1
102
RTVSPropertyOp42
 70
     1
102
RTVSPropertyOp43
 70
     1
102
RTVSPropertyOp44
 70
     1
102
RTVSPropertyOp45
 70
     1
102
RTVSPropertyOp46
 70
     1
102
RTVSPropertyOp47
 70
     1
102
RTVSPropertyOp48
 70
     1
102
RTVSPropertyOp49
 70
     1
102
RTVSPropertyOp50
 70
     1
102
RTVSPropertyOp51
 70
     0
102
RTVSPropertyOp52
 70
     0
102
RTVSPropertyOp53
 70
     1
102
RTVSPropertyOp54
 70
     1
102
RTVSPropertyOp55
 70
     1
102
RTVSPropertyOp56
 70
     1
102
RTVSPropertyOp57
 70
     1
102
RTVSPost2010Prop28
280
     0
102
RTVSPost2010PropOp28
 70
     1
102
RTVSPost2010Prop29
280
     1
102
RTVSPost2010PropOp29
 70
     1
102
RTVSPost2010Prop30
280
     1
102
RTVSPost2010PropOp30
 70
     1
102
RTVSPost2010Prop31
280
     0
102
RTVSPost2010PropOp31
 70
     1
102
RTVSPost2010Prop32
280
     0
102
RTVSPost2010PropOp32
 70
     1
102
RTVSPost2010Prop33
280
     0
102
RTVSPost2010PropOp33
 70
     1
102
RTVSPost2010Prop34
280
     0
102
RTVSPost2010PropOp34
 70
     1
102
RTVSPost2010Prop35
280
     0
102
RTVSPost2010PropOp35
 70
     1
102
RTVSPost2010Prop36
280
     0
102
RTVSPost2010PropOp36
 70
     1
102
RTVSPost2010Prop37
 90
       50
102
RTVSPost2010PropOp37
 70
     1
102
RTVSPost2010Prop38
140
0.0
102
RTVSPost2010PropOp38
 70
     1
102
RTVSPost2010Prop39
140
1.0
102
RTVSPost2010PropOp39
 70
     1
102
RTVSPost2010Prop40
 90
        0
102
RTVSPost2010PropOp40
 70
     1
102
RTVSPost2010Prop41ColorIndex
 90
       18
102
RTVSPost2010Prop41ColorRGB
 90
        0
102
RTVSPost2010PropOp41
 70
     1
102
RTVSPost2010Prop42
 90
       50
102
RTVSPost2010PropOp42
 70
     1
102
RTVSPost2010Prop43
 90
        3
102
RTVSPost2010PropOp43
 70
     1
102
RTVSPost2010Prop44ColorIndex
 90
        5
102
RTVSPost2010Prop44ColorRGB
 90
      255
102
RTVSPost2010PropOp44
 70
     1
102
RTVSPost2010Prop45
280
     0
102
RTVSPost2010PropOp45
 70
     1
102
RTVSPost2010Prop46
 90
       50
102
RTVSPost2010PropOp46
 70
     1
102
RTVSPost2010Prop47
 90
       50
102
RTVSPost2010PropOp47
 70
     1
102
RTVSPost2010Prop48
 90
       50
102
RTVSPost2010PropOp48
 70
     1
102
RTVSPost2010Prop49
280
     0
102
RTVSPost2010PropOp49
 70
     1
102
RTVSPost2010Prop50
 90
       50
102
RTVSPost2010PropOp50
 70
     1
102
RTVSPost2010Prop51ColorIndex
 90
      256
102
RTVSPost2010Prop51ColorRGB
 90
-16777216
102
RTVSPost2010PropOp51
 70
     0
102
RTVSPost2010Prop52
140
1.0
102
RTVSPost2010PropOp52
 70
     0
102
RTVSPost2010Prop53
 90
        2
102
RTVSPost2010PropOp53
 70
     1
102
RTVSPost2010Prop54
  1
strokes_ogs.tif
102
RTVSPost2010PropOp54
 70
     1
102
RTVSPost2010Prop55
280
     0
102
RTVSPost2010PropOp55
 70
     1
102
RTVSPost2010Prop56
140
1.0
102
RTVSPost2010PropOp56
 70
     1
102
RTVSPost2010Prop57
140
1.0
102
RTVSPost2010PropOp57
 70
     1
  0
XRECORD
  5
4CE
102
{ACAD_REACTORS
330
4CD
102
}
330
4CD
100
AcDbXrecord
280
     1
102
RTVSPropertyOp0
 70
     0
102
RTVSPropertyOp1
 70
     0
102
RTVSPropertyOp2
 70
     0
102
RTVSPropertyOp3
 70
     0
102
RTVSPropertyOp4
 70
     0
102
RTVSPropertyOp5
 70
     0
102
RTVSPropertyOp6
 70
     0
102
RTVSPropertyOp7
 70
     0
102
RTVSPropertyOp8
 70
     0
102
RTVSPropertyOp9
 70
     0
102
RTVSPropertyOp10
 70
     0
102
RTVSPropertyOp11
 70
     0
102
RTVSPropertyOp12
 70
     0
102
RTVSPropertyOp13
 70
     0
102
RTVSPropertyOp14
 70
     2
102
RTVSPropertyOp15
 70
     0
102
RTVSPropertyOp16
 70
     0
102
RTVSPropertyOp17
 70
     0
102
RTVSPropertyOp18
 70
     0
102
RTVSPropertyOp19
 70
     0
102
RTVSPropertyOp20
 70
     0
102
RTVSPropertyOp21
 70
     0
102
RTVSPropertyOp22
 70
     0
102
RTVSPropertyOp23
 70
     0
102
RTVSPropertyOp24
 70
     0
102
RTVSPropertyOp25
 70
     0
102
RTVSPropertyOp26
 70
     0
102
RTVSPropertyOp27
 70
     0
102
RTVSPropertyOp28
 70
     0
102
RTVSPropertyOp29
 70
     0
102
RTVSPropertyOp30
 70
     0
102
RTVSPropertyOp31
 70
     0
102
RTVSPropertyOp32
 70
     0
102
RTVSPropertyOp33
 70
     0
102
RTVSPropertyOp34
 70
     0
102
RTVSPropertyOp35
 70
     0
102
RTVSPropertyOp36
 70
     0
102
RTVSPropertyOp37
 70
     0
102
RTVSPropertyOp38
 70
     0
102
RTVSPropertyOp39
 70
     0
102
RTVSPropertyOp40
 70
     0
102
RTVSPropertyOp41
 70
     0
102
RTVSPropertyOp42
 70
     0
102
RTVSPropertyOp43
 70
     0
102
RTVSPropertyOp44
 70
     0
102
RTVSPropertyOp45
 70
     0
102
RTVSPropertyOp46
 70
     0
102
RTVSPropertyOp47
 70
     0
102
RTVSPropertyOp48
 70
     0
102
RTVSPropertyOp49
 70
     0
102
RTVSPropertyOp50
 70
     0
102
RTVSPropertyOp51
 70
     0
102
RTVSPropertyOp52
 70
     0
102
RTVSPropertyOp53
 70
     0
102
RTVSPropertyOp54
 70
     0
102
RTVSPropertyOp55
 70
     0
102
RTVSPropertyOp56
 70
     0
102
RTVSPropertyOp57
 70
     0
102
RTVSPost2010Prop28
280
     0
102
RTVSPost2010PropOp28
 70
     0
102
RTVSPost2010Prop29
280
     1
102
RTVSPost2010PropOp29
 70
     0
102
RTVSPost2010Prop30
280
     1
102
RTVSPost2010PropOp30
 70
     0
102
RTVSPost2010Prop31
280
     0
102
RTVSPost2010PropOp31
 70
     0
102
RTVSPost2010Prop32
280
     0
102
RTVSPost2010PropOp32
 70
     0
102
RTVSPost2010Prop33
280
     0
102
RTVSPost2010PropOp33
 70
     0
102
RTVSPost2010Prop34
280
     0
102
RTVSPost2010PropOp34
 70
     0
102
RTVSPost2010Prop35
280
     0
102
RTVSPost2010PropOp35
 70
     0
102
RTVSPost2010Prop36
280
     0
102
RTVSPost2010PropOp36
 70
     0
102
RTVSPost2010Prop37
 90
       50
102
RTVSPost2010PropOp37
 70
     0
102
RTVSPost2010Prop38
140
0.0
102
RTVSPost2010PropOp38
 70
     0
102
RTVSPost2010Prop39
140
1.0
102
RTVSPost2010PropOp39
 70
     0
102
RTVSPost2010Prop40
 90
        0
102
RTVSPost2010PropOp40
 70
     0
102
RTVSPost2010Prop41ColorIndex
 90
       18
102
RTVSPost2010Prop41ColorRGB
 90
        0
102
RTVSPost2010PropOp41
 70
     0
102
RTVSPost2010Prop42
 90
       50
102
RTVSPost2010PropOp42
 70
     0
102
RTVSPost2010Prop43
 90
        3
102
RTVSPost2010PropOp43
 70
     0
102
RTVSPost2010Prop44ColorIndex
 90
        5
102
RTVSPost2010Prop44ColorRGB
 90
      255
102
RTVSPost2010PropOp44
 70
     0
102
RTVSPost2010Prop45
280
     0
102
RTVSPost2010PropOp45
 70
     0
102
RTVSPost2010Prop46
 90
       50
102
RTVSPost2010PropOp46
 70
     0
102
RTVSPost2010Prop47
 90
       50
102
RTVSPost2010PropOp47
 70
     0
102
RTVSPost2010Prop48
 90
       50
102
RTVSPost2010PropOp48
 70
     0
102
RTVSPost2010Prop49
280
     0
102
RTVSPost2010PropOp49
 70
     0
102
RTVSPost2010Prop50
 90
       50
102
RTVSPost2010PropOp50
 70
     0
102
RTVSPost2010Prop51ColorIndex
 90
      256
102
RTVSPost2010Prop51ColorRGB
 90
-16777216
102
RTVSPost2010PropOp51
 70
     0
102
RTVSPost2010Prop52
140
1.0
102
RTVSPost2010PropOp52
 70
     0
102
RTVSPost2010Prop53
 90
        2
102
RTVSPost2010PropOp53
 70
     0
102
RTVSPost2010Prop54
  1
strokes_ogs.tif
102
RTVSPost2010PropOp54
 70
     0
102
RTVSPost2010Prop55
280
     0
102
RTVSPost2010PropOp55
 70
     0
102
RTVSPost2010Prop56
140
1.0
102
RTVSPost2010PropOp56
 70
     0
102
RTVSPost2010Prop57
140
1.0
102
RTVSPost2010PropOp57
 70
     0
  0
XRECORD
  5
4C8
102
{ACAD_REACTORS
330
4C7
102
}
330
4C7
100
AcDbXrecord
280
     1
102
RTVSPropertyOp0
 70
     1
102
RTVSPropertyOp1
 70
     1
102
RTVSPropertyOp2
 70
     1
102
RTVSPropertyOp3
 70
     1
102
RTVSPropertyOp4
 70
     1
102
RTVSPropertyOp5
 70
     1
102
RTVSPropertyOp6
 70
     1
102
RTVSPropertyOp7
 70
     1
102
RTVSPropertyOp8
 70
     1
102
RTVSPropertyOp9
 70
     1
102
RTVSPropertyOp10
 70
     1
102
RTVSPropertyOp11
 70
     1
102
RTVSPropertyOp12
 70
     1
102
RTVSPropertyOp13
 70
     1
102
RTVSPropertyOp14
 70
     1
102
RTVSPropertyOp15
 70
     1
102
RTVSPropertyOp16
 70
     1
102
RTVSPropertyOp17
 70
     1
102
RTVSPropertyOp18
 70
     1
102
RTVSPropertyOp19
 70
     1
102
RTVSPropertyOp20
 70
     1
102
RTVSPropertyOp21
 70
     1
102
RTVSPropertyOp22
 70
     1
102
RTVSPropertyOp23
 70
     1
102
RTVSPropertyOp24
 70
     1
102
RTVSPropertyOp25
 70
     1
102
RTVSPropertyOp26
 70
     1
102
RTVSPropertyOp27
 70
     1
102
RTVSPropertyOp28
 70
     1
102
RTVSPropertyOp29
 70
     1
102
RTVSPropertyOp30
 70
     1
102
RTVSPropertyOp31
 70
     1
102
RTVSPropertyOp32
 70
     1
102
RTVSPropertyOp33
 70
     1
102
RTVSPropertyOp34
 70
     1
102
RTVSPropertyOp35
 70
     1
102
RTVSPropertyOp36
 70
     1
102
RTVSPropertyOp37
 70
     1
102
RTVSPropertyOp38
 70
     1
102
RTVSPropertyOp39
 70
     1
102
RTVSPropertyOp40
 70
     1
102
RTVSPropertyOp41
 70
     1
102
RTVSPropertyOp42
 70
     1
102
RTVSPropertyOp43
 70
     1
102
RTVSPropertyOp44
 70
     1
102
RTVSPropertyOp45
 70
     1
102
RTVSPropertyOp46
 70
     1
102
RTVSPropertyOp47
 70
     1
102
RTVSPropertyOp48
 70
     1
102
RTVSPropertyOp49
 70
     1
102
RTVSPropertyOp50
 70
     1
102
RTVSPropertyOp51
 70
     0
102
RTVSPropertyOp52
 70
     0
102
RTVSPropertyOp53
 70
     1
102
RTVSPropertyOp54
 70
     1
102
RTVSPropertyOp55
 70
     1
102
RTVSPropertyOp56
 70
     1
102
RTVSPropertyOp57
 70
     1
102
RTVSPost2010Prop28
280
     0
102
RTVSPost2010PropOp28
 70
     1
102
RTVSPost2010Prop29
280
     1
102
RTVSPost2010PropOp29
 70
     1
102
RTVSPost2010Prop30
280
     1
102
RTVSPost2010PropOp30
 70
     1
102
RTVSPost2010Prop31
280
     0
102
RTVSPost2010PropOp31
 70
     1
102
RTVSPost2010Prop32
280
     0
102
RTVSPost2010PropOp32
 70
     1
102
RTVSPost2010Prop33
280
     0
102
RTVSPost2010PropOp33
 70
     1
102
RTVSPost2010Prop34
280
     0
102
RTVSPost2010PropOp34
 70
     1
102
RTVSPost2010Prop35
280
     0
102
RTVSPost2010PropOp35
 70
     1
102
RTVSPost2010Prop36
280
     0
102
RTVSPost2010PropOp36
 70
     1
102
RTVSPost2010Prop37
 90
       50
102
RTVSPost2010PropOp37
 70
     1
102
RTVSPost2010Prop38
140
0.0
102
RTVSPost2010PropOp38
 70
     1
102
RTVSPost2010Prop39
140
1.0
102
RTVSPost2010PropOp39
 70
     1
102
RTVSPost2010Prop40
 90
        0
102
RTVSPost2010PropOp40
 70
     1
102
RTVSPost2010Prop41ColorIndex
 90
       18
102
RTVSPost2010Prop41ColorRGB
 90
        0
102
RTVSPost2010PropOp41
 70
     1
102
RTVSPost2010Prop42
 90
       50
102
RTVSPost2010PropOp42
 70
     1
102
RTVSPost2010Prop43
 90
        3
102
RTVSPost2010PropOp43
 70
     1
102
RTVSPost2010Prop44ColorIndex
 90
        5
102
RTVSPost2010Prop44ColorRGB
 90
      255
102
RTVSPost2010PropOp44
 70
     1
102
RTVSPost2010Prop45
280
     0
102
RTVSPost2010PropOp45
 70
     1
102
RTVSPost2010Prop46
 90
       50
102
RTVSPost2010PropOp46
 70
     1
102
RTVSPost2010Prop47
 90
       50
102
RTVSPost2010PropOp47
 70
     1
102
RTVSPost2010Prop48
 90
       50
102
RTVSPost2010PropOp48
 70
     1
102
RTVSPost2010Prop49
280
     0
102
RTVSPost2010PropOp49
 70
     1
102
RTVSPost2010Prop50
 90
       50
102
RTVSPost2010PropOp50
 70
     1
102
RTVSPost2010Prop51ColorIndex
 90
      256
102
RTVSPost2010Prop51ColorRGB
 90
-16777216
102
RTVSPost2010PropOp51
 70
     0
102
RTVSPost2010Prop52
140
1.0
102
RTVSPost2010PropOp52
 70
     0
102
RTVSPost2010Prop53
 90
        2
102
RTVSPost2010PropOp53
 70
     1
102
RTVSPost2010Prop54
  1
strokes_ogs.tif
102
RTVSPost2010PropOp54
 70
     1
102
RTVSPost2010Prop55
280
     0
102
RTVSPost2010PropOp55
 70
     1
102
RTVSPost2010Prop56
140
1.0
102
RTVSPost2010PropOp56
 70
     1
102
RTVSPost2010Prop57
140
1.0
102
RTVSPost2010PropOp57
 70
     1
  0
XRECORD
  5
4D0
102
{ACAD_REACTORS
330
4CF
102
}
330
4CF
100
AcDbXrecord
280
     1
102
RTVSPropertyOp0
 70
     0
102
RTVSPropertyOp1
 70
     0
102
RTVSPropertyOp2
 70
     0
102
RTVSPropertyOp3
 70
     0
102
RTVSPropertyOp4
 70
     0
102
RTVSPropertyOp5
 70
     0
102
RTVSPropertyOp6
 70
     0
102
RTVSPropertyOp7
 70
     0
102
RTVSPropertyOp8
 70
     0
102
RTVSPropertyOp9
 70
     0
102
RTVSPropertyOp10
 70
     0
102
RTVSPropertyOp11
 70
     0
102
RTVSPropertyOp12
 70
     0
102
RTVSPropertyOp13
 70
     0
102
RTVSPropertyOp14
 70
     2
102
RTVSPropertyOp15
 70
     0
102
RTVSPropertyOp16
 70
     0
102
RTVSPropertyOp17
 70
     0
102
RTVSPropertyOp18
 70
     0
102
RTVSPropertyOp19
 70
     0
102
RTVSPropertyOp20
 70
     0
102
RTVSPropertyOp21
 70
     0
102
RTVSPropertyOp22
 70
     0
102
RTVSPropertyOp23
 70
     0
102
RTVSPropertyOp24
 70
     0
102
RTVSPropertyOp25
 70
     0
102
RTVSPropertyOp26
 70
     0
102
RTVSPropertyOp27
 70
     0
102
RTVSPropertyOp28
 70
     0
102
RTVSPropertyOp29
 70
     0
102
RTVSPropertyOp30
 70
     0
102
RTVSPropertyOp31
 70
     0
102
RTVSPropertyOp32
 70
     0
102
RTVSPropertyOp33
 70
     0
102
RTVSPropertyOp34
 70
     0
102
RTVSPropertyOp35
 70
     0
102
RTVSPropertyOp36
 70
     0
102
RTVSPropertyOp37
 70
     0
102
RTVSPropertyOp38
 70
     0
102
RTVSPropertyOp39
 70
     0
102
RTVSPropertyOp40
 70
     0
102
RTVSPropertyOp41
 70
     0
102
RTVSPropertyOp42
 70
     0
102
RTVSPropertyOp43
 70
     0
102
RTVSPropertyOp44
 70
     0
102
RTVSPropertyOp45
 70
     0
102
RTVSPropertyOp46
 70
     0
102
RTVSPropertyOp47
 70
     0
102
RTVSPropertyOp48
 70
     0
102
RTVSPropertyOp49
 70
     0
102
RTVSPropertyOp50
 70
     0
102
RTVSPropertyOp51
 70
     0
102
RTVSPropertyOp52
 70
     0
102
RTVSPropertyOp53
 70
     0
102
RTVSPropertyOp54
 70
     0
102
RTVSPropertyOp55
 70
     0
102
RTVSPropertyOp56
 70
     0
102
RTVSPropertyOp57
 70
     0
102
RTVSPost2010Prop28
280
     0
102
RTVSPost2010PropOp28
 70
     0
102
RTVSPost2010Prop29
280
     1
102
RTVSPost2010PropOp29
 70
     0
102
RTVSPost2010Prop30
280
     1
102
RTVSPost2010PropOp30
 70
     0
102
RTVSPost2010Prop31
280
     0
102
RTVSPost2010PropOp31
 70
     0
102
RTVSPost2010Prop32
280
     0
102
RTVSPost2010PropOp32
 70
     0
102
RTVSPost2010Prop33
280
     0
102
RTVSPost2010PropOp33
 70
     0
102
RTVSPost2010Prop34
280
     0
102
RTVSPost2010PropOp34
 70
     0
102
RTVSPost2010Prop35
280
     0
102
RTVSPost2010PropOp35
 70
     0
102
RTVSPost2010Prop36
280
     0
102
RTVSPost2010PropOp36
 70
     0
102
RTVSPost2010Prop37
 90
       50
102
RTVSPost2010PropOp37
 70
     0
102
RTVSPost2010Prop38
140
0.0
102
RTVSPost2010PropOp38
 70
     0
102
RTVSPost2010Prop39
140
1.0
102
RTVSPost2010PropOp39
 70
     0
102
RTVSPost2010Prop40
 90
        0
102
RTVSPost2010PropOp40
 70
     0
102
RTVSPost2010Prop41ColorIndex
 90
       18
102
RTVSPost2010Prop41ColorRGB
 90
        0
102
RTVSPost2010PropOp41
 70
     0
102
RTVSPost2010Prop42
 90
       50
102
RTVSPost2010PropOp42
 70
     0
102
RTVSPost2010Prop43
 90
        3
102
RTVSPost2010PropOp43
 70
     0
102
RTVSPost2010Prop44ColorIndex
 90
        5
102
RTVSPost2010Prop44ColorRGB
 90
      255
102
RTVSPost2010PropOp44
 70
     0
102
RTVSPost2010Prop45
280
     0
102
RTVSPost2010PropOp45
 70
     0
102
RTVSPost2010Prop46
 90
       50
102
RTVSPost2010PropOp46
 70
     0
102
RTVSPost2010Prop47
 90
       50
102
RTVSPost2010PropOp47
 70
     0
102
RTVSPost2010Prop48
 90
       50
102
RTVSPost2010PropOp48
 70
     0
102
RTVSPost2010Prop49
280
     0
102
RTVSPost2010PropOp49
 70
     0
102
RTVSPost2010Prop50
 90
       50
102
RTVSPost2010PropOp50
 70
     0
102
RTVSPost2010Prop51ColorIndex
 90
      256
102
RTVSPost2010Prop51ColorRGB
 90
-16777216
102
RTVSPost2010PropOp51
 70
     0
102
RTVSPost2010Prop52
140
1.0
102
RTVSPost2010PropOp52
 70
     0
102
RTVSPost2010Prop53
 90
        2
102
RTVSPost2010PropOp53
 70
     0
102
RTVSPost2010Prop54
  1
strokes_ogs.tif
102
RTVSPost2010PropOp54
 70
     0
102
RTVSPost2010Prop55
280
     0
102
RTVSPost2010PropOp55
 70
     0
102
RTVSPost2010Prop56
140
1.0
102
RTVSPost2010PropOp56
 70
     0
102
RTVSPost2010Prop57
140
1.0
102
RTVSPost2010PropOp57
 70
     0
  0
XRECORD
  5
4BE
102
{ACAD_REACTORS
330
4BD
102
}
330
4BD
100
AcDbXrecord
280
     1
102
RTVSPropertyOp0
 70
     1
102
RTVSPropertyOp1
 70
     1
102
RTVSPropertyOp2
 70
     1
102
RTVSPropertyOp3
 70
     1
102
RTVSPropertyOp4
 70
     1
102
RTVSPropertyOp5
 70
     1
102
RTVSPropertyOp6
 70
     1
102
RTVSPropertyOp7
 70
     1
102
RTVSPropertyOp8
 70
     1
102
RTVSPropertyOp9
 70
     1
102
RTVSPropertyOp10
 70
     1
102
RTVSPropertyOp11
 70
     1
102
RTVSPropertyOp12
 70
     1
102
RTVSPropertyOp13
 70
     1
102
RTVSPropertyOp14
 70
     1
102
RTVSPropertyOp15
 70
     1
102
RTVSPropertyOp16
 70
     1
102
RTVSPropertyOp17
 70
     1
102
RTVSPropertyOp18
 70
     1
102
RTVSPropertyOp19
 70
     1
102
RTVSPropertyOp20
 70
     1
102
RTVSPropertyOp21
 70
     1
102
RTVSPropertyOp22
 70
     1
102
RTVSPropertyOp23
 70
     1
102
RTVSPropertyOp24
 70
     1
102
RTVSPropertyOp25
 70
     1
102
RTVSPropertyOp26
 70
     1
102
RTVSPropertyOp27
 70
     1
102
RTVSPropertyOp28
 70
     1
102
RTVSPropertyOp29
 70
     1
102
RTVSPropertyOp30
 70
     1
102
RTVSPropertyOp31
 70
     1
102
RTVSPropertyOp32
 70
     1
102
RTVSPropertyOp33
 70
     1
102
RTVSPropertyOp34
 70
     1
102
RTVSPropertyOp35
 70
     1
102
RTVSPropertyOp36
 70
     1
102
RTVSPropertyOp37
 70
     1
102
RTVSPropertyOp38
 70
     1
102
RTVSPropertyOp39
 70
     1
102
RTVSPropertyOp40
 70
     1
102
RTVSPropertyOp41
 70
     1
102
RTVSPropertyOp42
 70
     1
102
RTVSPropertyOp43
 70
     1
102
RTVSPropertyOp44
 70
     1
102
RTVSPropertyOp45
 70
     1
102
RTVSPropertyOp46
 70
     1
102
RTVSPropertyOp47
 70
     1
102
RTVSPropertyOp48
 70
     1
102
RTVSPropertyOp49
 70
     1
102
RTVSPropertyOp50
 70
     1
102
RTVSPropertyOp51
 70
     0
102
RTVSPropertyOp52
 70
     0
102
RTVSPropertyOp53
 70
     1
102
RTVSPropertyOp54
 70
     1
102
RTVSPropertyOp55
 70
     1
102
RTVSPropertyOp56
 70
     1
102
RTVSPropertyOp57
 70
     1
102
RTVSPost2010Prop28
280
     0
102
RTVSPost2010PropOp28
 70
     1
102
RTVSPost2010Prop29
280
     1
102
RTVSPost2010PropOp29
 70
     1
102
RTVSPost2010Prop30
280
     1
102
RTVSPost2010PropOp30
 70
     1
102
RTVSPost2010Prop31
280
     0
102
RTVSPost2010PropOp31
 70
     1
102
RTVSPost2010Prop32
280
     0
102
RTVSPost2010PropOp32
 70
     1
102
RTVSPost2010Prop33
280
     0
102
RTVSPost2010PropOp33
 70
     1
102
RTVSPost2010Prop34
280
     0
102
RTVSPost2010PropOp34
 70
     1
102
RTVSPost2010Prop35
280
     0
102
RTVSPost2010PropOp35
 70
     1
102
RTVSPost2010Prop36
280
     0
102
RTVSPost2010PropOp36
 70
     1
102
RTVSPost2010Prop37
 90
       50
102
RTVSPost2010PropOp37
 70
     1
102
RTVSPost2010Prop38
140
0.0
102
RTVSPost2010PropOp38
 70
     1
102
RTVSPost2010Prop39
140
1.0
102
RTVSPost2010PropOp39
 70
     1
102
RTVSPost2010Prop40
 90
        0
102
RTVSPost2010PropOp40
 70
     1
102
RTVSPost2010Prop41ColorIndex
 90
       18
102
RTVSPost2010Prop41ColorRGB
 90
        0
102
RTVSPost2010PropOp41
 70
     1
102
RTVSPost2010Prop42
 90
       50
102
RTVSPost2010PropOp42
 70
     1
102
RTVSPost2010Prop43
 90
        3
102
RTVSPost2010PropOp43
 70
     1
102
RTVSPost2010Prop44ColorIndex
 90
        5
102
RTVSPost2010Prop44ColorRGB
 90
      255
102
RTVSPost2010PropOp44
 70
     1
102
RTVSPost2010Prop45
280
     0
102
RTVSPost2010PropOp45
 70
     1
102
RTVSPost2010Prop46
 90
       50
102
RTVSPost2010PropOp46
 70
     1
102
RTVSPost2010Prop47
 90
       50
102
RTVSPost2010PropOp47
 70
     1
102
RTVSPost2010Prop48
 90
       50
102
RTVSPost2010PropOp48
 70
     1
102
RTVSPost2010Prop49
280
     0
102
RTVSPost2010PropOp49
 70
     1
102
RTVSPost2010Prop50
 90
       50
102
RTVSPost2010PropOp50
 70
     1
102
RTVSPost2010Prop51ColorIndex
 90
      256
102
RTVSPost2010Prop51ColorRGB
 90
-16777216
102
RTVSPost2010PropOp51
 70
     0
102
RTVSPost2010Prop52
140
1.0
102
RTVSPost2010PropOp52
 70
     0
102
RTVSPost2010Prop53
 90
        2
102
RTVSPost2010PropOp53
 70
     1
102
RTVSPost2010Prop54
  1
strokes_ogs.tif
102
RTVSPost2010PropOp54
 70
     1
102
RTVSPost2010Prop55
280
     0
102
RTVSPost2010PropOp55
 70
     1
102
RTVSPost2010Prop56
140
1.0
102
RTVSPost2010PropOp56
 70
     1
102
RTVSPost2010Prop57
140
1.0
102
RTVSPost2010PropOp57
 70
     1
  0
XRECORD
  5
4DC
102
{ACAD_REACTORS
330
4DB
102
}
330
4DB
100
AcDbXrecord
280
     1
102
RTVSPropertyOp0
 70
     1
102
RTVSPropertyOp1
 70
     1
102
RTVSPropertyOp2
 70
     1
102
RTVSPropertyOp3
 70
     1
102
RTVSPropertyOp4
 70
     1
102
RTVSPropertyOp5
 70
     1
102
RTVSPropertyOp6
 70
     1
102
RTVSPropertyOp7
 70
     1
102
RTVSPropertyOp8
 70
     1
102
RTVSPropertyOp9
 70
     1
102
RTVSPropertyOp10
 70
     1
102
RTVSPropertyOp11
 70
     1
102
RTVSPropertyOp12
 70
     1
102
RTVSPropertyOp13
 70
     1
102
RTVSPropertyOp14
 70
     1
102
RTVSPropertyOp15
 70
     1
102
RTVSPropertyOp16
 70
     1
102
RTVSPropertyOp17
 70
     1
102
RTVSPropertyOp18
 70
     1
102
RTVSPropertyOp19
 70
     1
102
RTVSPropertyOp20
 70
     1
102
RTVSPropertyOp21
 70
     1
102
RTVSPropertyOp22
 70
     1
102
RTVSPropertyOp23
 70
     1
102
RTVSPropertyOp24
 70
     1
102
RTVSPropertyOp25
 70
     1
102
RTVSPropertyOp26
 70
     1
102
RTVSPropertyOp27
 70
     1
102
RTVSPropertyOp28
 70
     1
102
RTVSPropertyOp29
 70
     1
102
RTVSPropertyOp30
 70
     1
102
RTVSPropertyOp31
 70
     1
102
RTVSPropertyOp32
 70
     1
102
RTVSPropertyOp33
 70
     1
102
RTVSPropertyOp34
 70
     1
102
RTVSPropertyOp35
 70
     1
102
RTVSPropertyOp36
 70
     1
102
RTVSPropertyOp37
 70
     1
102
RTVSPropertyOp38
 70
     1
102
RTVSPropertyOp39
 70
     1
102
RTVSPropertyOp40
 70
     1
102
RTVSPropertyOp41
 70
     1
102
RTVSPropertyOp42
 70
     1
102
RTVSPropertyOp43
 70
     1
102
RTVSPropertyOp44
 70
     1
102
RTVSPropertyOp45
 70
     1
102
RTVSPropertyOp46
 70
     1
102
RTVSPropertyOp47
 70
     1
102
RTVSPropertyOp48
 70
     1
102
RTVSPropertyOp49
 70
     1
102
RTVSPropertyOp50
 70
     1
102
RTVSPropertyOp51
 70
     0
102
RTVSPropertyOp52
 70
     0
102
RTVSPropertyOp53
 70
     1
102
RTVSPropertyOp54
 70
     1
102
RTVSPropertyOp55
 70
     1
102
RTVSPropertyOp56
 70
     1
102
RTVSPropertyOp57
 70
     1
102
RTVSPost2010Prop28
280
     0
102
RTVSPost2010PropOp28
 70
     1
102
RTVSPost2010Prop29
280
     1
102
RTVSPost2010PropOp29
 70
     1
102
RTVSPost2010Prop30
280
     1
102
RTVSPost2010PropOp30
 70
     1
102
RTVSPost2010Prop31
280
     0
102
RTVSPost2010PropOp31
 70
     1
102
RTVSPost2010Prop32
280
     0
102
RTVSPost2010PropOp32
 70
     1
102
RTVSPost2010Prop33
280
     0
102
RTVSPost2010PropOp33
 70
     1
102
RTVSPost2010Prop34
280
     0
102
RTVSPost2010PropOp34
 70
     1
102
RTVSPost2010Prop35
280
     0
102
RTVSPost2010PropOp35
 70
     1
102
RTVSPost2010Prop36
280
     0
102
RTVSPost2010PropOp36
 70
     1
102
RTVSPost2010Prop37
 90
       50
102
RTVSPost2010PropOp37
 70
     1
102
RTVSPost2010Prop38
140
0.0
102
RTVSPost2010PropOp38
 70
     1
102
RTVSPost2010Prop39
140
1.0
102
RTVSPost2010PropOp39
 70
     1
102
RTVSPost2010Prop40
 90
        0
102
RTVSPost2010PropOp40
 70
     1
102
RTVSPost2010Prop41ColorIndex
 90
       18
102
RTVSPost2010Prop41ColorRGB
 90
        0
102
RTVSPost2010PropOp41
 70
     1
102
RTVSPost2010Prop42
 90
       50
102
RTVSPost2010PropOp42
 70
     1
102
RTVSPost2010Prop43
 90
        3
102
RTVSPost2010PropOp43
 70
     1
102
RTVSPost2010Prop44ColorIndex
 90
        5
102
RTVSPost2010Prop44ColorRGB
 90
      255
102
RTVSPost2010PropOp44
 70
     1
102
RTVSPost2010Prop45
280
     0
102
RTVSPost2010PropOp45
 70
     1
102
RTVSPost2010Prop46
 90
       50
102
RTVSPost2010PropOp46
 70
     1
102
RTVSPost2010Prop47
 90
       50
102
RTVSPost2010PropOp47
 70
     1
102
RTVSPost2010Prop48
 90
       50
102
RTVSPost2010PropOp48
 70
     1
102
RTVSPost2010Prop49
280
     0
102
RTVSPost2010PropOp49
 70
     1
102
RTVSPost2010Prop50
 90
       50
102
RTVSPost2010PropOp50
 70
     1
102
RTVSPost2010Prop51ColorIndex
 90
      256
102
RTVSPost2010Prop51ColorRGB
 90
-16777216
102
RTVSPost2010PropOp51
 70
     0
102
RTVSPost2010Prop52
140
1.0
102
RTVSPost2010PropOp52
 70
     0
102
RTVSPost2010Prop53
 90
        2
102
RTVSPost2010PropOp53
 70
     1
102
RTVSPost2010Prop54
  1
strokes_ogs.tif
102
RTVSPost2010PropOp54
 70
     1
102
RTVSPost2010Prop55
280
     0
102
RTVSPost2010PropOp55
 70
     1
102
RTVSPost2010Prop56
140
1.0
102
RTVSPost2010PropOp56
 70
     1
102
RTVSPost2010Prop57
140
1.0
102
RTVSPost2010PropOp57
 70
     1
  0
XRECORD
  5
4DA
102
{ACAD_REACTORS
330
4D9
102
}
330
4D9
100
AcDbXrecord
280
     1
102
RTVSPropertyOp0
 70
     1
102
RTVSPropertyOp1
 70
     1
102
RTVSPropertyOp2
 70
     1
102
RTVSPropertyOp3
 70
     1
102
RTVSPropertyOp4
 70
     1
102
RTVSPropertyOp5
 70
     1
102
RTVSPropertyOp6
 70
     1
102
RTVSPropertyOp7
 70
     1
102
RTVSPropertyOp8
 70
     1
102
RTVSPropertyOp9
 70
     1
102
RTVSPropertyOp10
 70
     1
102
RTVSPropertyOp11
 70
     1
102
RTVSPropertyOp12
 70
     1
102
RTVSPropertyOp13
 70
     1
102
RTVSPropertyOp14
 70
     1
102
RTVSPropertyOp15
 70
     1
102
RTVSPropertyOp16
 70
     1
102
RTVSPropertyOp17
 70
     1
102
RTVSPropertyOp18
 70
     1
102
RTVSPropertyOp19
 70
     1
102
RTVSPropertyOp20
 70
     1
102
RTVSPropertyOp21
 70
     1
102
RTVSPropertyOp22
 70
     1
102
RTVSPropertyOp23
 70
     1
102
RTVSPropertyOp24
 70
     1
102
RTVSPropertyOp25
 70
     1
102
RTVSPropertyOp26
 70
     1
102
RTVSPropertyOp27
 70
     1
102
RTVSPropertyOp28
 70
     1
102
RTVSPropertyOp29
 70
     1
102
RTVSPropertyOp30
 70
     1
102
RTVSPropertyOp31
 70
     1
102
RTVSPropertyOp32
 70
     1
102
RTVSPropertyOp33
 70
     1
102
RTVSPropertyOp34
 70
     1
102
RTVSPropertyOp35
 70
     1
102
RTVSPropertyOp36
 70
     1
102
RTVSPropertyOp37
 70
     1
102
RTVSPropertyOp38
 70
     1
102
RTVSPropertyOp39
 70
     1
102
RTVSPropertyOp40
 70
     1
102
RTVSPropertyOp41
 70
     1
102
RTVSPropertyOp42
 70
     1
102
RTVSPropertyOp43
 70
     1
102
RTVSPropertyOp44
 70
     1
102
RTVSPropertyOp45
 70
     1
102
RTVSPropertyOp46
 70
     1
102
RTVSPropertyOp47
 70
     1
102
RTVSPropertyOp48
 70
     1
102
RTVSPropertyOp49
 70
     1
102
RTVSPropertyOp50
 70
     1
102
RTVSPropertyOp51
 70
     0
102
RTVSPropertyOp52
 70
     0
102
RTVSPropertyOp53
 70
     1
102
RTVSPropertyOp54
 70
     1
102
RTVSPropertyOp55
 70
     1
102
RTVSPropertyOp56
 70
     1
102
RTVSPropertyOp57
 70
     1
102
RTVSPost2010Prop28
280
     0
102
RTVSPost2010PropOp28
 70
     1
102
RTVSPost2010Prop29
280
     1
102
RTVSPost2010PropOp29
 70
     1
102
RTVSPost2010Prop30
280
     1
102
RTVSPost2010PropOp30
 70
     1
102
RTVSPost2010Prop31
280
     0
102
RTVSPost2010PropOp31
 70
     1
102
RTVSPost2010Prop32
280
     0
102
RTVSPost2010PropOp32
 70
     1
102
RTVSPost2010Prop33
280
     0
102
RTVSPost2010PropOp33
 70
     1
102
RTVSPost2010Prop34
280
     0
102
RTVSPost2010PropOp34
 70
     1
102
RTVSPost2010Prop35
280
     0
102
RTVSPost2010PropOp35
 70
     1
102
RTVSPost2010Prop36
280
     0
102
RTVSPost2010PropOp36
 70
     1
102
RTVSPost2010Prop37
 90
       50
102
RTVSPost2010PropOp37
 70
     1
102
RTVSPost2010Prop38
140
0.0
102
RTVSPost2010PropOp38
 70
     1
102
RTVSPost2010Prop39
140
1.0
102
RTVSPost2010PropOp39
 70
     1
102
RTVSPost2010Prop40
 90
        0
102
RTVSPost2010PropOp40
 70
     1
102
RTVSPost2010Prop41ColorIndex
 90
       18
102
RTVSPost2010Prop41ColorRGB
 90
        0
102
RTVSPost2010PropOp41
 70
     1
102
RTVSPost2010Prop42
 90
       50
102
RTVSPost2010PropOp42
 70
     1
102
RTVSPost2010Prop43
 90
        3
102
RTVSPost2010PropOp43
 70
     1
102
RTVSPost2010Prop44ColorIndex
 90
        5
102
RTVSPost2010Prop44ColorRGB
 90
      255
102
RTVSPost2010PropOp44
 70
     1
102
RTVSPost2010Prop45
280
     0
102
RTVSPost2010PropOp45
 70
     1
102
RTVSPost2010Prop46
 90
       50
102
RTVSPost2010PropOp46
 70
     1
102
RTVSPost2010Prop47
 90
       50
102
RTVSPost2010PropOp47
 70
     1
102
RTVSPost2010Prop48
 90
       50
102
RTVSPost2010PropOp48
 70
     1
102
RTVSPost2010Prop49
280
     0
102
RTVSPost2010PropOp49
 70
     1
102
RTVSPost2010Prop50
 90
       50
102
RTVSPost2010PropOp50
 70
     1
102
RTVSPost2010Prop51ColorIndex
 90
      256
102
RTVSPost2010Prop51ColorRGB
 90
-16777216
102
RTVSPost2010PropOp51
 70
     0
102
RTVSPost2010Prop52
140
1.0
102
RTVSPost2010PropOp52
 70
     0
102
RTVSPost2010Prop53
 90
        2
102
RTVSPost2010PropOp53
 70
     1
102
RTVSPost2010Prop54
  1
strokes_ogs.tif
102
RTVSPost2010PropOp54
 70
     1
102
RTVSPost2010Prop55
280
     0
102
RTVSPost2010PropOp55
 70
     1
102
RTVSPost2010Prop56
140
1.0
102
RTVSPost2010PropOp56
 70
     1
102
RTVSPost2010Prop57
140
1.0
102
RTVSPost2010PropOp57
 70
     1
  0
XRECORD
  5
4D4
102
{ACAD_REACTORS
330
4D3
102
}
330
4D3
100
AcDbXrecord
280
     1
102
RTVSPropertyOp0
 70
     1
102
RTVSPropertyOp1
 70
     1
102
RTVSPropertyOp2
 70
     1
102
RTVSPropertyOp3
 70
     1
102
RTVSPropertyOp4
 70
     1
102
RTVSPropertyOp5
 70
     1
102
RTVSPropertyOp6
 70
     1
102
RTVSPropertyOp7
 70
     1
102
RTVSPropertyOp8
 70
     1
102
RTVSPropertyOp9
 70
     1
102
RTVSPropertyOp10
 70
     1
102
RTVSPropertyOp11
 70
     1
102
RTVSPropertyOp12
 70
     1
102
RTVSPropertyOp13
 70
     1
102
RTVSPropertyOp14
 70
     1
102
RTVSPropertyOp15
 70
     1
102
RTVSPropertyOp16
 70
     1
102
RTVSPropertyOp17
 70
     1
102
RTVSPropertyOp18
 70
     1
102
RTVSPropertyOp19
 70
     1
102
RTVSPropertyOp20
 70
     1
102
RTVSPropertyOp21
 70
     1
102
RTVSPropertyOp22
 70
     1
102
RTVSPropertyOp23
 70
     1
102
RTVSPropertyOp24
 70
     1
102
RTVSPropertyOp25
 70
     1
102
RTVSPropertyOp26
 70
     1
102
RTVSPropertyOp27
 70
     1
102
RTVSPropertyOp28
 70
     1
102
RTVSPropertyOp29
 70
     1
102
RTVSPropertyOp30
 70
     1
102
RTVSPropertyOp31
 70
     1
102
RTVSPropertyOp32
 70
     1
102
RTVSPropertyOp33
 70
     1
102
RTVSPropertyOp34
 70
     1
102
RTVSPropertyOp35
 70
     1
102
RTVSPropertyOp36
 70
     1
102
RTVSPropertyOp37
 70
     1
102
RTVSPropertyOp38
 70
     1
102
RTVSPropertyOp39
 70
     1
102
RTVSPropertyOp40
 70
     1
102
RTVSPropertyOp41
 70
     1
102
RTVSPropertyOp42
 70
     1
102
RTVSPropertyOp43
 70
     1
102
RTVSPropertyOp44
 70
     1
102
RTVSPropertyOp45
 70
     1
102
RTVSPropertyOp46
 70
     1
102
RTVSPropertyOp47
 70
     1
102
RTVSPropertyOp48
 70
     1
102
RTVSPropertyOp49
 70
     1
102
RTVSPropertyOp50
 70
     1
102
RTVSPropertyOp51
 70
     0
102
RTVSPropertyOp52
 70
     0
102
RTVSPropertyOp53
 70
     1
102
RTVSPropertyOp54
 70
     1
102
RTVSPropertyOp55
 70
     1
102
RTVSPropertyOp56
 70
     1
102
RTVSPropertyOp57
 70
     1
102
RTVSPost2010Prop28
280
     0
102
RTVSPost2010PropOp28
 70
     1
102
RTVSPost2010Prop29
280
     1
102
RTVSPost2010PropOp29
 70
     1
102
RTVSPost2010Prop30
280
     1
102
RTVSPost2010PropOp30
 70
     1
102
RTVSPost2010Prop31
280
     0
102
RTVSPost2010PropOp31
 70
     1
102
RTVSPost2010Prop32
280
     0
102
RTVSPost2010PropOp32
 70
     1
102
RTVSPost2010Prop33
280
     0
102
RTVSPost2010PropOp33
 70
     1
102
RTVSPost2010Prop34
280
     0
102
RTVSPost2010PropOp34
 70
     1
102
RTVSPost2010Prop35
280
     0
102
RTVSPost2010PropOp35
 70
     1
102
RTVSPost2010Prop36
280
     0
102
RTVSPost2010PropOp36
 70
     1
102
RTVSPost2010Prop37
 90
       50
102
RTVSPost2010PropOp37
 70
     1
102
RTVSPost2010Prop38
140
0.0
102
RTVSPost2010PropOp38
 70
     1
102
RTVSPost2010Prop39
140
1.0
102
RTVSPost2010PropOp39
 70
     1
102
RTVSPost2010Prop40
 90
        0
102
RTVSPost2010PropOp40
 70
     1
102
RTVSPost2010Prop41ColorIndex
 90
       18
102
RTVSPost2010Prop41ColorRGB
 90
        0
102
RTVSPost2010PropOp41
 70
     1
102
RTVSPost2010Prop42
 90
       50
102
RTVSPost2010PropOp42
 70
     1
102
RTVSPost2010Prop43
 90
        3
102
RTVSPost2010PropOp43
 70
     1
102
RTVSPost2010Prop44ColorIndex
 90
        5
102
RTVSPost2010Prop44ColorRGB
 90
      255
102
RTVSPost2010PropOp44
 70
     1
102
RTVSPost2010Prop45
280
     0
102
RTVSPost2010PropOp45
 70
     1
102
RTVSPost2010Prop46
 90
       50
102
RTVSPost2010PropOp46
 70
     1
102
RTVSPost2010Prop47
 90
       50
102
RTVSPost2010PropOp47
 70
     1
102
RTVSPost2010Prop48
 90
       50
102
RTVSPost2010PropOp48
 70
     1
102
RTVSPost2010Prop49
280
     0
102
RTVSPost2010PropOp49
 70
     1
102
RTVSPost2010Prop50
 90
       50
102
RTVSPost2010PropOp50
 70
     1
102
RTVSPost2010Prop51ColorIndex
 90
      256
102
RTVSPost2010Prop51ColorRGB
 90
-16777216
102
RTVSPost2010PropOp51
 70
     0
102
RTVSPost2010Prop52
140
1.0
102
RTVSPost2010PropOp52
 70
     0
102
RTVSPost2010Prop53
 90
        2
102
RTVSPost2010PropOp53
 70
     1
102
RTVSPost2010Prop54
  1
strokes_ogs.tif
102
RTVSPost2010PropOp54
 70
     1
102
RTVSPost2010Prop55
280
     0
102
RTVSPost2010PropOp55
 70
     1
102
RTVSPost2010Prop56
140
1.0
102
RTVSPost2010PropOp56
 70
     1
102
RTVSPost2010Prop57
140
1.0
102
RTVSPost2010PropOp57
 70
     1
  0
XRECORD
  5
4D6
102
{ACAD_REACTORS
330
4D5
102
}
330
4D5
100
AcDbXrecord
280
     1
102
RTVSPropertyOp0
 70
     1
102
RTVSPropertyOp1
 70
     1
102
RTVSPropertyOp2
 70
     1
102
RTVSPropertyOp3
 70
     1
102
RTVSPropertyOp4
 70
     1
102
RTVSPropertyOp5
 70
     1
102
RTVSPropertyOp6
 70
     1
102
RTVSPropertyOp7
 70
     1
102
RTVSPropertyOp8
 70
     1
102
RTVSPropertyOp9
 70
     1
102
RTVSPropertyOp10
 70
     1
102
RTVSPropertyOp11
 70
     1
102
RTVSPropertyOp12
 70
     1
102
RTVSPropertyOp13
 70
     1
102
RTVSPropertyOp14
 70
     1
102
RTVSPropertyOp15
 70
     1
102
RTVSPropertyOp16
 70
     1
102
RTVSPropertyOp17
 70
     1
102
RTVSPropertyOp18
 70
     1
102
RTVSPropertyOp19
 70
     1
102
RTVSPropertyOp20
 70
     1
102
RTVSPropertyOp21
 70
     1
102
RTVSPropertyOp22
 70
     1
102
RTVSPropertyOp23
 70
     1
102
RTVSPropertyOp24
 70
     1
102
RTVSPropertyOp25
 70
     1
102
RTVSPropertyOp26
 70
     1
102
RTVSPropertyOp27
 70
     1
102
RTVSPropertyOp28
 70
     1
102
RTVSPropertyOp29
 70
     1
102
RTVSPropertyOp30
 70
     1
102
RTVSPropertyOp31
 70
     1
102
RTVSPropertyOp32
 70
     1
102
RTVSPropertyOp33
 70
     1
102
RTVSPropertyOp34
 70
     1
102
RTVSPropertyOp35
 70
     1
102
RTVSPropertyOp36
 70
     1
102
RTVSPropertyOp37
 70
     1
102
RTVSPropertyOp38
 70
     1
102
RTVSPropertyOp39
 70
     1
102
RTVSPropertyOp40
 70
     1
102
RTVSPropertyOp41
 70
     1
102
RTVSPropertyOp42
 70
     1
102
RTVSPropertyOp43
 70
     1
102
RTVSPropertyOp44
 70
     1
102
RTVSPropertyOp45
 70
     1
102
RTVSPropertyOp46
 70
     1
102
RTVSPropertyOp47
 70
     1
102
RTVSPropertyOp48
 70
     1
102
RTVSPropertyOp49
 70
     1
102
RTVSPropertyOp50
 70
     1
102
RTVSPropertyOp51
 70
     0
102
RTVSPropertyOp52
 70
     0
102
RTVSPropertyOp53
 70
     1
102
RTVSPropertyOp54
 70
     1
102
RTVSPropertyOp55
 70
     1
102
RTVSPropertyOp56
 70
     1
102
RTVSPropertyOp57
 70
     1
102
RTVSPost2010Prop28
280
     0
102
RTVSPost2010PropOp28
 70
     1
102
RTVSPost2010Prop29
280
     1
102
RTVSPost2010PropOp29
 70
     1
102
RTVSPost2010Prop30
280
     1
102
RTVSPost2010PropOp30
 70
     1
102
RTVSPost2010Prop31
280
     0
102
RTVSPost2010PropOp31
 70
     1
102
RTVSPost2010Prop32
280
     0
102
RTVSPost2010PropOp32
 70
     1
102
RTVSPost2010Prop33
280
     0
102
RTVSPost2010PropOp33
 70
     1
102
RTVSPost2010Prop34
280
     0
102
RTVSPost2010PropOp34
 70
     1
102
RTVSPost2010Prop35
280
     0
102
RTVSPost2010PropOp35
 70
     1
102
RTVSPost2010Prop36
280
     0
102
RTVSPost2010PropOp36
 70
     1
102
RTVSPost2010Prop37
 90
       50
102
RTVSPost2010PropOp37
 70
     1
102
RTVSPost2010Prop38
140
0.0
102
RTVSPost2010PropOp38
 70
     1
102
RTVSPost2010Prop39
140
1.0
102
RTVSPost2010PropOp39
 70
     1
102
RTVSPost2010Prop40
 90
        0
102
RTVSPost2010PropOp40
 70
     1
102
RTVSPost2010Prop41ColorIndex
 90
       18
102
RTVSPost2010Prop41ColorRGB
 90
        0
102
RTVSPost2010PropOp41
 70
     1
102
RTVSPost2010Prop42
 90
       50
102
RTVSPost2010PropOp42
 70
     1
102
RTVSPost2010Prop43
 90
        3
102
RTVSPost2010PropOp43
 70
     1
102
RTVSPost2010Prop44ColorIndex
 90
        5
102
RTVSPost2010Prop44ColorRGB
 90
      255
102
RTVSPost2010PropOp44
 70
     1
102
RTVSPost2010Prop45
280
     0
102
RTVSPost2010PropOp45
 70
     1
102
RTVSPost2010Prop46
 90
       50
102
RTVSPost2010PropOp46
 70
     1
102
RTVSPost2010Prop47
 90
       50
102
RTVSPost2010PropOp47
 70
     1
102
RTVSPost2010Prop48
 90
       50
102
RTVSPost2010PropOp48
 70
     1
102
RTVSPost2010Prop49
280
     0
102
RTVSPost2010PropOp49
 70
     1
102
RTVSPost2010Prop50
 90
       50
102
RTVSPost2010PropOp50
 70
     1
102
RTVSPost2010Prop51ColorIndex
 90
      256
102
RTVSPost2010Prop51ColorRGB
 90
-16777216
102
RTVSPost2010PropOp51
 70
     0
102
RTVSPost2010Prop52
140
1.0
102
RTVSPost2010PropOp52
 70
     0
102
RTVSPost2010Prop53
 90
        2
102
RTVSPost2010PropOp53
 70
     1
102
RTVSPost2010Prop54
  1
strokes_ogs.tif
102
RTVSPost2010PropOp54
 70
     1
102
RTVSPost2010Prop55
280
     0
102
RTVSPost2010PropOp55
 70
     1
102
RTVSPost2010Prop56
140
1.0
102
RTVSPost2010PropOp56
 70
     1
102
RTVSPost2010Prop57
140
1.0
102
RTVSPost2010PropOp57
 70
     1
  0
XRECORD
  5
4C6
102
{ACAD_REACTORS
330
4C5
102
}
330
4C5
100
AcDbXrecord
280
     1
102
RTVSPropertyOp0
 70
     1
102
RTVSPropertyOp1
 70
     1
102
RTVSPropertyOp2
 70
     1
102
RTVSPropertyOp3
 70
     1
102
RTVSPropertyOp4
 70
     1
102
RTVSPropertyOp5
 70
     1
102
RTVSPropertyOp6
 70
     1
102
RTVSPropertyOp7
 70
     1
102
RTVSPropertyOp8
 70
     1
102
RTVSPropertyOp9
 70
     1
102
RTVSPropertyOp10
 70
     1
102
RTVSPropertyOp11
 70
     1
102
RTVSPropertyOp12
 70
     1
102
RTVSPropertyOp13
 70
     1
102
RTVSPropertyOp14
 70
     1
102
RTVSPropertyOp15
 70
     1
102
RTVSPropertyOp16
 70
     1
102
RTVSPropertyOp17
 70
     1
102
RTVSPropertyOp18
 70
     1
102
RTVSPropertyOp19
 70
     1
102
RTVSPropertyOp20
 70
     1
102
RTVSPropertyOp21
 70
     1
102
RTVSPropertyOp22
 70
     1
102
RTVSPropertyOp23
 70
     1
102
RTVSPropertyOp24
 70
     1
102
RTVSPropertyOp25
 70
     1
102
RTVSPropertyOp26
 70
     1
102
RTVSPropertyOp27
 70
     1
102
RTVSPropertyOp28
 70
     1
102
RTVSPropertyOp29
 70
     1
102
RTVSPropertyOp30
 70
     1
102
RTVSPropertyOp31
 70
     1
102
RTVSPropertyOp32
 70
     1
102
RTVSPropertyOp33
 70
     1
102
RTVSPropertyOp34
 70
     1
102
RTVSPropertyOp35
 70
     1
102
RTVSPropertyOp36
 70
     1
102
RTVSPropertyOp37
 70
     1
102
RTVSPropertyOp38
 70
     1
102
RTVSPropertyOp39
 70
     1
102
RTVSPropertyOp40
 70
     1
102
RTVSPropertyOp41
 70
     1
102
RTVSPropertyOp42
 70
     1
102
RTVSPropertyOp43
 70
     1
102
RTVSPropertyOp44
 70
     1
102
RTVSPropertyOp45
 70
     1
102
RTVSPropertyOp46
 70
     1
102
RTVSPropertyOp47
 70
     1
102
RTVSPropertyOp48
 70
     1
102
RTVSPropertyOp49
 70
     1
102
RTVSPropertyOp50
 70
     1
102
RTVSPropertyOp51
 70
     0
102
RTVSPropertyOp52
 70
     0
102
RTVSPropertyOp53
 70
     1
102
RTVSPropertyOp54
 70
     1
102
RTVSPropertyOp55
 70
     1
102
RTVSPropertyOp56
 70
     1
102
RTVSPropertyOp57
 70
     1
102
RTVSPost2010Prop28
280
     0
102
RTVSPost2010PropOp28
 70
     1
102
RTVSPost2010Prop29
280
     1
102
RTVSPost2010PropOp29
 70
     1
102
RTVSPost2010Prop30
280
     1
102
RTVSPost2010PropOp30
 70
     1
102
RTVSPost2010Prop31
280
     0
102
RTVSPost2010PropOp31
 70
     1
102
RTVSPost2010Prop32
280
     0
102
RTVSPost2010PropOp32
 70
     1
102
RTVSPost2010Prop33
280
     0
102
RTVSPost2010PropOp33
 70
     1
102
RTVSPost2010Prop34
280
     0
102
RTVSPost2010PropOp34
 70
     1
102
RTVSPost2010Prop35
280
     0
102
RTVSPost2010PropOp35
 70
     1
102
RTVSPost2010Prop36
280
     0
102
RTVSPost2010PropOp36
 70
     1
102
RTVSPost2010Prop37
 90
       50
102
RTVSPost2010PropOp37
 70
     1
102
RTVSPost2010Prop38
140
0.0
102
RTVSPost2010PropOp38
 70
     1
102
RTVSPost2010Prop39
140
1.0
102
RTVSPost2010PropOp39
 70
     1
102
RTVSPost2010Prop40
 90
        0
102
RTVSPost2010PropOp40
 70
     1
102
RTVSPost2010Prop41ColorIndex
 90
       18
102
RTVSPost2010Prop41ColorRGB
 90
        0
102
RTVSPost2010PropOp41
 70
     1
102
RTVSPost2010Prop42
 90
       50
102
RTVSPost2010PropOp42
 70
     1
102
RTVSPost2010Prop43
 90
        3
102
RTVSPost2010PropOp43
 70
     1
102
RTVSPost2010Prop44ColorIndex
 90
        5
102
RTVSPost2010Prop44ColorRGB
 90
      255
102
RTVSPost2010PropOp44
 70
     1
102
RTVSPost2010Prop45
280
     0
102
RTVSPost2010PropOp45
 70
     1
102
RTVSPost2010Prop46
 90
       50
102
RTVSPost2010PropOp46
 70
     1
102
RTVSPost2010Prop47
 90
       50
102
RTVSPost2010PropOp47
 70
     1
102
RTVSPost2010Prop48
 90
       50
102
RTVSPost2010PropOp48
 70
     1
102
RTVSPost2010Prop49
280
     0
102
RTVSPost2010PropOp49
 70
     1
102
RTVSPost2010Prop50
 90
       50
102
RTVSPost2010PropOp50
 70
     1
102
RTVSPost2010Prop51ColorIndex
 90
      256
102
RTVSPost2010Prop51ColorRGB
 90
-16777216
102
RTVSPost2010PropOp51
 70
     0
102
RTVSPost2010Prop52
140
1.0
102
RTVSPost2010PropOp52
 70
     0
102
RTVSPost2010Prop53
 90
        2
102
RTVSPost2010PropOp53
 70
     1
102
RTVSPost2010Prop54
  1
strokes_ogs.tif
102
RTVSPost2010PropOp54
 70
     1
102
RTVSPost2010Prop55
280
     0
102
RTVSPost2010PropOp55
 70
     1
102
RTVSPost2010Prop56
140
1.0
102
RTVSPost2010PropOp56
 70
     1
102
RTVSPost2010Prop57
140
1.0
102
RTVSPost2010PropOp57
 70
     1
  0
XRECORD
  5
4B8
102
{ACAD_REACTORS
330
4B7
102
}
330
4B7
100
AcDbXrecord
280
     1
102
RTVSPropertyOp0
 70
     1
102
RTVSPropertyOp1
 70
     1
102
RTVSPropertyOp2
 70
     1
102
RTVSPropertyOp3
 70
     1
102
RTVSPropertyOp4
 70
     1
102
RTVSPropertyOp5
 70
     1
102
RTVSPropertyOp6
 70
     1
102
RTVSPropertyOp7
 70
     1
102
RTVSPropertyOp8
 70
     1
102
RTVSPropertyOp9
 70
     1
102
RTVSPropertyOp10
 70
     1
102
RTVSPropertyOp11
 70
     1
102
RTVSPropertyOp12
 70
     1
102
RTVSPropertyOp13
 70
     1
102
RTVSPropertyOp14
 70
     1
102
RTVSPropertyOp15
 70
     1
102
RTVSPropertyOp16
 70
     1
102
RTVSPropertyOp17
 70
     1
102
RTVSPropertyOp18
 70
     1
102
RTVSPropertyOp19
 70
     1
102
RTVSPropertyOp20
 70
     1
102
RTVSPropertyOp21
 70
     1
102
RTVSPropertyOp22
 70
     1
102
RTVSPropertyOp23
 70
     1
102
RTVSPropertyOp24
 70
     1
102
RTVSPropertyOp25
 70
     1
102
RTVSPropertyOp26
 70
     1
102
RTVSPropertyOp27
 70
     1
102
RTVSPropertyOp28
 70
     1
102
RTVSPropertyOp29
 70
     1
102
RTVSPropertyOp30
 70
     1
102
RTVSPropertyOp31
 70
     1
102
RTVSPropertyOp32
 70
     1
102
RTVSPropertyOp33
 70
     1
102
RTVSPropertyOp34
 70
     1
102
RTVSPropertyOp35
 70
     1
102
RTVSPropertyOp36
 70
     1
102
RTVSPropertyOp37
 70
     1
102
RTVSPropertyOp38
 70
     1
102
RTVSPropertyOp39
 70
     1
102
RTVSPropertyOp40
 70
     1
102
RTVSPropertyOp41
 70
     1
102
RTVSPropertyOp42
 70
     1
102
RTVSPropertyOp43
 70
     1
102
RTVSPropertyOp44
 70
     1
102
RTVSPropertyOp45
 70
     1
102
RTVSPropertyOp46
 70
     1
102
RTVSPropertyOp47
 70
     1
102
RTVSPropertyOp48
 70
     1
102
RTVSPropertyOp49
 70
     1
102
RTVSPropertyOp50
 70
     1
102
RTVSPropertyOp51
 70
     0
102
RTVSPropertyOp52
 70
     0
102
RTVSPropertyOp53
 70
     1
102
RTVSPropertyOp54
 70
     1
102
RTVSPropertyOp55
 70
     1
102
RTVSPropertyOp56
 70
     1
102
RTVSPropertyOp57
 70
     1
102
RTVSPost2010Prop28
280
     0
102
RTVSPost2010PropOp28
 70
     1
102
RTVSPost2010Prop29
280
     1
102
RTVSPost2010PropOp29
 70
     1
102
RTVSPost2010Prop30
280
     1
102
RTVSPost2010PropOp30
 70
     1
102
RTVSPost2010Prop31
280
     0
102
RTVSPost2010PropOp31
 70
     1
102
RTVSPost2010Prop32
280
     0
102
RTVSPost2010PropOp32
 70
     1
102
RTVSPost2010Prop33
280
     0
102
RTVSPost2010PropOp33
 70
     1
102
RTVSPost2010Prop34
280
     0
102
RTVSPost2010PropOp34
 70
     1
102
RTVSPost2010Prop35
280
     0
102
RTVSPost2010PropOp35
 70
     1
102
RTVSPost2010Prop36
280
     0
102
RTVSPost2010PropOp36
 70
     1
102
RTVSPost2010Prop37
 90
       50
102
RTVSPost2010PropOp37
 70
     1
102
RTVSPost2010Prop38
140
0.0
102
RTVSPost2010PropOp38
 70
     1
102
RTVSPost2010Prop39
140
1.0
102
RTVSPost2010PropOp39
 70
     1
102
RTVSPost2010Prop40
 90
        0
102
RTVSPost2010PropOp40
 70
     1
102
RTVSPost2010Prop41ColorIndex
 90
       18
102
RTVSPost2010Prop41ColorRGB
 90
        0
102
RTVSPost2010PropOp41
 70
     1
102
RTVSPost2010Prop42
 90
       50
102
RTVSPost2010PropOp42
 70
     1
102
RTVSPost2010Prop43
 90
        3
102
RTVSPost2010PropOp43
 70
     1
102
RTVSPost2010Prop44ColorIndex
 90
        5
102
RTVSPost2010Prop44ColorRGB
 90
      255
102
RTVSPost2010PropOp44
 70
     1
102
RTVSPost2010Prop45
280
     0
102
RTVSPost2010PropOp45
 70
     1
102
RTVSPost2010Prop46
 90
       50
102
RTVSPost2010PropOp46
 70
     1
102
RTVSPost2010Prop47
 90
       50
102
RTVSPost2010PropOp47
 70
     1
102
RTVSPost2010Prop48
 90
       50
102
RTVSPost2010PropOp48
 70
     1
102
RTVSPost2010Prop49
280
     0
102
RTVSPost2010PropOp49
 70
     1
102
RTVSPost2010Prop50
 90
       50
102
RTVSPost2010PropOp50
 70
     1
102
RTVSPost2010Prop51ColorIndex
 90
      256
102
RTVSPost2010Prop51ColorRGB
 90
-16777216
102
RTVSPost2010PropOp51
 70
     0
102
RTVSPost2010Prop52
140
1.0
102
RTVSPost2010PropOp52
 70
     0
102
RTVSPost2010Prop53
 90
        2
102
RTVSPost2010PropOp53
 70
     1
102
RTVSPost2010Prop54
  1
strokes_ogs.tif
102
RTVSPost2010PropOp54
 70
     1
102
RTVSPost2010Prop55
280
     0
102
RTVSPost2010PropOp55
 70
     1
102
RTVSPost2010Prop56
140
1.0
102
RTVSPost2010PropOp56
 70
     1
102
RTVSPost2010Prop57
140
1.0
102
RTVSPost2010PropOp57
 70
     1
  0
XRECORD
  5
4D8
102
{ACAD_REACTORS
330
4D7
102
}
330
4D7
100
AcDbXrecord
280
     1
102
RTVSPropertyOp0
 70
     1
102
RTVSPropertyOp1
 70
     1
102
RTVSPropertyOp2
 70
     1
102
RTVSPropertyOp3
 70
     1
102
RTVSPropertyOp4
 70
     1
102
RTVSPropertyOp5
 70
     1
102
RTVSPropertyOp6
 70
     1
102
RTVSPropertyOp7
 70
     1
102
RTVSPropertyOp8
 70
     1
102
RTVSPropertyOp9
 70
     1
102
RTVSPropertyOp10
 70
     1
102
RTVSPropertyOp11
 70
     1
102
RTVSPropertyOp12
 70
     1
102
RTVSPropertyOp13
 70
     1
102
RTVSPropertyOp14
 70
     1
102
RTVSPropertyOp15
 70
     1
102
RTVSPropertyOp16
 70
     1
102
RTVSPropertyOp17
 70
     1
102
RTVSPropertyOp18
 70
     1
102
RTVSPropertyOp19
 70
     1
102
RTVSPropertyOp20
 70
     1
102
RTVSPropertyOp21
 70
     1
102
RTVSPropertyOp22
 70
     1
102
RTVSPropertyOp23
 70
     1
102
RTVSPropertyOp24
 70
     1
102
RTVSPropertyOp25
 70
     1
102
RTVSPropertyOp26
 70
     1
102
RTVSPropertyOp27
 70
     1
102
RTVSPropertyOp28
 70
     1
102
RTVSPropertyOp29
 70
     1
102
RTVSPropertyOp30
 70
     1
102
RTVSPropertyOp31
 70
     1
102
RTVSPropertyOp32
 70
     1
102
RTVSPropertyOp33
 70
     1
102
RTVSPropertyOp34
 70
     1
102
RTVSPropertyOp35
 70
     1
102
RTVSPropertyOp36
 70
     1
102
RTVSPropertyOp37
 70
     1
102
RTVSPropertyOp38
 70
     1
102
RTVSPropertyOp39
 70
     1
102
RTVSPropertyOp40
 70
     1
102
RTVSPropertyOp41
 70
     1
102
RTVSPropertyOp42
 70
     1
102
RTVSPropertyOp43
 70
     1
102
RTVSPropertyOp44
 70
     1
102
RTVSPropertyOp45
 70
     1
102
RTVSPropertyOp46
 70
     1
102
RTVSPropertyOp47
 70
     1
102
RTVSPropertyOp48
 70
     1
102
RTVSPropertyOp49
 70
     1
102
RTVSPropertyOp50
 70
     1
102
RTVSPropertyOp51
 70
     0
102
RTVSPropertyOp52
 70
     0
102
RTVSPropertyOp53
 70
     1
102
RTVSPropertyOp54
 70
     1
102
RTVSPropertyOp55
 70
     1
102
RTVSPropertyOp56
 70
     1
102
RTVSPropertyOp57
 70
     1
102
RTVSPost2010Prop28
280
     0
102
RTVSPost2010PropOp28
 70
     1
102
RTVSPost2010Prop29
280
     1
102
RTVSPost2010PropOp29
 70
     1
102
RTVSPost2010Prop30
280
     1
102
RTVSPost2010PropOp30
 70
     1
102
RTVSPost2010Prop31
280
     0
102
RTVSPost2010PropOp31
 70
     1
102
RTVSPost2010Prop32
280
     0
102
RTVSPost2010PropOp32
 70
     1
102
RTVSPost2010Prop33
280
     0
102
RTVSPost2010PropOp33
 70
     1
102
RTVSPost2010Prop34
280
     0
102
RTVSPost2010PropOp34
 70
     1
102
RTVSPost2010Prop35
280
     0
102
RTVSPost2010PropOp35
 70
     1
102
RTVSPost2010Prop36
280
     0
102
RTVSPost2010PropOp36
 70
     1
102
RTVSPost2010Prop37
 90
       50
102
RTVSPost2010PropOp37
 70
     1
102
RTVSPost2010Prop38
140
0.0
102
RTVSPost2010PropOp38
 70
     1
102
RTVSPost2010Prop39
140
1.0
102
RTVSPost2010PropOp39
 70
     1
102
RTVSPost2010Prop40
 90
        0
102
RTVSPost2010PropOp40
 70
     1
102
RTVSPost2010Prop41ColorIndex
 90
       18
102
RTVSPost2010Prop41ColorRGB
 90
        0
102
RTVSPost2010PropOp41
 70
     1
102
RTVSPost2010Prop42
 90
       50
102
RTVSPost2010PropOp42
 70
     1
102
RTVSPost2010Prop43
 90
        3
102
RTVSPost2010PropOp43
 70
     1
102
RTVSPost2010Prop44ColorIndex
 90
        5
102
RTVSPost2010Prop44ColorRGB
 90
      255
102
RTVSPost2010PropOp44
 70
     1
102
RTVSPost2010Prop45
280
     0
102
RTVSPost2010PropOp45
 70
     1
102
RTVSPost2010Prop46
 90
       50
102
RTVSPost2010PropOp46
 70
     1
102
RTVSPost2010Prop47
 90
       50
102
RTVSPost2010PropOp47
 70
     1
102
RTVSPost2010Prop48
 90
       50
102
RTVSPost2010PropOp48
 70
     1
102
RTVSPost2010Prop49
280
     0
102
RTVSPost2010PropOp49
 70
     1
102
RTVSPost2010Prop50
 90
       50
102
RTVSPost2010PropOp50
 70
     1
102
RTVSPost2010Prop51ColorIndex
 90
      256
102
RTVSPost2010Prop51ColorRGB
 90
-16777216
102
RTVSPost2010PropOp51
 70
     0
102
RTVSPost2010Prop52
140
1.0
102
RTVSPost2010PropOp52
 70
     0
102
RTVSPost2010Prop53
 90
        2
102
RTVSPost2010PropOp53
 70
     1
102
RTVSPost2010Prop54
  1
strokes_ogs.tif
102
RTVSPost2010PropOp54
 70
     1
102
RTVSPost2010Prop55
280
     0
102
RTVSPost2010PropOp55
 70
     1
102
RTVSPost2010Prop56
140
1.0
102
RTVSPost2010PropOp56
 70
     1
102
RTVSPost2010Prop57
140
1.0
102
RTVSPost2010PropOp57
 70
     1
  0
ENDSEC
  0
EOF
