  0
SECTION
  2
HEADER
  9
$ACADVER
  1
AC1015
  9
$ACADMAINTVER
 70
     6
  9
$DWGCODEPAGE
  3
ANSI_932
  9
$INSBASE
 10
0.0
 20
0.0
 30
0.0
  9
$EXTMIN
 10
0.0
 20
0.0
 30
0.0
  9
$EXTMAX
 10
16820.0
 20
11880.0
 30
0.0
  9
$LIMMIN
 10
0.0
 20
0.0
  9
$LIMMAX
 10
20184.0
 20
14256.0
  9
$ORTHOMODE
 70
     0
  9
$REGENMODE
 70
     1
  9
$FILLMODE
 70
     1
  9
$QTEXTMODE
 70
     0
  9
$MIRRTEXT
 70
     1
  9
$LTSCALE
 40
350.0
  9
$ATTMODE
 70
     1
  9
$TEXTSIZE
 40
0.2
  9
$TRACEWID
 40
0.05
  9
$TEXTSTYLE
  7
Standard
  9
$CLAYER
  8
0
  9
$CELTYPE
  6
ByLayer
  9
$CECOLOR
 62
   256
  9
$CELTSCALE
 40
1.0
  9
$DISPSILH
 70
     0
  9
$DIMSCALE
 40
20.0
  9
$DIMASZ
 40
0.18
  9
$DIMEXO
 40
0.0625
  9
$DIMDLI
 40
0.38
  9
$DIMRND
 40
0.0
  9
$DIMDLE
 40
0.0
  9
$DIMEXE
 40
0.18
  9
$DIMTP
 40
0.0
  9
$DIMTM
 40
0.0
  9
$DIMTXT
 40
0.18
  9
$DIMCEN
 40
0.09
  9
$DIMTSZ
 40
0.0
  9
$DIMTOL
 70
     0
  9
$DIMLIM
 70
     0
  9
$DIMTIH
 70
     1
  9
$DIMTOH
 70
     1
  9
$DIMSE1
 70
     0
  9
$DIMSE2
 70
     0
  9
$DIMTAD
 70
     0
  9
$DIMZIN
 70
     0
  9
$DIMBLK
  1

  9
$DIMASO
 70
     1
  9
$DIMSHO
 70
     1
  9
$DIMPOST
  1

  9
$DIMAPOST
  1

  9
$DIMALT
 70
     0
  9
$DIMALTD
 70
     2
  9
$DIMALTF
 40
25.4
  9
$DIMLFAC
 40
1.0
  9
$DIMTOFL
 70
     0
  9
$DIMTVP
 40
0.0
  9
$DIMTIX
 70
     0
  9
$DIMSOXD
 70
     0
  9
$DIMSAH
 70
     0
  9
$DIMBLK1
  1

  9
$DIMBLK2
  1

  9
$DIMSTYLE
  2
Standard
  9
$DIMCLRD
 70
     0
  9
$DIMCLRE
 70
     0
  9
$DIMCLRT
 70
     0
  9
$DIMTFAC
 40
1.0
  9
$DIMGAP
 40
0.09
  9
$DIMJUST
 70
     0
  9
$DIMSD1
 70
     0
  9
$DIMSD2
 70
     0
  9
$DIMTOLJ
 70
     1
  9
$DIMTZIN
 70
     0
  9
$DIMALTZ
 70
     0
  9
$DIMALTTZ
 70
     0
  9
$DIMUPT
 70
     0
  9
$DIMDEC
 70
     4
  9
$DIMTDEC
 70
     4
  9
$DIMALTU
 70
     2
  9
$DIMALTTD
 70
     2
  9
$DIMTXSTY
  7
Standard
  9
$DIMAUNIT
 70
     0
  9
$DIMADEC
 70
     0
  9
$DIMALTRND
 40
0.0
  9
$DIMAZIN
 70
     0
  9
$DIMDSEP
 70
    46
  9
$DIMATFIT
 70
     3
  9
$DIMFRAC
 70
     0
  9
$DIMLDRBLK
  1

  9
$DIMLUNIT
 70
     2
  9
$DIMLWD
 70
    -2
  9
$DIMLWE
 70
    -2
  9
$DIMTMOVE
 70
     0
  9
$LUNITS
 70
     2
  9
$LUPREC
 70
     4
  9
$SKETCHINC
 40
0.1
  9
$FILLETRAD
 40
0.5
  9
$AUNITS
 70
     0
  9
$AUPREC
 70
     0
  9
$MENU
  1
.
  9
$ELEVATION
 40
0.0
  9
$PELEVATION
 40
0.0
  9
$THICKNESS
 40
0.0
  9
$LIMCHECK
 70
     0
  9
$CHAMFERA
 40
0.0
  9
$CHAMFERB
 40
0.0
  9
$CHAMFERC
 40
0.0
  9
$CHAMFERD
 40
0.0
  9
$SKPOLY
 70
     0
  9
$TDCREATE
 40
2460342.100486111
  9
$TDUCREATE
 40
2460341.725486111
  9
$TDUPDATE
 40
2460341.725490984
  9
$TDUUPDATE
 40
2460341.350490984
  9
$TDINDWG
 40
0.0000000116
  9
$TDUSRTIMER
 40
0.0000000116
  9
$USRTIMER
 70
     1
  9
$ANGBASE
 50
0.0
  9
$ANGDIR
 70
     0
  9
$PDMODE
 70
     0
  9
$PDSIZE
 40
0.0
  9
$PLINEWID
 40
0.0
  9
$SPLFRAME
 70
     0
  9
$SPLINETYPE
 70
     6
  9
$SPLINESEGS
 70
     8
  9
$HANDSEED
  5
5AE
  9
$SURFTAB1
 70
     6
  9
$SURFTAB2
 70
     6
  9
$SURFTYPE
 70
     6
  9
$SURFU
 70
     6
  9
$SURFV
 70
     6
  9
$UCSBASE
  2

  9
$UCSNAME
  2

  9
$UCSORG
 10
0.0
 20
0.0
 30
0.0
  9
$UCSXDIR
 10
1.0
 20
0.0
 30
0.0
  9
$UCSYDIR
 10
0.0
 20
1.0
 30
0.0
  9
$UCSORTHOREF
  2

  9
$UCSORTHOVIEW
 70
     0
  9
$UCSORGTOP
 10
0.0
 20
0.0
 30
0.0
  9
$UCSORGBOTTOM
 10
0.0
 20
0.0
 30
0.0
  9
$UCSORGLEFT
 10
0.0
 20
0.0
 30
0.0
  9
$UCSORGRIGHT
 10
0.0
 20
0.0
 30
0.0
  9
$UCSORGFRONT
 10
0.0
 20
0.0
 30
0.0
  9
$UCSORGBACK
 10
0.0
 20
0.0
 30
0.0
  9
$PUCSBASE
  2

  9
$PUCSNAME
  2

  9
$PUCSORG
 10
0.0
 20
0.0
 30
0.0
  9
$PUCSXDIR
 10
1.0
 20
0.0
 30
0.0
  9
$PUCSYDIR
 10
0.0
 20
1.0
 30
0.0
  9
$PUCSORTHOREF
  2

  9
$PUCSORTHOVIEW
 70
     0
  9
$PUCSORGTOP
 10
0.0
 20
0.0
 30
0.0
  9
$PUCSORGBOTTOM
 10
0.0
 20
0.0
 30
0.0
  9
$PUCSORGLEFT
 10
0.0
 20
0.0
 30
0.0
  9
$PUCSORGRIGHT
 10
0.0
 20
0.0
 30
0.0
  9
$PUCSORGFRONT
 10
0.0
 20
0.0
 30
0.0
  9
$PUCSORGBACK
 10
0.0
 20
0.0
 30
0.0
  9
$USERI1
 70
     0
  9
$USERI2
 70
     0
  9
$USERI3
 70
     0
  9
$USERI4
 70
     0
  9
$USERI5
 70
     0
  9
$USERR1
 40
0.0
  9
$USERR2
 40
0.0
  9
$USERR3
 40
0.0
  9
$USERR4
 40
0.0
  9
$USERR5
 40
0.0
  9
$WORLDVIEW
 70
     1
  9
$SHADEDGE
 70
     3
  9
$SHADEDIF
 70
    70
  9
$TILEMODE
 70
     1
  9
$MAXACTVP
 70
    64
  9
$PINSBASE
 10
0.0
 20
0.0
 30
0.0
  9
$PLIMCHECK
 70
     0
  9
$PEXTMIN
 10
0.0
 20
0.0
 30
0.0
  9
$PEXTMAX
 10
12.0
 20
9.0
 30
0.0
  9
$PLIMMIN
 10
0.0
 20
0.0
  9
$PLIMMAX
 10
12.0
 20
9.0
  9
$UNITMODE
 70
     0
  9
$VISRETAIN
 70
     1
  9
$PLINEGEN
 70
     0
  9
$PSLTSCALE
 70
     1
  9
$TREEDEPTH
 70
  3020
  9
$CMLSTYLE
  2
Standard
  9
$CMLJUST
 70
     0
  9
$CMLSCALE
 40
1.0
  9
$PROXYGRAPHICS
 70
     1
  9
$MEASUREMENT
 70
     1
  9
$CELWEIGHT
370
    -1
  9
$ENDCAPS
280
     0
  9
$JOINSTYLE
280
     0
  9
$LWDISPLAY
290
     0
  9
$INSUNITS
 70
     4
  9
$HYPERLINKBASE
  1

  9
$STYLESHEET
  1

  9
$XEDIT
290
     1
  9
$CEPSNTYPE
380
     0
  9
$PSTYLEMODE
290
     1
  9
$FINGERPRINTGUID
  2
{df253d3b-067d-4a61-a8c6-a942bba710b5}
  9
$VERSIONGUID
  2
{FAEB1C32-E019-11D5-929B-00C0DF256EC4}
  9
$EXTNAMES
290
     1
  9
$PSVPSCALE
 40
0.0
  9
$OLESTARTUP
290
     0
  0
ENDSEC
  0
SECTION
  2
CLASSES
  0
CLASS
  1
ACDBDICTIONARYWDFLT
  2
AcDbDictionaryWithDefault
  3
ObjectDBX Classes
 90
        0
280
     0
281
     0
  0
CLASS
  1
VISUALSTYLE
  2
AcDbVisualStyle
  3
ObjectDBX Classes
 90
     4095
280
     0
281
     0
  0
CLASS
  1
MATERIAL
  2
AcDbMaterial
  3
ObjectDBX Classes
 90
     1153
280
     0
281
     0
  0
CLASS
  1
SCALE
  2
AcDbScale
  3
ObjectDBX Classes
 90
     1153
280
     0
281
     0
  0
CLASS
  1
TABLESTYLE
  2
AcDbTableStyle
  3
ObjectDBX Classes
 90
     4095
280
     0
281
     0
  0
CLASS
  1
MLEADERSTYLE
  2
AcDbMLeaderStyle
  3
ACDB_MLEADERSTYLE_CLASS
 90
     4095
280
     0
281
     0
  0
CLASS
  1
SUN
  2
AcDbSun
  3
SCENEOE
 90
     1153
280
     0
281
     0
  0
CLASS
  1
DICTIONARYVAR
  2
AcDbDictionaryVar
  3
ObjectDBX Classes
 90
        0
280
     0
281
     0
  0
CLASS
  1
ACDBPLACEHOLDER
  2
AcDbPlaceHolder
  3
ObjectDBX Classes
 90
        0
280
     0
281
     0
  0
CLASS
  1
LAYOUT
  2
AcDbLayout
  3
ObjectDBX Classes
 90
        0
280
     0
281
     0
  0
ENDSEC
  0
SECTION
  2
TABLES
  0
TABLE
  2
VPORT
  5
8
102
{ACAD_XDICTIONARY
360
571
102
}
330
0
100
AcDbSymbolTable
 70
     1
  0
VPORT
  5
29
330
8
100
AcDbSymbolTableRecord
100
AcDbViewportTableRecord
  2
*Active
 70
     0
 10
0.0
 20
0.0
 11
1.0
 21
1.0
 12
5606.666666666667
 22
5940.0
 13
0.0
 23
0.0
 14
1.0
 24
1.0
 15
0.0
 25
0.0
 16
0.0
 26
0.0
 36
1.0
 17
0.0
 27
0.0
 37
0.0
 40
11880.0
 41
0.688564
 42
50.0
 43
0.0
 44
0.0
 50
0.0
 51
0.0
 71
     0
 72
   100
 73
     1
 74
     3
 75
     0
 76
     0
 77
     0
 78
     0
281
     0
 65
     0
110
0.0
120
0.0
130
0.0
111
1.0
121
0.0
131
0.0
112
0.0
122
1.0
132
0.0
 79
     0
146
0.0
  0
ENDTAB
  0
TABLE
  2
LTYPE
  5
5
330
0
100
AcDbSymbolTable
 70
     3
  0
LTYPE
  5
14
330
5
100
AcDbSymbolTableRecord
100
AcDbLinetypeTableRecord
  2
ByBlock
 70
     0
  3

 72
    65
 73
     0
 40
0.0
  0
LTYPE
  5
15
330
5
100
AcDbSymbolTableRecord
100
AcDbLinetypeTableRecord
  2
ByLayer
 70
     0
  3

 72
    65
 73
     0
 40
0.0
  0
LTYPE
  5
16
330
5
100
AcDbSymbolTableRecord
100
AcDbLinetypeTableRecord
  2
Continuous
 70
     0
  3
Solid line
 72
    65
 73
     0
 40
0.0
  0
LTYPE
  5
B1
330
5
100
AcDbSymbolTableRecord
100
AcDbLinetypeTableRecord
  2
DASHED2
 70
     0
  3
_ _ _ _ _ _ _ _ _ _ _ _ _ _ _ _ _ _ _
 72
    65
 73
     2
 40
0.375
 49
0.25
 74
     0
 49
-0.125
 74
     0
  0
LTYPE
  5
B3
330
5
100
AcDbSymbolTableRecord
100
AcDbLinetypeTableRecord
  2
CENTER2
 70
     0
  3
___ _ ___ _ ___ _ ___ _ ___ _ ___ _ _
 72
    65
 73
     4
 40
1.125
 49
0.75
 74
     0
 49
-0.125
 74
     0
 49
0.125
 74
     0
 49
-0.125
 74
     0
  0
ENDTAB
  0
TABLE
  2
LAYER
  5
2
330
0
100
AcDbSymbolTable
 70
     8
  0
LAYER
  5
10
330
2
100
AcDbSymbolTableRecord
100
AcDbLayerTableRecord
  2
0
 70
     0
 62
     7
  6
Continuous
370
    -3
390
F
  0
LAYER
  5
B0
330
2
100
AcDbSymbolTableRecord
100
AcDbLayerTableRecord
  2
寸法
 70
     0
 62
     2
  6
Continuous
370
     5
390
F
  0
LAYER
  5
B2
330
2
100
AcDbSymbolTableRecord
100
AcDbLayerTableRecord
  2
06-ダクト内線
 70
     0
 62
     6
  6
DASHED2
370
     9
390
F
  0
LAYER
  5
B4
330
2
100
AcDbSymbolTableRecord
100
AcDbLayerTableRecord
  2
04-ダクトセンター
 70
     0
 62
     1
  6
CENTER2
370
     5
390
F
  0
LAYER
  5
B5
330
2
100
AcDbSymbolTableRecord
100
AcDbLayerTableRecord
  2
05-ダクト外線
 70
     0
 62
     4
  6
Continuous
370
    13
390
F
  0
LAYER
  5
B6
330
2
100
AcDbSymbolTableRecord
100
AcDbLayerTableRecord
  2
03-文字-2
 70
     0
 62
     7
  6
Continuous
370
     5
390
F
  0
LAYER
  5
B7
330
2
100
AcDbSymbolTableRecord
100
AcDbLayerTableRecord
  2
Defpoints
 70
     0
 62
    98
  6
Continuous
290
     0
370
    -3
390
F
  0
LAYER
  5
B8
330
2
100
AcDbSymbolTableRecord
100
AcDbLayerTableRecord
  2
シンボル
 70
     0
 62
     7
  6
Continuous
370
     5
390
F
  0
ENDTAB
  0
TABLE
  2
STYLE
  5
3
330
0
100
AcDbSymbolTable
 70
     4
  0
STYLE
  5
11
330
3
100
AcDbSymbolTableRecord
100
AcDbTextStyleTableRecord
  2
Standard
 70
     0
 40
0.0
 41
1.0
 50
0.0
 71
     0
 42
0.2
  3
txt
  4
extfont2
  0
STYLE
  5
6E
330
3
100
AcDbSymbolTableRecord
100
AcDbTextStyleTableRecord
  2
MONOSTYLE-H
 70
     0
 40
0.0
 41
1.0
 50
0.0
 71
     0
 42
0.2
  3
monotxt
  4
extfont2
  0
STYLE
  5
6F
330
3
100
AcDbSymbolTableRecord
100
AcDbTextStyleTableRecord
  2
TATEGAKI
 70
     4
 40
0.0
 41
1.0
 50
0.0
 71
     0
 42
0.2
  3
txt
  4
@extfont2
  0
STYLE
  5
70
330
3
100
AcDbSymbolTableRecord
100
AcDbTextStyleTableRecord
  2
MONOSTYLE-V
 70
     4
 40
0.0
 41
1.0
 50
0.0
 71
     0
 42
0.2
  3
monotxt
  4
@extfont2
  0
ENDTAB
  0
TABLE
  2
VIEW
  5
6
330
0
100
AcDbSymbolTable
 70
     0
  0
ENDTAB
  0
TABLE
  2
UCS
  5
7
330
0
100
AcDbSymbolTable
 70
     0
  0
ENDTAB
  0
TABLE
  2
APPID
  5
9
330
0
100
AcDbSymbolTable
 70
     2
  0
APPID
  5
12
330
9
100
AcDbSymbolTableRecord
100
AcDbRegAppTableRecord
  2
ACAD
 70
     0
  0
APPID
  5
5AB
330
9
100
AcDbSymbolTableRecord
100
AcDbRegAppTableRecord
  2
ACAD_MLEADERVER
 70
     0
  0
ENDTAB
  0
TABLE
  2
DIMSTYLE
  5
A
330
0
100
AcDbSymbolTable
 70
     1
100
AcDbDimStyleTable
  0
DIMSTYLE
105
27
330
A
100
AcDbSymbolTableRecord
100
AcDbDimStyleTableRecord
  2
Standard
 70
     0
178
     0
340
11
  0
ENDTAB
  0
TABLE
  2
BLOCK_RECORD
  5
1
330
0
100
AcDbSymbolTable
 70
    70
  0
BLOCK_RECORD
  5
1F
330
1
100
AcDbSymbolTableRecord
100
AcDbBlockTableRecord
  2
*Model_Space
340
22
  0
BLOCK_RECORD
  5
1B
330
1
100
AcDbSymbolTableRecord
100
AcDbBlockTableRecord
  2
*Paper_Space
340
1E
  0
BLOCK_RECORD
  5
CC
330
1
100
AcDbSymbolTableRecord
100
AcDbBlockTableRecord
  2
INS-D8WI6
340
0
102
{BLKREFS
331
CF
102
}
  0
BLOCK_RECORD
  5
D6
330
1
100
AcDbSymbolTableRecord
100
AcDbBlockTableRecord
  2
INS-DXB8O
340
0
102
{BLKREFS
331
D9
102
}
  0
BLOCK_RECORD
  5
DE
330
1
100
AcDbSymbolTableRecord
100
AcDbBlockTableRecord
  2
INS-DNO7T
340
0
102
{BLKREFS
331
E1
102
}
  0
BLOCK_RECORD
  5
FE
330
1
100
AcDbSymbolTableRecord
100
AcDbBlockTableRecord
  2
INS-D7I27
340
0
102
{BLKREFS
331
101
102
}
  0
BLOCK_RECORD
  5
108
330
1
100
AcDbSymbolTableRecord
100
AcDbBlockTableRecord
  2
INS-D9HIS
340
0
102
{BLKREFS
331
10B
102
}
  0
BLOCK_RECORD
  5
110
330
1
100
AcDbSymbolTableRecord
100
AcDbBlockTableRecord
  2
INS-D87LP
340
0
102
{BLKREFS
331
113
102
}
  0
BLOCK_RECORD
  5
12D
330
1
100
AcDbSymbolTableRecord
100
AcDbBlockTableRecord
  2
INS-D7HER
340
0
102
{BLKREFS
331
130
102
}
  0
BLOCK_RECORD
  5
137
330
1
100
AcDbSymbolTableRecord
100
AcDbBlockTableRecord
  2
INS-D6ZAZ
340
0
102
{BLKREFS
331
13A
102
}
  0
BLOCK_RECORD
  5
14E
330
1
100
AcDbSymbolTableRecord
100
AcDbBlockTableRecord
  2
INS-DJYXS
340
0
102
{BLKREFS
331
151
102
}
  0
BLOCK_RECORD
  5
158
330
1
100
AcDbSymbolTableRecord
100
AcDbBlockTableRecord
  2
INS-D61X1
340
0
102
{BLKREFS
331
15B
102
}
  0
BLOCK_RECORD
  5
18B
330
1
100
AcDbSymbolTableRecord
100
AcDbBlockTableRecord
  2
INS-D90GH
340
0
102
{BLKREFS
331
18E
102
}
  0
BLOCK_RECORD
  5
195
330
1
100
AcDbSymbolTableRecord
100
AcDbBlockTableRecord
  2
INS-DE4EG
340
0
102
{BLKREFS
331
198
102
}
  0
BLOCK_RECORD
  5
19D
330
1
100
AcDbSymbolTableRecord
100
AcDbBlockTableRecord
  2
INS-D6F8L
340
0
102
{BLKREFS
331
1A0
102
}
  0
BLOCK_RECORD
  5
1BD
330
1
100
AcDbSymbolTableRecord
100
AcDbBlockTableRecord
  2
INS-D8W0W
340
0
102
{BLKREFS
331
1C0
102
}
  0
BLOCK_RECORD
  5
1C7
330
1
100
AcDbSymbolTableRecord
100
AcDbBlockTableRecord
  2
INS-D58RQ
340
0
102
{BLKREFS
331
1CA
102
}
  0
BLOCK_RECORD
  5
1CF
330
1
100
AcDbSymbolTableRecord
100
AcDbBlockTableRecord
  2
INS-D5CAA
340
0
102
{BLKREFS
331
1D2
102
}
  0
BLOCK_RECORD
  5
1EF
330
1
100
AcDbSymbolTableRecord
100
AcDbBlockTableRecord
  2
INS-D7UEW
340
0
102
{BLKREFS
331
1F2
102
}
  0
BLOCK_RECORD
  5
1F9
330
1
100
AcDbSymbolTableRecord
100
AcDbBlockTableRecord
  2
INS-D7IYV
340
0
102
{BLKREFS
331
1FC
102
}
  0
BLOCK_RECORD
  5
201
330
1
100
AcDbSymbolTableRecord
100
AcDbBlockTableRecord
  2
INS-DJDJT
340
0
102
{BLKREFS
331
204
102
}
  0
BLOCK_RECORD
  5
221
330
1
100
AcDbSymbolTableRecord
100
AcDbBlockTableRecord
  2
INS-DRAEL
340
0
102
{BLKREFS
331
224
102
}
  0
BLOCK_RECORD
  5
22B
330
1
100
AcDbSymbolTableRecord
100
AcDbBlockTableRecord
  2
INS-DQ4LX
340
0
102
{BLKREFS
331
22E
102
}
  0
BLOCK_RECORD
  5
233
330
1
100
AcDbSymbolTableRecord
100
AcDbBlockTableRecord
  2
INS-D7XAS
340
0
102
{BLKREFS
331
236
102
}
  0
BLOCK_RECORD
  5
253
330
1
100
AcDbSymbolTableRecord
100
AcDbBlockTableRecord
  2
INS-D3UXT
340
0
102
{BLKREFS
331
256
102
}
  0
BLOCK_RECORD
  5
25D
330
1
100
AcDbSymbolTableRecord
100
AcDbBlockTableRecord
  2
INS-D919O
340
0
102
{BLKREFS
331
260
102
}
  0
BLOCK_RECORD
  5
265
330
1
100
AcDbSymbolTableRecord
100
AcDbBlockTableRecord
  2
INS-D775L
340
0
102
{BLKREFS
331
268
102
}
  0
BLOCK_RECORD
  5
285
330
1
100
AcDbSymbolTableRecord
100
AcDbBlockTableRecord
  2
INS-DOVTR
340
0
102
{BLKREFS
331
288
102
}
  0
BLOCK_RECORD
  5
28F
330
1
100
AcDbSymbolTableRecord
100
AcDbBlockTableRecord
  2
INS-DWMV8
340
0
102
{BLKREFS
331
292
102
}
  0
BLOCK_RECORD
  5
297
330
1
100
AcDbSymbolTableRecord
100
AcDbBlockTableRecord
  2
INS-DSYKO
340
0
102
{BLKREFS
331
29A
102
}
  0
BLOCK_RECORD
  5
2B7
330
1
100
AcDbSymbolTableRecord
100
AcDbBlockTableRecord
  2
INS-D782R
340
0
102
{BLKREFS
331
2BA
102
}
  0
BLOCK_RECORD
  5
2C1
330
1
100
AcDbSymbolTableRecord
100
AcDbBlockTableRecord
  2
INS-D78EH
340
0
102
{BLKREFS
331
2C4
102
}
  0
BLOCK_RECORD
  5
2C9
330
1
100
AcDbSymbolTableRecord
100
AcDbBlockTableRecord
  2
INS-D8Z4G
340
0
102
{BLKREFS
331
2CC
102
}
  0
BLOCK_RECORD
  5
2E9
330
1
100
AcDbSymbolTableRecord
100
AcDbBlockTableRecord
  2
INS-D5MIN
340
0
102
{BLKREFS
331
2EC
102
}
  0
BLOCK_RECORD
  5
2F3
330
1
100
AcDbSymbolTableRecord
100
AcDbBlockTableRecord
  2
INS-DN0TX
340
0
102
{BLKREFS
331
2F6
102
}
  0
BLOCK_RECORD
  5
2FB
330
1
100
AcDbSymbolTableRecord
100
AcDbBlockTableRecord
  2
INS-DD332
340
0
102
{BLKREFS
331
2FE
102
}
  0
BLOCK_RECORD
  5
31B
330
1
100
AcDbSymbolTableRecord
100
AcDbBlockTableRecord
  2
INS-D6X42
340
0
102
{BLKREFS
331
31E
102
}
  0
BLOCK_RECORD
  5
325
330
1
100
AcDbSymbolTableRecord
100
AcDbBlockTableRecord
  2
INS-D8EDS
340
0
102
{BLKREFS
331
328
102
}
  0
BLOCK_RECORD
  5
32D
330
1
100
AcDbSymbolTableRecord
100
AcDbBlockTableRecord
  2
INS-D6M1J
340
0
102
{BLKREFS
331
330
102
}
  0
BLOCK_RECORD
  5
34E
330
1
100
AcDbSymbolTableRecord
100
AcDbBlockTableRecord
  2
INS-D4J01
340
0
102
{BLKREFS
331
351
102
}
  0
BLOCK_RECORD
  5
358
330
1
100
AcDbSymbolTableRecord
100
AcDbBlockTableRecord
  2
INS-D6Q23
340
0
102
{BLKREFS
331
35B
102
}
  0
BLOCK_RECORD
  5
360
330
1
100
AcDbSymbolTableRecord
100
AcDbBlockTableRecord
  2
INS-DM1R4
340
0
102
{BLKREFS
331
363
102
}
  0
BLOCK_RECORD
  5
380
330
1
100
AcDbSymbolTableRecord
100
AcDbBlockTableRecord
  2
INS-D4684
340
0
102
{BLKREFS
331
383
102
}
  0
BLOCK_RECORD
  5
38A
330
1
100
AcDbSymbolTableRecord
100
AcDbBlockTableRecord
  2
INS-D7RI8
340
0
102
{BLKREFS
331
38D
102
}
  0
BLOCK_RECORD
  5
392
330
1
100
AcDbSymbolTableRecord
100
AcDbBlockTableRecord
  2
INS-D8DEV
340
0
102
{BLKREFS
331
395
102
}
  0
BLOCK_RECORD
  5
3B2
330
1
100
AcDbSymbolTableRecord
100
AcDbBlockTableRecord
  2
INS-D50FL
340
0
102
{BLKREFS
331
3B5
102
}
  0
BLOCK_RECORD
  5
3BC
330
1
100
AcDbSymbolTableRecord
100
AcDbBlockTableRecord
  2
INS-D3W0V
340
0
102
{BLKREFS
331
3BF
102
}
  0
BLOCK_RECORD
  5
3C4
330
1
100
AcDbSymbolTableRecord
100
AcDbBlockTableRecord
  2
INS-D3M2B
340
0
102
{BLKREFS
331
3C7
102
}
  0
BLOCK_RECORD
  5
3E0
330
1
100
AcDbSymbolTableRecord
100
AcDbBlockTableRecord
  2
INS-D55T4
340
0
102
{BLKREFS
331
3E3
102
}
  0
BLOCK_RECORD
  5
3EA
330
1
100
AcDbSymbolTableRecord
100
AcDbBlockTableRecord
  2
INS-DZ10E
340
0
102
{BLKREFS
331
3ED
102
}
  0
BLOCK_RECORD
  5
401
330
1
100
AcDbSymbolTableRecord
100
AcDbBlockTableRecord
  2
INS-D7CD4
340
0
102
{BLKREFS
331
404
102
}
  0
BLOCK_RECORD
  5
40B
330
1
100
AcDbSymbolTableRecord
100
AcDbBlockTableRecord
  2
INS-D8QXC
340
0
102
{BLKREFS
331
40E
102
}
  0
BLOCK_RECORD
  5
422
330
1
100
AcDbSymbolTableRecord
100
AcDbBlockTableRecord
  2
INS-DKQNQ
340
0
102
{BLKREFS
331
425
102
}
  0
BLOCK_RECORD
  5
42C
330
1
100
AcDbSymbolTableRecord
100
AcDbBlockTableRecord
  2
INS-D65EO
340
0
102
{BLKREFS
331
42F
102
}
  0
BLOCK_RECORD
  5
443
330
1
100
AcDbSymbolTableRecord
100
AcDbBlockTableRecord
  2
INS-D92V6
340
0
102
{BLKREFS
331
446
102
}
  0
BLOCK_RECORD
  5
44D
330
1
100
AcDbSymbolTableRecord
100
AcDbBlockTableRecord
  2
INS-D46PK
340
0
102
{BLKREFS
331
450
102
}
  0
BLOCK_RECORD
  5
464
330
1
100
AcDbSymbolTableRecord
100
AcDbBlockTableRecord
  2
INS-D9MMC
340
0
102
{BLKREFS
331
467
102
}
  0
BLOCK_RECORD
  5
46E
330
1
100
AcDbSymbolTableRecord
100
AcDbBlockTableRecord
  2
INS-D70LU
340
0
102
{BLKREFS
331
471
102
}
  0
BLOCK_RECORD
  5
485
330
1
100
AcDbSymbolTableRecord
100
AcDbBlockTableRecord
  2
INS-D67NQ
340
0
102
{BLKREFS
331
488
102
}
  0
BLOCK_RECORD
  5
48F
330
1
100
AcDbSymbolTableRecord
100
AcDbBlockTableRecord
  2
INS-DWT09
340
0
102
{BLKREFS
331
492
102
}
  0
BLOCK_RECORD
  5
4A6
330
1
100
AcDbSymbolTableRecord
100
AcDbBlockTableRecord
  2
INS-D8F48
340
0
102
{BLKREFS
331
4A9
102
}
  0
BLOCK_RECORD
  5
4B0
330
1
100
AcDbSymbolTableRecord
100
AcDbBlockTableRecord
  2
INS-D8EYJ
340
0
102
{BLKREFS
331
4B3
102
}
  0
BLOCK_RECORD
  5
4C7
330
1
100
AcDbSymbolTableRecord
100
AcDbBlockTableRecord
  2
INS-D8HGO
340
0
102
{BLKREFS
331
4CA
102
}
  0
BLOCK_RECORD
  5
4D1
330
1
100
AcDbSymbolTableRecord
100
AcDbBlockTableRecord
  2
INS-D3TO9
340
0
102
{BLKREFS
331
4D4
102
}
  0
BLOCK_RECORD
  5
4E8
330
1
100
AcDbSymbolTableRecord
100
AcDbBlockTableRecord
  2
INS-DA5NJ
340
0
102
{BLKREFS
331
4EB
102
}
  0
BLOCK_RECORD
  5
4F2
330
1
100
AcDbSymbolTableRecord
100
AcDbBlockTableRecord
  2
INS-D5AO9
340
0
102
{BLKREFS
331
4F5
102
}
  0
BLOCK_RECORD
  5
50A
330
1
100
AcDbSymbolTableRecord
100
AcDbBlockTableRecord
  2
INS-DC94Y
340
0
102
{BLKREFS
331
50D
102
}
  0
BLOCK_RECORD
  5
514
330
1
100
AcDbSymbolTableRecord
100
AcDbBlockTableRecord
  2
INS-D81PW
340
0
102
{BLKREFS
331
517
102
}
  0
BLOCK_RECORD
  5
52B
330
1
100
AcDbSymbolTableRecord
100
AcDbBlockTableRecord
  2
INS-DE90K
340
0
102
{BLKREFS
331
52E
102
}
  0
BLOCK_RECORD
  5
535
330
1
100
AcDbSymbolTableRecord
100
AcDbBlockTableRecord
  2
INS-D6RK2
340
0
102
{BLKREFS
331
538
102
}
  0
BLOCK_RECORD
  5
54C
330
1
100
AcDbSymbolTableRecord
100
AcDbBlockTableRecord
  2
INS-D7CC2
340
0
102
{BLKREFS
331
54F
102
}
  0
BLOCK_RECORD
  5
556
330
1
100
AcDbSymbolTableRecord
100
AcDbBlockTableRecord
  2
INS-D7K5C
340
0
102
{BLKREFS
331
559
102
}
  0
ENDTAB
  0
ENDSEC
  0
SECTION
  2
BLOCKS
  0
BLOCK
  5
20
330
1F
100
AcDbEntity
  8
0
100
AcDbBlockBegin
  2
*Model_Space
 70
     0
 10
0.0
 20
0.0
 30
0.0
  3
*Model_Space
  1

  0
ENDBLK
  5
21
330
1F
100
AcDbEntity
  8
0
100
AcDbBlockEnd
  0
BLOCK
  5
1C
330
1B
100
AcDbEntity
 67
     1
  8
0
100
AcDbBlockBegin
  2
*Paper_Space
 70
     0
 10
0.0
 20
0.0
 30
0.0
  3
*Paper_Space
  1

  0
ENDBLK
  5
1D
330
1B
100
AcDbEntity
 67
     1
  8
0
100
AcDbBlockEnd
  0
BLOCK
  5
CD
330
CC
100
AcDbEntity
  8
0
100
AcDbBlockBegin
  2
INS-D8WI6
 70
     0
 10
0.0
 20
0.0
 30
0.0
  3
INS-D8WI6
  1

  0
TEXT
  5
D0
330
CC
100
AcDbEntity
  8
寸法
  6
Continuous
100
AcDbText
 10
-29.19964616815014
 20
-32.28000000000728
 30
0.0
 40
19.982
  1
φ95
 50
90.0
 41
1.056781492035411
 72
     1
 11
-29.19964616815014
 21
-0.000000000007276
 31
0.0
100
AcDbText
  0
LINE
  5
D1
330
CC
100
AcDbEntity
  8
寸法
  6
Continuous
100
AcDbLine
 10
51.80035383184986
 20
-47.50000000001091
 30
0.0
 11
-19.19964616815014
 21
-47.50000000001091
 31
0.0
  0
LINE
  5
D2
330
CC
100
AcDbEntity
  8
寸法
  6
Continuous
100
AcDbLine
 10
51.80035383184986
 20
47.49999999999636
 30
0.0
 11
-19.19964616815014
 21
47.49999999999636
 31
0.0
  0
LINE
  5
D3
330
CC
100
AcDbEntity
  8
寸法
  6
Continuous
100
AcDbLine
 10
-19.19964616815014
 20
47.49999999999636
 30
0.0
 11
-19.19964616815014
 21
-47.50000000001091
 31
0.0
  0
LWPOLYLINE
  5
D4
330
CC
100
AcDbEntity
  8
寸法
  6
Continuous
100
AcDbPolyline
 90
        3
 70
     0
 43
0.0
 10
-21.78783661917532
 20
37.84074173710542
 10
-19.19964616815014
 20
47.49999999999636
 10
-16.61145571712495
 20
37.84074173710542
  0
LWPOLYLINE
  5
D5
330
CC
100
AcDbEntity
  8
寸法
  6
Continuous
100
AcDbPolyline
 90
        3
 70
     0
 43
0.0
 10
-16.61145571712495
 20
-37.84074173711997
 10
-19.19964616815014
 20
-47.50000000001091
 10
-21.78783661917532
 20
-37.84074173711997
  0
ENDBLK
  5
CE
330
CC
100
AcDbEntity
  8
0
100
AcDbBlockEnd
  0
BLOCK
  5
D7
330
D6
100
AcDbEntity
  8
0
100
AcDbBlockBegin
  2
INS-DXB8O
 70
     0
 10
0.0
 20
0.0
 30
0.0
  3
INS-DXB8O
  1

  0
TEXT
  5
DA
330
D6
100
AcDbEntity
  8
寸法
  6
Continuous
100
AcDbText
 10
-16.91964616815032
 20
21.23765888888738
 30
0.0
 40
19.982
  1
15
 41
1.089505144794249
 72
     1
 11
0.0003538318496794
 21
21.23765888888738
 31
0.0
100
AcDbText
  0
LINE
  5
DB
330
D6
100
AcDbEntity
  8
寸法
  6
Continuous
100
AcDbLine
 10
7.500353831849679
 20
-43.83700000000317
 30
0.0
 11
7.500353831849679
 21
11.52376999999615
 31
0.0
  0
LINE
  5
DC
330
D6
100
AcDbEntity
  8
寸法
  6
Continuous
100
AcDbLine
 10
-7.499646168150321
 20
-32.83700000000317
 30
0.0
 11
-7.499646168150321
 21
11.52376999999615
 31
0.0
  0
LINE
  5
DD
330
D6
100
AcDbEntity
  8
寸法
  6
Continuous
100
AcDbLine
 10
-7.499646168150321
 20
11.52376999999615
 30
0.0
 11
7.500353831849679
 21
11.52376999999615
 31
0.0
  0
ENDBLK
  5
D8
330
D6
100
AcDbEntity
  8
0
100
AcDbBlockEnd
  0
BLOCK
  5
DF
330
DE
100
AcDbEntity
  8
0
100
AcDbBlockBegin
  2
INS-DNO7T
 70
     0
 10
0.0
 20
0.0
 30
0.0
  3
INS-DNO7T
  1

  0
TEXT
  5
E2
330
DE
100
AcDbEntity
  8
寸法
  6
Continuous
100
AcDbText
 10
26.70635383184981
 20
-32.28000000000364
 30
0.0
 40
19.982
  1
φ73
 50
90.0
 41
1.056781492035411
 72
     1
 11
26.70635383184981
 21
-0.000000000003638
 31
0.0
100
AcDbText
  0
LINE
  5
E3
330
DE
100
AcDbEntity
  8
寸法
  6
Continuous
100
AcDbLine
 10
-41.29364616815019
 20
-36.50000000000364
 30
0.0
 11
36.70635383184981
 21
-36.50000000000364
 31
0.0
  0
LINE
  5
E4
330
DE
100
AcDbEntity
  8
寸法
  6
Continuous
100
AcDbLine
 10
-41.29364616815019
 20
36.49999999999636
 30
0.0
 11
36.70635383184981
 21
36.49999999999636
 31
0.0
  0
LINE
  5
E5
330
DE
100
AcDbEntity
  8
寸法
  6
Continuous
100
AcDbLine
 10
36.70635383184981
 20
36.49999999999636
 30
0.0
 11
36.70635383184981
 21
-36.50000000000364
 31
0.0
  0
LWPOLYLINE
  5
E6
330
DE
100
AcDbEntity
  8
寸法
  6
Continuous
100
AcDbPolyline
 90
        3
 70
     0
 43
0.0
 10
34.11816338082463
 20
26.84074173710542
 10
36.70635383184981
 20
36.49999999999636
 10
39.29454428287499
 20
26.84074173710542
  0
LWPOLYLINE
  5
E7
330
DE
100
AcDbEntity
  8
寸法
  6
Continuous
100
AcDbPolyline
 90
        3
 70
     0
 43
0.0
 10
39.29454428287499
 20
-26.84074173711269
 10
36.70635383184981
 20
-36.50000000000364
 10
34.11816338082463
 20
-26.84074173711269
  0
ENDBLK
  5
E0
330
DE
100
AcDbEntity
  8
0
100
AcDbBlockEnd
  0
BLOCK
  5
FF
330
FE
100
AcDbEntity
  8
0
100
AcDbBlockBegin
  2
INS-D7I27
 70
     0
 10
0.0
 20
0.0
 30
0.0
  3
INS-D7I27
  1

  0
TEXT
  5
102
330
FE
100
AcDbEntity
  8
寸法
  6
Continuous
100
AcDbText
 10
-29.19916891403818
 20
-40.67902379816923
 30
0.0
 40
19.982
  1
φ420
 50
90.0
 41
1.041145908602337
 72
     1
 11
-29.19916891403818
 21
0.000976201830774
 31
0.0
100
AcDbText
  0
LINE
  5
103
330
FE
100
AcDbEntity
  8
寸法
  6
Continuous
100
AcDbLine
 10
51.80083108596182
 20
-209.9990237981729
 30
0.0
 11
-19.19916891403818
 21
-209.9990237981729
 31
0.0
  0
LINE
  5
104
330
FE
100
AcDbEntity
  8
寸法
  6
Continuous
100
AcDbLine
 10
51.80083108596182
 20
210.0009762018344
 30
0.0
 11
-19.19916891403818
 21
210.0009762018344
 31
0.0
  0
LINE
  5
105
330
FE
100
AcDbEntity
  8
寸法
  6
Continuous
100
AcDbLine
 10
-19.19916891403818
 20
210.0009762018344
 30
0.0
 11
-19.19916891403818
 21
-209.9990237981729
 31
0.0
  0
LWPOLYLINE
  5
106
330
FE
100
AcDbEntity
  8
寸法
  6
Continuous
100
AcDbPolyline
 90
        3
 70
     0
 43
0.0
 10
-21.78735936506337
 20
200.3417179389435
 10
-19.19916891403818
 20
210.0009762018344
 10
-16.610978463013
 20
200.3417179389435
  0
LWPOLYLINE
  5
107
330
FE
100
AcDbEntity
  8
寸法
  6
Continuous
100
AcDbPolyline
 90
        3
 70
     0
 43
0.0
 10
-16.610978463013
 20
-200.3397655352819
 10
-19.19916891403818
 20
-209.9990237981729
 10
-21.78735936506337
 20
-200.3397655352819
  0
ENDBLK
  5
100
330
FE
100
AcDbEntity
  8
0
100
AcDbBlockEnd
  0
BLOCK
  5
109
330
108
100
AcDbEntity
  8
0
100
AcDbBlockBegin
  2
INS-D9HIS
 70
     0
 10
0.0
 20
0.0
 30
0.0
  3
INS-D9HIS
  1

  0
TEXT
  5
10C
330
108
100
AcDbEntity
  8
寸法
  6
Continuous
100
AcDbText
 10
-16.91916891403837
 20
21.23813509072716
 30
0.0
 40
19.982
  1
15
 41
1.089505144794249
 72
     1
 11
0.0008310859616358
 21
21.23813509072716
 31
0.0
100
AcDbText
  0
LINE
  5
10D
330
108
100
AcDbEntity
  8
寸法
  6
Continuous
100
AcDbLine
 10
7.500831085961636
 20
-43.8365237981634
 30
0.0
 11
7.500831085961636
 21
11.52424620183592
 31
0.0
  0
LINE
  5
10E
330
108
100
AcDbEntity
  8
寸法
  6
Continuous
100
AcDbLine
 10
-7.499168914038364
 20
-32.8365237981634
 30
0.0
 11
-7.499168914038364
 21
11.52424620183592
 31
0.0
  0
LINE
  5
10F
330
108
100
AcDbEntity
  8
寸法
  6
Continuous
100
AcDbLine
 10
-7.499168914038364
 20
11.52424620183592
 30
0.0
 11
7.500831085961636
 21
11.52424620183592
 31
0.0
  0
ENDBLK
  5
10A
330
108
100
AcDbEntity
  8
0
100
AcDbBlockEnd
  0
BLOCK
  5
111
330
110
100
AcDbEntity
  8
0
100
AcDbBlockBegin
  2
INS-D87LP
 70
     0
 10
0.0
 20
0.0
 30
0.0
  3
INS-D87LP
  1

  0
TEXT
  5
114
330
110
100
AcDbEntity
  8
寸法
  6
Continuous
100
AcDbText
 10
26.70633108596166
 20
-42.41902379816558
 30
0.0
 40
19.982
  1
φ398
 50
90.0
 41
1.041145908602337
 72
     1
 11
26.70633108596166
 21
0.000976201834419
 31
0.0
100
AcDbText
  0
LINE
  5
115
330
110
100
AcDbEntity
  8
寸法
  6
Continuous
100
AcDbLine
 10
-41.29366891403834
 20
-198.9990237981656
 30
0.0
 11
36.70633108596166
 21
-198.9990237981656
 31
0.0
  0
LINE
  5
116
330
110
100
AcDbEntity
  8
寸法
  6
Continuous
100
AcDbLine
 10
-41.29366891403834
 20
199.0009762018344
 30
0.0
 11
36.70633108596166
 21
199.0009762018344
 31
0.0
  0
LINE
  5
117
330
110
100
AcDbEntity
  8
寸法
  6
Continuous
100
AcDbLine
 10
36.70633108596166
 20
199.0009762018344
 30
0.0
 11
36.70633108596166
 21
-198.9990237981656
 31
0.0
  0
LWPOLYLINE
  5
118
330
110
100
AcDbEntity
  8
寸法
  6
Continuous
100
AcDbPolyline
 90
        3
 70
     0
 43
0.0
 10
34.11814063493648
 20
189.3417179389435
 10
36.70633108596166
 20
199.0009762018344
 10
39.29452153698685
 20
189.3417179389435
  0
LWPOLYLINE
  5
119
330
110
100
AcDbEntity
  8
寸法
  6
Continuous
100
AcDbPolyline
 90
        3
 70
     0
 43
0.0
 10
39.29452153698685
 20
-189.3397655352746
 10
36.70633108596166
 20
-198.9990237981656
 10
34.11814063493648
 20
-189.3397655352746
  0
ENDBLK
  5
112
330
110
100
AcDbEntity
  8
0
100
AcDbBlockEnd
  0
BLOCK
  5
12E
330
12D
100
AcDbEntity
  8
0
100
AcDbBlockBegin
  2
INS-D7HER
 70
     0
 10
0.0
 20
0.0
 30
0.0
  3
INS-D7HER
  1

  0
TEXT
  5
131
330
12D
100
AcDbEntity
  8
寸法
  6
Continuous
100
AcDbText
 10
-29.19916891403825
 20
-56.28000000000363
 30
0.0
 40
19.982
  1
内径φ75
 50
90.0
 41
1.031984686839273
 72
     1
 11
-29.19916891403825
 21
-0.000000000003638
 31
0.0
100
AcDbText
  0
LINE
  5
132
330
12D
100
AcDbEntity
  8
寸法
  6
Continuous
100
AcDbLine
 10
51.80083108596176
 20
-37.50000000000364
 30
0.0
 11
-19.19916891403824
 21
-37.50000000000364
 31
0.0
  0
LINE
  5
133
330
12D
100
AcDbEntity
  8
寸法
  6
Continuous
100
AcDbLine
 10
51.80083108596176
 20
37.49999999999636
 30
0.0
 11
-19.19916891403824
 21
37.49999999999636
 31
0.0
  0
LINE
  5
134
330
12D
100
AcDbEntity
  8
寸法
  6
Continuous
100
AcDbLine
 10
-19.19916891403824
 20
37.49999999999636
 30
0.0
 11
-19.19916891403824
 21
-37.50000000000364
 31
0.0
  0
LWPOLYLINE
  5
135
330
12D
100
AcDbEntity
  8
寸法
  6
Continuous
100
AcDbPolyline
 90
        3
 70
     0
 43
0.0
 10
-21.78735936506345
 20
27.84074173710542
 10
-19.19916891403824
 20
37.49999999999636
 10
-16.61097846301303
 20
27.84074173710542
  0
LWPOLYLINE
  5
136
330
12D
100
AcDbEntity
  8
寸法
  6
Continuous
100
AcDbPolyline
 90
        3
 70
     0
 43
0.0
 10
-16.61097846301303
 20
-27.84074173711269
 10
-19.19916891403824
 20
-37.50000000000364
 10
-21.78735936506345
 20
-27.84074173711269
  0
ENDBLK
  5
12F
330
12D
100
AcDbEntity
  8
0
100
AcDbBlockEnd
  0
BLOCK
  5
138
330
137
100
AcDbEntity
  8
0
100
AcDbBlockBegin
  2
INS-D6ZAZ
 70
     0
 10
0.0
 20
0.0
 30
0.0
  3
INS-D6ZAZ
  1

  0
TEXT
  5
13B
330
137
100
AcDbEntity
  8
寸法
  6
Continuous
100
AcDbText
 10
-20.27916891403822
 20
20.58076999999685
 30
0.0
 40
19.982
  1
45
 41
1.089505144794249
 72
     1
 11
0.0008310859617779
 21
20.58076999999685
 31
0.0
100
AcDbText
  0
LINE
  5
13C
330
137
100
AcDbEntity
  8
寸法
  6
Continuous
100
AcDbLine
 10
22.50083108596178
 20
-43.18000000000393
 30
0.0
 11
22.50083108596178
 21
10.58076999999685
 31
0.0
  0
LINE
  5
13D
330
137
100
AcDbEntity
  8
寸法
  6
Continuous
100
AcDbLine
 10
-22.49916891403822
 20
-43.18000000000393
 30
0.0
 11
-22.49916891403822
 21
10.58076999999685
 31
0.0
  0
LINE
  5
13E
330
137
100
AcDbEntity
  8
寸法
  6
Continuous
100
AcDbLine
 10
-22.49916891403822
 20
10.58076999999685
 30
0.0
 11
22.50083108596178
 21
10.58076999999685
 31
0.0
  0
LWPOLYLINE
  5
13F
330
137
100
AcDbEntity
  8
寸法
  6
Continuous
100
AcDbPolyline
 90
        3
 70
     0
 43
0.0
 10
-12.83991065114753
 20
7.992579548972572
 10
-22.49916891403822
 20
10.58076999999685
 10
-12.83991065114753
 20
13.16896045102112
  0
LWPOLYLINE
  5
140
330
137
100
AcDbEntity
  8
寸法
  6
Continuous
100
AcDbPolyline
 90
        3
 70
     0
 43
0.0
 10
12.84157282307109
 20
13.16896045102112
 10
22.50083108596178
 20
10.58076999999685
 10
12.84157282307109
 20
7.992579548972572
  0
ENDBLK
  5
139
330
137
100
AcDbEntity
  8
0
100
AcDbBlockEnd
  0
BLOCK
  5
14F
330
14E
100
AcDbEntity
  8
0
100
AcDbBlockBegin
  2
INS-DJYXS
 70
     0
 10
0.0
 20
0.0
 30
0.0
  3
INS-DJYXS
  1

  0
TEXT
  5
152
330
14E
100
AcDbEntity
  8
寸法
  6
Continuous
100
AcDbText
 10
-29.19916891403825
 20
-62.93902379816557
 30
0.0
 40
19.982
  1
内径φ400
 50
90.0
 41
1.025966251272801
 72
     1
 11
-29.19916891403825
 21
0.000976201834419
 31
0.0
100
AcDbText
  0
LINE
  5
153
330
14E
100
AcDbEntity
  8
寸法
  6
Continuous
100
AcDbLine
 10
51.80083108596176
 20
-199.9990237981656
 30
0.0
 11
-19.19916891403824
 21
-199.9990237981656
 31
0.0
  0
LINE
  5
154
330
14E
100
AcDbEntity
  8
寸法
  6
Continuous
100
AcDbLine
 10
51.80083108596176
 20
200.0009762018344
 30
0.0
 11
-19.19916891403824
 21
200.0009762018344
 31
0.0
  0
LINE
  5
155
330
14E
100
AcDbEntity
  8
寸法
  6
Continuous
100
AcDbLine
 10
-19.19916891403824
 20
200.0009762018344
 30
0.0
 11
-19.19916891403824
 21
-199.9990237981656
 31
0.0
  0
LWPOLYLINE
  5
156
330
14E
100
AcDbEntity
  8
寸法
  6
Continuous
100
AcDbPolyline
 90
        3
 70
     0
 43
0.0
 10
-21.78735936506342
 20
190.3417179389435
 10
-19.19916891403824
 20
200.0009762018344
 10
-16.61097846301305
 20
190.3417179389435
  0
LWPOLYLINE
  5
157
330
14E
100
AcDbEntity
  8
寸法
  6
Continuous
100
AcDbPolyline
 90
        3
 70
     0
 43
0.0
 10
-16.61097846301305
 20
-190.3397655352746
 10
-19.19916891403824
 20
-199.9990237981656
 10
-21.78735936506342
 20
-190.3397655352746
  0
ENDBLK
  5
150
330
14E
100
AcDbEntity
  8
0
100
AcDbBlockEnd
  0
BLOCK
  5
159
330
158
100
AcDbEntity
  8
0
100
AcDbBlockBegin
  2
INS-D61X1
 70
     0
 10
0.0
 20
0.0
 30
0.0
  3
INS-D61X1
  1

  0
TEXT
  5
15C
330
158
100
AcDbEntity
  8
寸法
  6
Continuous
100
AcDbText
 10
-20.27916891403822
 20
21.38124620183589
 30
0.0
 40
19.982
  1
65
 41
1.089505144794249
 72
     1
 11
0.0008310859617779
 21
21.38124620183589
 31
0.0
100
AcDbText
  0
LINE
  5
15D
330
158
100
AcDbEntity
  8
寸法
  6
Continuous
100
AcDbLine
 10
32.50083108596178
 20
-43.97952379816343
 30
0.0
 11
32.50083108596178
 21
11.38124620183589
 31
0.0
  0
LINE
  5
15E
330
158
100
AcDbEntity
  8
寸法
  6
Continuous
100
AcDbLine
 10
-32.49916891403822
 20
-43.97952379816343
 30
0.0
 11
-32.49916891403822
 21
11.38124620183589
 31
0.0
  0
LINE
  5
15F
330
158
100
AcDbEntity
  8
寸法
  6
Continuous
100
AcDbLine
 10
-32.49916891403822
 20
11.38124620183589
 30
0.0
 11
32.50083108596178
 21
11.38124620183589
 31
0.0
  0
LWPOLYLINE
  5
160
330
158
100
AcDbEntity
  8
寸法
  6
Continuous
100
AcDbPolyline
 90
        3
 70
     0
 43
0.0
 10
-22.83991065114753
 20
8.793055750811618
 10
-32.49916891403822
 20
11.38124620183589
 10
-22.83991065114753
 20
13.96943665286017
  0
LWPOLYLINE
  5
161
330
158
100
AcDbEntity
  8
寸法
  6
Continuous
100
AcDbPolyline
 90
        3
 70
     0
 43
0.0
 10
22.84157282307109
 20
13.96943665286017
 10
32.50083108596178
 20
11.38124620183589
 10
22.84157282307109
 20
8.793055750811618
  0
ENDBLK
  5
15A
330
158
100
AcDbEntity
  8
0
100
AcDbBlockEnd
  0
BLOCK
  5
18C
330
18B
100
AcDbEntity
  8
0
100
AcDbBlockBegin
  2
INS-D90GH
 70
     0
 10
0.0
 20
0.0
 30
0.0
  3
INS-D90GH
  1

  0
TEXT
  5
18F
330
18B
100
AcDbEntity
  8
寸法
  6
Continuous
100
AcDbText
 10
-29.19964616815014
 20
-33.96000000000727
 30
0.0
 40
19.982
  1
φ110
 50
90.0
 41
1.041145908602337
 72
     1
 11
-29.19964616815014
 21
-0.000000000007276
 31
0.0
100
AcDbText
  0
LINE
  5
190
330
18B
100
AcDbEntity
  8
寸法
  6
Continuous
100
AcDbLine
 10
51.80035383184986
 20
-55.00000000001091
 30
0.0
 11
-19.19964616815014
 21
-55.00000000001091
 31
0.0
  0
LINE
  5
191
330
18B
100
AcDbEntity
  8
寸法
  6
Continuous
100
AcDbLine
 10
51.80035383184986
 20
54.99999999999636
 30
0.0
 11
-19.19964616815014
 21
54.99999999999636
 31
0.0
  0
LINE
  5
192
330
18B
100
AcDbEntity
  8
寸法
  6
Continuous
100
AcDbLine
 10
-19.19964616815014
 20
54.99999999999636
 30
0.0
 11
-19.19964616815014
 21
-55.00000000001091
 31
0.0
  0
LWPOLYLINE
  5
193
330
18B
100
AcDbEntity
  8
寸法
  6
Continuous
100
AcDbPolyline
 90
        3
 70
     0
 43
0.0
 10
-21.78783661917532
 20
45.34074173710542
 10
-19.19964616815014
 20
54.99999999999636
 10
-16.61145571712495
 20
45.34074173710542
  0
LWPOLYLINE
  5
194
330
18B
100
AcDbEntity
  8
寸法
  6
Continuous
100
AcDbPolyline
 90
        3
 70
     0
 43
0.0
 10
-16.61145571712495
 20
-45.34074173711997
 10
-19.19964616815014
 20
-55.00000000001091
 10
-21.78783661917532
 20
-45.34074173711997
  0
ENDBLK
  5
18D
330
18B
100
AcDbEntity
  8
0
100
AcDbBlockEnd
  0
BLOCK
  5
196
330
195
100
AcDbEntity
  8
0
100
AcDbBlockBegin
  2
INS-DE4EG
 70
     0
 10
0.0
 20
0.0
 30
0.0
  3
INS-DE4EG
  1

  0
TEXT
  5
199
330
195
100
AcDbEntity
  8
寸法
  6
Continuous
100
AcDbText
 10
-16.91964616815032
 20
21.23765888888738
 30
0.0
 40
19.982
  1
15
 41
1.089505144794249
 72
     1
 11
0.0003538318496794
 21
21.23765888888738
 31
0.0
100
AcDbText
  0
LINE
  5
19A
330
195
100
AcDbEntity
  8
寸法
  6
Continuous
100
AcDbLine
 10
7.500353831849679
 20
-43.83700000000317
 30
0.0
 11
7.500353831849679
 21
11.52376999999615
 31
0.0
  0
LINE
  5
19B
330
195
100
AcDbEntity
  8
寸法
  6
Continuous
100
AcDbLine
 10
-7.499646168150321
 20
-37.83700000000317
 30
0.0
 11
-7.499646168150321
 21
11.52376999999615
 31
0.0
  0
LINE
  5
19C
330
195
100
AcDbEntity
  8
寸法
  6
Continuous
100
AcDbLine
 10
-7.499646168150321
 20
11.52376999999615
 30
0.0
 11
7.500353831849679
 21
11.52376999999615
 31
0.0
  0
ENDBLK
  5
197
330
195
100
AcDbEntity
  8
0
100
AcDbBlockEnd
  0
BLOCK
  5
19E
330
19D
100
AcDbEntity
  8
0
100
AcDbBlockBegin
  2
INS-D6F8L
 70
     0
 10
0.0
 20
0.0
 30
0.0
  3
INS-D6F8L
  1

  0
TEXT
  5
1A1
330
19D
100
AcDbEntity
  8
寸法
  6
Continuous
100
AcDbText
 10
26.70635383184981
 20
-32.28000000000364
 30
0.0
 40
19.982
  1
φ98
 50
90.0
 41
1.056781492035411
 72
     1
 11
26.70635383184981
 21
-0.000000000003638
 31
0.0
100
AcDbText
  0
LINE
  5
1A2
330
19D
100
AcDbEntity
  8
寸法
  6
Continuous
100
AcDbLine
 10
-41.29364616815019
 20
-49.00000000000364
 30
0.0
 11
36.70635383184981
 21
-49.00000000000364
 31
0.0
  0
LINE
  5
1A3
330
19D
100
AcDbEntity
  8
寸法
  6
Continuous
100
AcDbLine
 10
-41.29364616815019
 20
48.99999999999636
 30
0.0
 11
36.70635383184981
 21
48.99999999999636
 31
0.0
  0
LINE
  5
1A4
330
19D
100
AcDbEntity
  8
寸法
  6
Continuous
100
AcDbLine
 10
36.70635383184981
 20
48.99999999999636
 30
0.0
 11
36.70635383184981
 21
-49.00000000000364
 31
0.0
  0
LWPOLYLINE
  5
1A5
330
19D
100
AcDbEntity
  8
寸法
  6
Continuous
100
AcDbPolyline
 90
        3
 70
     0
 43
0.0
 10
34.11816338082463
 20
39.34074173710542
 10
36.70635383184981
 20
48.99999999999636
 10
39.29454428287499
 20
39.34074173710542
  0
LWPOLYLINE
  5
1A6
330
19D
100
AcDbEntity
  8
寸法
  6
Continuous
100
AcDbPolyline
 90
        3
 70
     0
 43
0.0
 10
39.29454428287499
 20
-39.34074173711269
 10
36.70635383184981
 20
-49.00000000000364
 10
34.11816338082463
 20
-39.34074173711269
  0
ENDBLK
  5
19F
330
19D
100
AcDbEntity
  8
0
100
AcDbBlockEnd
  0
BLOCK
  5
1BE
330
1BD
100
AcDbEntity
  8
0
100
AcDbBlockBegin
  2
INS-D8W0W
 70
     0
 10
0.0
 20
0.0
 30
0.0
  3
INS-D8W0W
  1

  0
TEXT
  5
1C1
330
1BD
100
AcDbEntity
  8
寸法
  6
Continuous
100
AcDbText
 10
-29.19964616815014
 20
-39.06000000000728
 30
0.0
 40
19.982
  1
φ135
 50
90.0
 41
1.041145908602337
 72
     1
 11
-29.19964616815014
 21
-0.000000000007276
 31
0.0
100
AcDbText
  0
LINE
  5
1C2
330
1BD
100
AcDbEntity
  8
寸法
  6
Continuous
100
AcDbLine
 10
51.80035383184986
 20
-67.50000000001091
 30
0.0
 11
-19.19964616815014
 21
-67.50000000001091
 31
0.0
  0
LINE
  5
1C3
330
1BD
100
AcDbEntity
  8
寸法
  6
Continuous
100
AcDbLine
 10
51.80035383184986
 20
67.49999999999636
 30
0.0
 11
-19.19964616815014
 21
67.49999999999636
 31
0.0
  0
LINE
  5
1C4
330
1BD
100
AcDbEntity
  8
寸法
  6
Continuous
100
AcDbLine
 10
-19.19964616815014
 20
67.49999999999636
 30
0.0
 11
-19.19964616815014
 21
-67.50000000001091
 31
0.0
  0
LWPOLYLINE
  5
1C5
330
1BD
100
AcDbEntity
  8
寸法
  6
Continuous
100
AcDbPolyline
 90
        3
 70
     0
 43
0.0
 10
-21.78783661917532
 20
57.84074173710542
 10
-19.19964616815014
 20
67.49999999999636
 10
-16.61145571712495
 20
57.84074173710542
  0
LWPOLYLINE
  5
1C6
330
1BD
100
AcDbEntity
  8
寸法
  6
Continuous
100
AcDbPolyline
 90
        3
 70
     0
 43
0.0
 10
-16.61145571712495
 20
-57.84074173711997
 10
-19.19964616815014
 20
-67.50000000001091
 10
-21.78783661917532
 20
-57.84074173711997
  0
ENDBLK
  5
1BF
330
1BD
100
AcDbEntity
  8
0
100
AcDbBlockEnd
  0
BLOCK
  5
1C8
330
1C7
100
AcDbEntity
  8
0
100
AcDbBlockBegin
  2
INS-D58RQ
 70
     0
 10
0.0
 20
0.0
 30
0.0
  3
INS-D58RQ
  1

  0
TEXT
  5
1CB
330
1C7
100
AcDbEntity
  8
寸法
  6
Continuous
100
AcDbText
 10
-16.91964616815032
 20
21.23765888888738
 30
0.0
 40
19.982
  1
15
 41
1.089505144794249
 72
     1
 11
0.0003538318496794
 21
21.23765888888738
 31
0.0
100
AcDbText
  0
LINE
  5
1CC
330
1C7
100
AcDbEntity
  8
寸法
  6
Continuous
100
AcDbLine
 10
7.500353831849679
 20
-43.83700000000317
 30
0.0
 11
7.500353831849679
 21
11.52376999999615
 31
0.0
  0
LINE
  5
1CD
330
1C7
100
AcDbEntity
  8
寸法
  6
Continuous
100
AcDbLine
 10
-7.499646168150321
 20
-37.83700000000317
 30
0.0
 11
-7.499646168150321
 21
11.52376999999615
 31
0.0
  0
LINE
  5
1CE
330
1C7
100
AcDbEntity
  8
寸法
  6
Continuous
100
AcDbLine
 10
-7.499646168150321
 20
11.52376999999615
 30
0.0
 11
7.500353831849679
 21
11.52376999999615
 31
0.0
  0
ENDBLK
  5
1C9
330
1C7
100
AcDbEntity
  8
0
100
AcDbBlockEnd
  0
BLOCK
  5
1D0
330
1CF
100
AcDbEntity
  8
0
100
AcDbBlockBegin
  2
INS-D5CAA
 70
     0
 10
0.0
 20
0.0
 30
0.0
  3
INS-D5CAA
  1

  0
TEXT
  5
1D3
330
1CF
100
AcDbEntity
  8
寸法
  6
Continuous
100
AcDbText
 10
26.70635383184981
 20
-39.06000000000364
 30
0.0
 40
19.982
  1
φ123
 50
90.0
 41
1.041145908602337
 72
     1
 11
26.70635383184981
 21
-0.000000000003638
 31
0.0
100
AcDbText
  0
LINE
  5
1D4
330
1CF
100
AcDbEntity
  8
寸法
  6
Continuous
100
AcDbLine
 10
-41.29364616815019
 20
-61.50000000000364
 30
0.0
 11
36.70635383184981
 21
-61.50000000000364
 31
0.0
  0
LINE
  5
1D5
330
1CF
100
AcDbEntity
  8
寸法
  6
Continuous
100
AcDbLine
 10
-41.29364616815019
 20
61.49999999999636
 30
0.0
 11
36.70635383184981
 21
61.49999999999636
 31
0.0
  0
LINE
  5
1D6
330
1CF
100
AcDbEntity
  8
寸法
  6
Continuous
100
AcDbLine
 10
36.70635383184981
 20
61.49999999999636
 30
0.0
 11
36.70635383184981
 21
-61.50000000000364
 31
0.0
  0
LWPOLYLINE
  5
1D7
330
1CF
100
AcDbEntity
  8
寸法
  6
Continuous
100
AcDbPolyline
 90
        3
 70
     0
 43
0.0
 10
34.11816338082463
 20
51.84074173710542
 10
36.70635383184981
 20
61.49999999999636
 10
39.29454428287499
 20
51.84074173710542
  0
LWPOLYLINE
  5
1D8
330
1CF
100
AcDbEntity
  8
寸法
  6
Continuous
100
AcDbPolyline
 90
        3
 70
     0
 43
0.0
 10
39.29454428287499
 20
-51.84074173711269
 10
36.70635383184981
 20
-61.50000000000364
 10
34.11816338082463
 20
-51.84074173711269
  0
ENDBLK
  5
1D1
330
1CF
100
AcDbEntity
  8
0
100
AcDbBlockEnd
  0
BLOCK
  5
1F0
330
1EF
100
AcDbEntity
  8
0
100
AcDbBlockBegin
  2
INS-D7UEW
 70
     0
 10
0.0
 20
0.0
 30
0.0
  3
INS-D7UEW
  1

  0
TEXT
  5
1F3
330
1EF
100
AcDbEntity
  8
寸法
  6
Continuous
100
AcDbText
 10
-29.19964616815014
 20
-37.32000000000726
 30
0.0
 40
19.982
  1
φ160
 50
90.0
 41
1.041145908602337
 72
     1
 11
-29.19964616815014
 21
-0.0000000000072689
 31
0.0
100
AcDbText
  0
LINE
  5
1F4
330
1EF
100
AcDbEntity
  8
寸法
  6
Continuous
100
AcDbLine
 10
51.80035383184986
 20
-80.00000000001091
 30
0.0
 11
-19.19964616815014
 21
-80.00000000001091
 31
0.0
  0
LINE
  5
1F5
330
1EF
100
AcDbEntity
  8
寸法
  6
Continuous
100
AcDbLine
 10
51.80035383184986
 20
79.99999999999636
 30
0.0
 11
-19.19964616815014
 21
79.99999999999636
 31
0.0
  0
LINE
  5
1F6
330
1EF
100
AcDbEntity
  8
寸法
  6
Continuous
100
AcDbLine
 10
-19.19964616815014
 20
79.99999999999636
 30
0.0
 11
-19.19964616815014
 21
-80.00000000001091
 31
0.0
  0
LWPOLYLINE
  5
1F7
330
1EF
100
AcDbEntity
  8
寸法
  6
Continuous
100
AcDbPolyline
 90
        3
 70
     0
 43
0.0
 10
-21.78783661917532
 20
70.34074173710542
 10
-19.19964616815014
 20
79.99999999999636
 10
-16.61145571712495
 20
70.34074173710542
  0
LWPOLYLINE
  5
1F8
330
1EF
100
AcDbEntity
  8
寸法
  6
Continuous
100
AcDbPolyline
 90
        3
 70
     0
 43
0.0
 10
-16.61145571712495
 20
-70.34074173711997
 10
-19.19964616815014
 20
-80.00000000001091
 10
-21.78783661917532
 20
-70.34074173711997
  0
ENDBLK
  5
1F1
330
1EF
100
AcDbEntity
  8
0
100
AcDbBlockEnd
  0
BLOCK
  5
1FA
330
1F9
100
AcDbEntity
  8
0
100
AcDbBlockBegin
  2
INS-D7IYV
 70
     0
 10
0.0
 20
0.0
 30
0.0
  3
INS-D7IYV
  1

  0
TEXT
  5
1FD
330
1F9
100
AcDbEntity
  8
寸法
  6
Continuous
100
AcDbText
 10
-16.91964616815032
 20
21.23765888888738
 30
0.0
 40
19.982
  1
15
 41
1.089505144794249
 72
     1
 11
0.0003538318496794
 21
21.23765888888738
 31
0.0
100
AcDbText
  0
LINE
  5
1FE
330
1F9
100
AcDbEntity
  8
寸法
  6
Continuous
100
AcDbLine
 10
7.500353831849679
 20
-43.83700000000317
 30
0.0
 11
7.500353831849679
 21
11.52376999999615
 31
0.0
  0
LINE
  5
1FF
330
1F9
100
AcDbEntity
  8
寸法
  6
Continuous
100
AcDbLine
 10
-7.499646168150321
 20
-37.83700000000317
 30
0.0
 11
-7.499646168150321
 21
11.52376999999615
 31
0.0
  0
LINE
  5
200
330
1F9
100
AcDbEntity
  8
寸法
  6
Continuous
100
AcDbLine
 10
-7.499646168150321
 20
11.52376999999615
 30
0.0
 11
7.500353831849679
 21
11.52376999999615
 31
0.0
  0
ENDBLK
  5
1FB
330
1F9
100
AcDbEntity
  8
0
100
AcDbBlockEnd
  0
BLOCK
  5
202
330
201
100
AcDbEntity
  8
0
100
AcDbBlockBegin
  2
INS-DJDJT
 70
     0
 10
0.0
 20
0.0
 30
0.0
  3
INS-DJDJT
  1

  0
TEXT
  5
205
330
201
100
AcDbEntity
  8
寸法
  6
Continuous
100
AcDbText
 10
26.70635383184981
 20
-39.06000000000364
 30
0.0
 40
19.982
  1
φ148
 50
90.0
 41
1.041145908602337
 72
     1
 11
26.70635383184981
 21
-0.000000000003638
 31
0.0
100
AcDbText
  0
LINE
  5
206
330
201
100
AcDbEntity
  8
寸法
  6
Continuous
100
AcDbLine
 10
-41.29364616815019
 20
-74.00000000000364
 30
0.0
 11
36.70635383184981
 21
-74.00000000000364
 31
0.0
  0
LINE
  5
207
330
201
100
AcDbEntity
  8
寸法
  6
Continuous
100
AcDbLine
 10
-41.29364616815019
 20
73.99999999999636
 30
0.0
 11
36.70635383184981
 21
73.99999999999636
 31
0.0
  0
LINE
  5
208
330
201
100
AcDbEntity
  8
寸法
  6
Continuous
100
AcDbLine
 10
36.70635383184981
 20
73.99999999999636
 30
0.0
 11
36.70635383184981
 21
-74.00000000000364
 31
0.0
  0
LWPOLYLINE
  5
209
330
201
100
AcDbEntity
  8
寸法
  6
Continuous
100
AcDbPolyline
 90
        3
 70
     0
 43
0.0
 10
34.11816338082463
 20
64.34074173710542
 10
36.70635383184981
 20
73.99999999999636
 10
39.29454428287499
 20
64.34074173710542
  0
LWPOLYLINE
  5
20A
330
201
100
AcDbEntity
  8
寸法
  6
Continuous
100
AcDbPolyline
 90
        3
 70
     0
 43
0.0
 10
39.29454428287499
 20
-64.3407417371127
 10
36.70635383184981
 20
-74.00000000000364
 10
34.11816338082463
 20
-64.3407417371127
  0
ENDBLK
  5
203
330
201
100
AcDbEntity
  8
0
100
AcDbBlockEnd
  0
BLOCK
  5
222
330
221
100
AcDbEntity
  8
0
100
AcDbBlockBegin
  2
INS-DRAEL
 70
     0
 10
0.0
 20
0.0
 30
0.0
  3
INS-DRAEL
  1

  0
TEXT
  5
225
330
221
100
AcDbEntity
  8
寸法
  6
Continuous
100
AcDbText
 10
-29.19964616815014
 20
-39.06000000000728
 30
0.0
 40
19.982
  1
φ185
 50
90.0
 41
1.041145908602337
 72
     1
 11
-29.19964616815014
 21
-0.000000000007276
 31
0.0
100
AcDbText
  0
LINE
  5
226
330
221
100
AcDbEntity
  8
寸法
  6
Continuous
100
AcDbLine
 10
51.80035383184986
 20
-92.50000000001091
 30
0.0
 11
-19.19964616815014
 21
-92.50000000001091
 31
0.0
  0
LINE
  5
227
330
221
100
AcDbEntity
  8
寸法
  6
Continuous
100
AcDbLine
 10
51.80035383184986
 20
92.49999999999636
 30
0.0
 11
-19.19964616815014
 21
92.49999999999636
 31
0.0
  0
LINE
  5
228
330
221
100
AcDbEntity
  8
寸法
  6
Continuous
100
AcDbLine
 10
-19.19964616815014
 20
92.49999999999636
 30
0.0
 11
-19.19964616815014
 21
-92.50000000001091
 31
0.0
  0
LWPOLYLINE
  5
229
330
221
100
AcDbEntity
  8
寸法
  6
Continuous
100
AcDbPolyline
 90
        3
 70
     0
 43
0.0
 10
-21.78783661917532
 20
82.84074173710542
 10
-19.19964616815014
 20
92.49999999999636
 10
-16.61145571712495
 20
82.84074173710542
  0
LWPOLYLINE
  5
22A
330
221
100
AcDbEntity
  8
寸法
  6
Continuous
100
AcDbPolyline
 90
        3
 70
     0
 43
0.0
 10
-16.61145571712495
 20
-82.84074173711997
 10
-19.19964616815014
 20
-92.50000000001091
 10
-21.78783661917532
 20
-82.84074173711997
  0
ENDBLK
  5
223
330
221
100
AcDbEntity
  8
0
100
AcDbBlockEnd
  0
BLOCK
  5
22C
330
22B
100
AcDbEntity
  8
0
100
AcDbBlockBegin
  2
INS-DQ4LX
 70
     0
 10
0.0
 20
0.0
 30
0.0
  3
INS-DQ4LX
  1

  0
TEXT
  5
22F
330
22B
100
AcDbEntity
  8
寸法
  6
Continuous
100
AcDbText
 10
-16.91964616815032
 20
21.23765888888738
 30
0.0
 40
19.982
  1
15
 41
1.089505144794249
 72
     1
 11
0.0003538318496794
 21
21.23765888888738
 31
0.0
100
AcDbText
  0
LINE
  5
230
330
22B
100
AcDbEntity
  8
寸法
  6
Continuous
100
AcDbLine
 10
7.500353831849679
 20
-43.83700000000317
 30
0.0
 11
7.500353831849679
 21
11.52376999999615
 31
0.0
  0
LINE
  5
231
330
22B
100
AcDbEntity
  8
寸法
  6
Continuous
100
AcDbLine
 10
-7.499646168150321
 20
-37.83700000000317
 30
0.0
 11
-7.499646168150321
 21
11.52376999999615
 31
0.0
  0
LINE
  5
232
330
22B
100
AcDbEntity
  8
寸法
  6
Continuous
100
AcDbLine
 10
-7.499646168150321
 20
11.52376999999615
 30
0.0
 11
7.500353831849679
 21
11.52376999999615
 31
0.0
  0
ENDBLK
  5
22D
330
22B
100
AcDbEntity
  8
0
100
AcDbBlockEnd
  0
BLOCK
  5
234
330
233
100
AcDbEntity
  8
0
100
AcDbBlockBegin
  2
INS-D7XAS
 70
     0
 10
0.0
 20
0.0
 30
0.0
  3
INS-D7XAS
  1

  0
TEXT
  5
237
330
233
100
AcDbEntity
  8
寸法
  6
Continuous
100
AcDbText
 10
26.70635383184981
 20
-39.06000000000364
 30
0.0
 40
19.982
  1
φ173
 50
90.0
 41
1.041145908602337
 72
     1
 11
26.70635383184981
 21
-0.000000000003638
 31
0.0
100
AcDbText
  0
LINE
  5
238
330
233
100
AcDbEntity
  8
寸法
  6
Continuous
100
AcDbLine
 10
-41.29364616815019
 20
-86.50000000000364
 30
0.0
 11
36.70635383184981
 21
-86.50000000000364
 31
0.0
  0
LINE
  5
239
330
233
100
AcDbEntity
  8
寸法
  6
Continuous
100
AcDbLine
 10
-41.29364616815019
 20
86.49999999999636
 30
0.0
 11
36.70635383184981
 21
86.49999999999636
 31
0.0
  0
LINE
  5
23A
330
233
100
AcDbEntity
  8
寸法
  6
Continuous
100
AcDbLine
 10
36.70635383184981
 20
86.49999999999636
 30
0.0
 11
36.70635383184981
 21
-86.50000000000364
 31
0.0
  0
LWPOLYLINE
  5
23B
330
233
100
AcDbEntity
  8
寸法
  6
Continuous
100
AcDbPolyline
 90
        3
 70
     0
 43
0.0
 10
34.11816338082463
 20
76.84074173710542
 10
36.70635383184981
 20
86.49999999999636
 10
39.29454428287499
 20
76.84074173710542
  0
LWPOLYLINE
  5
23C
330
233
100
AcDbEntity
  8
寸法
  6
Continuous
100
AcDbPolyline
 90
        3
 70
     0
 43
0.0
 10
39.29454428287499
 20
-76.8407417371127
 10
36.70635383184981
 20
-86.50000000000364
 10
34.11816338082463
 20
-76.8407417371127
  0
ENDBLK
  5
235
330
233
100
AcDbEntity
  8
0
100
AcDbBlockEnd
  0
BLOCK
  5
254
330
253
100
AcDbEntity
  8
0
100
AcDbBlockBegin
  2
INS-D3UXT
 70
     0
 10
0.0
 20
0.0
 30
0.0
  3
INS-D3UXT
  1

  0
TEXT
  5
257
330
253
100
AcDbEntity
  8
寸法
  6
Continuous
100
AcDbText
 10
-29.19964616815014
 20
-37.32000000000726
 30
0.0
 40
19.982
  1
φ210
 50
90.0
 41
1.041145908602337
 72
     1
 11
-29.19964616815014
 21
-0.0000000000072689
 31
0.0
100
AcDbText
  0
LINE
  5
258
330
253
100
AcDbEntity
  8
寸法
  6
Continuous
100
AcDbLine
 10
51.80035383184986
 20
-105.0000000000109
 30
0.0
 11
-19.19964616815014
 21
-105.0000000000109
 31
0.0
  0
LINE
  5
259
330
253
100
AcDbEntity
  8
寸法
  6
Continuous
100
AcDbLine
 10
51.80035383184986
 20
104.9999999999964
 30
0.0
 11
-19.19964616815014
 21
104.9999999999964
 31
0.0
  0
LINE
  5
25A
330
253
100
AcDbEntity
  8
寸法
  6
Continuous
100
AcDbLine
 10
-19.19964616815014
 20
104.9999999999964
 30
0.0
 11
-19.19964616815014
 21
-105.0000000000109
 31
0.0
  0
LWPOLYLINE
  5
25B
330
253
100
AcDbEntity
  8
寸法
  6
Continuous
100
AcDbPolyline
 90
        3
 70
     0
 43
0.0
 10
-21.78783661917532
 20
95.34074173710542
 10
-19.19964616815014
 20
104.9999999999964
 10
-16.61145571712495
 20
95.34074173710542
  0
LWPOLYLINE
  5
25C
330
253
100
AcDbEntity
  8
寸法
  6
Continuous
100
AcDbPolyline
 90
        3
 70
     0
 43
0.0
 10
-16.61145571712495
 20
-95.34074173711997
 10
-19.19964616815014
 20
-105.0000000000109
 10
-21.78783661917532
 20
-95.34074173711997
  0
ENDBLK
  5
255
330
253
100
AcDbEntity
  8
0
100
AcDbBlockEnd
  0
BLOCK
  5
25E
330
25D
100
AcDbEntity
  8
0
100
AcDbBlockBegin
  2
INS-D919O
 70
     0
 10
0.0
 20
0.0
 30
0.0
  3
INS-D919O
  1

  0
TEXT
  5
261
330
25D
100
AcDbEntity
  8
寸法
  6
Continuous
100
AcDbText
 10
-16.91964616815032
 20
21.23765888888738
 30
0.0
 40
19.982
  1
15
 41
1.089505144794249
 72
     1
 11
0.0003538318496794
 21
21.23765888888738
 31
0.0
100
AcDbText
  0
LINE
  5
262
330
25D
100
AcDbEntity
  8
寸法
  6
Continuous
100
AcDbLine
 10
7.500353831849679
 20
-43.83700000000317
 30
0.0
 11
7.500353831849679
 21
11.52376999999615
 31
0.0
  0
LINE
  5
263
330
25D
100
AcDbEntity
  8
寸法
  6
Continuous
100
AcDbLine
 10
-7.499646168150321
 20
-37.83700000000317
 30
0.0
 11
-7.499646168150321
 21
11.52376999999615
 31
0.0
  0
LINE
  5
264
330
25D
100
AcDbEntity
  8
寸法
  6
Continuous
100
AcDbLine
 10
-7.499646168150321
 20
11.52376999999615
 30
0.0
 11
7.500353831849679
 21
11.52376999999615
 31
0.0
  0
ENDBLK
  5
25F
330
25D
100
AcDbEntity
  8
0
100
AcDbBlockEnd
  0
BLOCK
  5
266
330
265
100
AcDbEntity
  8
0
100
AcDbBlockBegin
  2
INS-D775L
 70
     0
 10
0.0
 20
0.0
 30
0.0
  3
INS-D775L
  1

  0
TEXT
  5
269
330
265
100
AcDbEntity
  8
寸法
  6
Continuous
100
AcDbText
 10
26.70635383184981
 20
-39.06000000000364
 30
0.0
 40
19.982
  1
φ198
 50
90.0
 41
1.041145908602337
 72
     1
 11
26.70635383184981
 21
-0.000000000003638
 31
0.0
100
AcDbText
  0
LINE
  5
26A
330
265
100
AcDbEntity
  8
寸法
  6
Continuous
100
AcDbLine
 10
-41.29364616815019
 20
-99.00000000000364
 30
0.0
 11
36.70635383184981
 21
-99.00000000000364
 31
0.0
  0
LINE
  5
26B
330
265
100
AcDbEntity
  8
寸法
  6
Continuous
100
AcDbLine
 10
-41.29364616815019
 20
98.99999999999636
 30
0.0
 11
36.70635383184981
 21
98.99999999999636
 31
0.0
  0
LINE
  5
26C
330
265
100
AcDbEntity
  8
寸法
  6
Continuous
100
AcDbLine
 10
36.70635383184981
 20
98.99999999999636
 30
0.0
 11
36.70635383184981
 21
-99.00000000000364
 31
0.0
  0
LWPOLYLINE
  5
26D
330
265
100
AcDbEntity
  8
寸法
  6
Continuous
100
AcDbPolyline
 90
        3
 70
     0
 43
0.0
 10
34.11816338082463
 20
89.34074173710542
 10
36.70635383184981
 20
98.99999999999636
 10
39.29454428287499
 20
89.34074173710542
  0
LWPOLYLINE
  5
26E
330
265
100
AcDbEntity
  8
寸法
  6
Continuous
100
AcDbPolyline
 90
        3
 70
     0
 43
0.0
 10
39.29454428287499
 20
-89.3407417371127
 10
36.70635383184981
 20
-99.00000000000364
 10
34.11816338082463
 20
-89.3407417371127
  0
ENDBLK
  5
267
330
265
100
AcDbEntity
  8
0
100
AcDbBlockEnd
  0
BLOCK
  5
286
330
285
100
AcDbEntity
  8
0
100
AcDbBlockBegin
  2
INS-DOVTR
 70
     0
 10
0.0
 20
0.0
 30
0.0
  3
INS-DOVTR
  1

  0
TEXT
  5
289
330
285
100
AcDbEntity
  8
寸法
  6
Continuous
100
AcDbText
 10
-29.19964616815014
 20
-42.42000000000728
 30
0.0
 40
19.982
  1
φ235
 50
90.0
 41
1.041145908602337
 72
     1
 11
-29.19964616815014
 21
-0.000000000007276
 31
0.0
100
AcDbText
  0
LINE
  5
28A
330
285
100
AcDbEntity
  8
寸法
  6
Continuous
100
AcDbLine
 10
51.80035383184986
 20
-117.5000000000109
 30
0.0
 11
-19.19964616815014
 21
-117.5000000000109
 31
0.0
  0
LINE
  5
28B
330
285
100
AcDbEntity
  8
寸法
  6
Continuous
100
AcDbLine
 10
51.80035383184986
 20
117.4999999999964
 30
0.0
 11
-19.19964616815014
 21
117.4999999999964
 31
0.0
  0
LINE
  5
28C
330
285
100
AcDbEntity
  8
寸法
  6
Continuous
100
AcDbLine
 10
-19.19964616815014
 20
117.4999999999964
 30
0.0
 11
-19.19964616815014
 21
-117.5000000000109
 31
0.0
  0
LWPOLYLINE
  5
28D
330
285
100
AcDbEntity
  8
寸法
  6
Continuous
100
AcDbPolyline
 90
        3
 70
     0
 43
0.0
 10
-21.78783661917532
 20
107.8407417371054
 10
-19.19964616815014
 20
117.4999999999964
 10
-16.61145571712495
 20
107.8407417371054
  0
LWPOLYLINE
  5
28E
330
285
100
AcDbEntity
  8
寸法
  6
Continuous
100
AcDbPolyline
 90
        3
 70
     0
 43
0.0
 10
-16.61145571712495
 20
-107.84074173712
 10
-19.19964616815014
 20
-117.5000000000109
 10
-21.78783661917532
 20
-107.84074173712
  0
ENDBLK
  5
287
330
285
100
AcDbEntity
  8
0
100
AcDbBlockEnd
  0
BLOCK
  5
290
330
28F
100
AcDbEntity
  8
0
100
AcDbBlockBegin
  2
INS-DWMV8
 70
     0
 10
0.0
 20
0.0
 30
0.0
  3
INS-DWMV8
  1

  0
TEXT
  5
293
330
28F
100
AcDbEntity
  8
寸法
  6
Continuous
100
AcDbText
 10
-16.91964616815032
 20
21.23765888888738
 30
0.0
 40
19.982
  1
15
 41
1.089505144794249
 72
     1
 11
0.0003538318496794
 21
21.23765888888738
 31
0.0
100
AcDbText
  0
LINE
  5
294
330
28F
100
AcDbEntity
  8
寸法
  6
Continuous
100
AcDbLine
 10
7.500353831849679
 20
-43.83700000000317
 30
0.0
 11
7.500353831849679
 21
11.52376999999615
 31
0.0
  0
LINE
  5
295
330
28F
100
AcDbEntity
  8
寸法
  6
Continuous
100
AcDbLine
 10
-7.499646168150321
 20
-37.83700000000317
 30
0.0
 11
-7.499646168150321
 21
11.52376999999615
 31
0.0
  0
LINE
  5
296
330
28F
100
AcDbEntity
  8
寸法
  6
Continuous
100
AcDbLine
 10
-7.499646168150321
 20
11.52376999999615
 30
0.0
 11
7.500353831849679
 21
11.52376999999615
 31
0.0
  0
ENDBLK
  5
291
330
28F
100
AcDbEntity
  8
0
100
AcDbBlockEnd
  0
BLOCK
  5
298
330
297
100
AcDbEntity
  8
0
100
AcDbBlockBegin
  2
INS-DSYKO
 70
     0
 10
0.0
 20
0.0
 30
0.0
  3
INS-DSYKO
  1

  0
TEXT
  5
29B
330
297
100
AcDbEntity
  8
寸法
  6
Continuous
100
AcDbText
 10
26.70635383184981
 20
-42.42000000000364
 30
0.0
 40
19.982
  1
φ223
 50
90.0
 41
1.041145908602337
 72
     1
 11
26.70635383184981
 21
-0.000000000003638
 31
0.0
100
AcDbText
  0
LINE
  5
29C
330
297
100
AcDbEntity
  8
寸法
  6
Continuous
100
AcDbLine
 10
-41.29364616815019
 20
-111.5000000000036
 30
0.0
 11
36.70635383184981
 21
-111.5000000000036
 31
0.0
  0
LINE
  5
29D
330
297
100
AcDbEntity
  8
寸法
  6
Continuous
100
AcDbLine
 10
-41.29364616815019
 20
111.4999999999964
 30
0.0
 11
36.70635383184981
 21
111.4999999999964
 31
0.0
  0
LINE
  5
29E
330
297
100
AcDbEntity
  8
寸法
  6
Continuous
100
AcDbLine
 10
36.70635383184981
 20
111.4999999999964
 30
0.0
 11
36.70635383184981
 21
-111.5000000000036
 31
0.0
  0
LWPOLYLINE
  5
29F
330
297
100
AcDbEntity
  8
寸法
  6
Continuous
100
AcDbPolyline
 90
        3
 70
     0
 43
0.0
 10
34.11816338082463
 20
101.8407417371054
 10
36.70635383184981
 20
111.4999999999964
 10
39.29454428287499
 20
101.8407417371054
  0
LWPOLYLINE
  5
2A0
330
297
100
AcDbEntity
  8
寸法
  6
Continuous
100
AcDbPolyline
 90
        3
 70
     0
 43
0.0
 10
39.29454428287499
 20
-101.8407417371127
 10
36.70635383184981
 20
-111.5000000000036
 10
34.11816338082463
 20
-101.8407417371127
  0
ENDBLK
  5
299
330
297
100
AcDbEntity
  8
0
100
AcDbBlockEnd
  0
BLOCK
  5
2B8
330
2B7
100
AcDbEntity
  8
0
100
AcDbBlockBegin
  2
INS-D782R
 70
     0
 10
0.0
 20
0.0
 30
0.0
  3
INS-D782R
  1

  0
TEXT
  5
2BB
330
2B7
100
AcDbEntity
  8
寸法
  6
Continuous
100
AcDbText
 10
-29.19964616815014
 20
-40.68000000000729
 30
0.0
 40
19.982
  1
φ260
 50
90.0
 41
1.041145908602337
 72
     1
 11
-29.19964616815014
 21
-0.0000000000072831
 31
0.0
100
AcDbText
  0
LINE
  5
2BC
330
2B7
100
AcDbEntity
  8
寸法
  6
Continuous
100
AcDbLine
 10
51.80035383184986
 20
-130.0000000000109
 30
0.0
 11
-19.19964616815014
 21
-130.0000000000109
 31
0.0
  0
LINE
  5
2BD
330
2B7
100
AcDbEntity
  8
寸法
  6
Continuous
100
AcDbLine
 10
51.80035383184986
 20
129.9999999999964
 30
0.0
 11
-19.19964616815014
 21
129.9999999999964
 31
0.0
  0
LINE
  5
2BE
330
2B7
100
AcDbEntity
  8
寸法
  6
Continuous
100
AcDbLine
 10
-19.19964616815014
 20
129.9999999999964
 30
0.0
 11
-19.19964616815014
 21
-130.0000000000109
 31
0.0
  0
LWPOLYLINE
  5
2BF
330
2B7
100
AcDbEntity
  8
寸法
  6
Continuous
100
AcDbPolyline
 90
        3
 70
     0
 43
0.0
 10
-21.78783661917532
 20
120.3407417371054
 10
-19.19964616815014
 20
129.9999999999964
 10
-16.61145571712495
 20
120.3407417371054
  0
LWPOLYLINE
  5
2C0
330
2B7
100
AcDbEntity
  8
寸法
  6
Continuous
100
AcDbPolyline
 90
        3
 70
     0
 43
0.0
 10
-16.61145571712495
 20
-120.34074173712
 10
-19.19964616815014
 20
-130.0000000000109
 10
-21.78783661917532
 20
-120.34074173712
  0
ENDBLK
  5
2B9
330
2B7
100
AcDbEntity
  8
0
100
AcDbBlockEnd
  0
BLOCK
  5
2C2
330
2C1
100
AcDbEntity
  8
0
100
AcDbBlockBegin
  2
INS-D78EH
 70
     0
 10
0.0
 20
0.0
 30
0.0
  3
INS-D78EH
  1

  0
TEXT
  5
2C5
330
2C1
100
AcDbEntity
  8
寸法
  6
Continuous
100
AcDbText
 10
-16.91964616815032
 20
21.23765888888738
 30
0.0
 40
19.982
  1
15
 41
1.089505144794249
 72
     1
 11
0.0003538318496794
 21
21.23765888888738
 31
0.0
100
AcDbText
  0
LINE
  5
2C6
330
2C1
100
AcDbEntity
  8
寸法
  6
Continuous
100
AcDbLine
 10
7.500353831849679
 20
-43.83700000000317
 30
0.0
 11
7.500353831849679
 21
11.52376999999615
 31
0.0
  0
LINE
  5
2C7
330
2C1
100
AcDbEntity
  8
寸法
  6
Continuous
100
AcDbLine
 10
-7.499646168150321
 20
-37.83700000000317
 30
0.0
 11
-7.499646168150321
 21
11.52376999999615
 31
0.0
  0
LINE
  5
2C8
330
2C1
100
AcDbEntity
  8
寸法
  6
Continuous
100
AcDbLine
 10
-7.499646168150321
 20
11.52376999999615
 30
0.0
 11
7.500353831849679
 21
11.52376999999615
 31
0.0
  0
ENDBLK
  5
2C3
330
2C1
100
AcDbEntity
  8
0
100
AcDbBlockEnd
  0
BLOCK
  5
2CA
330
2C9
100
AcDbEntity
  8
0
100
AcDbBlockBegin
  2
INS-D8Z4G
 70
     0
 10
0.0
 20
0.0
 30
0.0
  3
INS-D8Z4G
  1

  0
TEXT
  5
2CD
330
2C9
100
AcDbEntity
  8
寸法
  6
Continuous
100
AcDbText
 10
26.70635383184981
 20
-42.42000000000364
 30
0.0
 40
19.982
  1
φ248
 50
90.0
 41
1.041145908602337
 72
     1
 11
26.70635383184981
 21
-0.000000000003638
 31
0.0
100
AcDbText
  0
LINE
  5
2CE
330
2C9
100
AcDbEntity
  8
寸法
  6
Continuous
100
AcDbLine
 10
-41.29364616815019
 20
-124.0000000000036
 30
0.0
 11
36.70635383184981
 21
-124.0000000000036
 31
0.0
  0
LINE
  5
2CF
330
2C9
100
AcDbEntity
  8
寸法
  6
Continuous
100
AcDbLine
 10
-41.29364616815019
 20
123.9999999999964
 30
0.0
 11
36.70635383184981
 21
123.9999999999964
 31
0.0
  0
LINE
  5
2D0
330
2C9
100
AcDbEntity
  8
寸法
  6
Continuous
100
AcDbLine
 10
36.70635383184981
 20
123.9999999999964
 30
0.0
 11
36.70635383184981
 21
-124.0000000000036
 31
0.0
  0
LWPOLYLINE
  5
2D1
330
2C9
100
AcDbEntity
  8
寸法
  6
Continuous
100
AcDbPolyline
 90
        3
 70
     0
 43
0.0
 10
34.11816338082463
 20
114.3407417371054
 10
36.70635383184981
 20
123.9999999999964
 10
39.29454428287499
 20
114.3407417371054
  0
LWPOLYLINE
  5
2D2
330
2C9
100
AcDbEntity
  8
寸法
  6
Continuous
100
AcDbPolyline
 90
        3
 70
     0
 43
0.0
 10
39.29454428287499
 20
-114.3407417371127
 10
36.70635383184981
 20
-124.0000000000036
 10
34.11816338082463
 20
-114.3407417371127
  0
ENDBLK
  5
2CB
330
2C9
100
AcDbEntity
  8
0
100
AcDbBlockEnd
  0
BLOCK
  5
2EA
330
2E9
100
AcDbEntity
  8
0
100
AcDbBlockBegin
  2
INS-D5MIN
 70
     0
 10
0.0
 20
0.0
 30
0.0
  3
INS-D5MIN
  1

  0
TEXT
  5
2ED
330
2E9
100
AcDbEntity
  8
寸法
  6
Continuous
100
AcDbText
 10
-29.19964616815014
 20
-42.42000000000728
 30
0.0
 40
19.982
  1
φ285
 50
90.0
 41
1.041145908602337
 72
     1
 11
-29.19964616815014
 21
-0.000000000007276
 31
0.0
100
AcDbText
  0
LINE
  5
2EE
330
2E9
100
AcDbEntity
  8
寸法
  6
Continuous
100
AcDbLine
 10
51.80035383184986
 20
-142.5000000000109
 30
0.0
 11
-19.19964616815014
 21
-142.5000000000109
 31
0.0
  0
LINE
  5
2EF
330
2E9
100
AcDbEntity
  8
寸法
  6
Continuous
100
AcDbLine
 10
51.80035383184986
 20
142.4999999999964
 30
0.0
 11
-19.19964616815014
 21
142.4999999999964
 31
0.0
  0
LINE
  5
2F0
330
2E9
100
AcDbEntity
  8
寸法
  6
Continuous
100
AcDbLine
 10
-19.19964616815014
 20
142.4999999999964
 30
0.0
 11
-19.19964616815014
 21
-142.5000000000109
 31
0.0
  0
LWPOLYLINE
  5
2F1
330
2E9
100
AcDbEntity
  8
寸法
  6
Continuous
100
AcDbPolyline
 90
        3
 70
     0
 43
0.0
 10
-21.78783661917532
 20
132.8407417371054
 10
-19.19964616815014
 20
142.4999999999964
 10
-16.61145571712495
 20
132.8407417371054
  0
LWPOLYLINE
  5
2F2
330
2E9
100
AcDbEntity
  8
寸法
  6
Continuous
100
AcDbPolyline
 90
        3
 70
     0
 43
0.0
 10
-16.61145571712495
 20
-132.84074173712
 10
-19.19964616815014
 20
-142.5000000000109
 10
-21.78783661917532
 20
-132.84074173712
  0
ENDBLK
  5
2EB
330
2E9
100
AcDbEntity
  8
0
100
AcDbBlockEnd
  0
BLOCK
  5
2F4
330
2F3
100
AcDbEntity
  8
0
100
AcDbBlockBegin
  2
INS-DN0TX
 70
     0
 10
0.0
 20
0.0
 30
0.0
  3
INS-DN0TX
  1

  0
TEXT
  5
2F7
330
2F3
100
AcDbEntity
  8
寸法
  6
Continuous
100
AcDbText
 10
-16.91964616815032
 20
21.23765888888738
 30
0.0
 40
19.982
  1
15
 41
1.089505144794249
 72
     1
 11
0.0003538318496794
 21
21.23765888888738
 31
0.0
100
AcDbText
  0
LINE
  5
2F8
330
2F3
100
AcDbEntity
  8
寸法
  6
Continuous
100
AcDbLine
 10
7.500353831849679
 20
-43.83700000000317
 30
0.0
 11
7.500353831849679
 21
11.52376999999615
 31
0.0
  0
LINE
  5
2F9
330
2F3
100
AcDbEntity
  8
寸法
  6
Continuous
100
AcDbLine
 10
-7.499646168150321
 20
-37.83700000000317
 30
0.0
 11
-7.499646168150321
 21
11.52376999999615
 31
0.0
  0
LINE
  5
2FA
330
2F3
100
AcDbEntity
  8
寸法
  6
Continuous
100
AcDbLine
 10
-7.499646168150321
 20
11.52376999999615
 30
0.0
 11
7.500353831849679
 21
11.52376999999615
 31
0.0
  0
ENDBLK
  5
2F5
330
2F3
100
AcDbEntity
  8
0
100
AcDbBlockEnd
  0
BLOCK
  5
2FC
330
2FB
100
AcDbEntity
  8
0
100
AcDbBlockBegin
  2
INS-DD332
 70
     0
 10
0.0
 20
0.0
 30
0.0
  3
INS-DD332
  1

  0
TEXT
  5
2FF
330
2FB
100
AcDbEntity
  8
寸法
  6
Continuous
100
AcDbText
 10
26.70635383184981
 20
-42.42000000000364
 30
0.0
 40
19.982
  1
φ273
 50
90.0
 41
1.041145908602337
 72
     1
 11
26.70635383184981
 21
-0.000000000003638
 31
0.0
100
AcDbText
  0
LINE
  5
300
330
2FB
100
AcDbEntity
  8
寸法
  6
Continuous
100
AcDbLine
 10
-41.29364616815019
 20
-136.5000000000036
 30
0.0
 11
36.70635383184981
 21
-136.5000000000036
 31
0.0
  0
LINE
  5
301
330
2FB
100
AcDbEntity
  8
寸法
  6
Continuous
100
AcDbLine
 10
-41.29364616815019
 20
136.4999999999964
 30
0.0
 11
36.70635383184981
 21
136.4999999999964
 31
0.0
  0
LINE
  5
302
330
2FB
100
AcDbEntity
  8
寸法
  6
Continuous
100
AcDbLine
 10
36.70635383184981
 20
136.4999999999964
 30
0.0
 11
36.70635383184981
 21
-136.5000000000036
 31
0.0
  0
LWPOLYLINE
  5
303
330
2FB
100
AcDbEntity
  8
寸法
  6
Continuous
100
AcDbPolyline
 90
        3
 70
     0
 43
0.0
 10
34.11816338082463
 20
126.8407417371054
 10
36.70635383184981
 20
136.4999999999964
 10
39.29454428287499
 20
126.8407417371054
  0
LWPOLYLINE
  5
304
330
2FB
100
AcDbEntity
  8
寸法
  6
Continuous
100
AcDbPolyline
 90
        3
 70
     0
 43
0.0
 10
39.29454428287499
 20
-126.8407417371127
 10
36.70635383184981
 20
-136.5000000000036
 10
34.11816338082463
 20
-126.8407417371127
  0
ENDBLK
  5
2FD
330
2FB
100
AcDbEntity
  8
0
100
AcDbBlockEnd
  0
BLOCK
  5
31C
330
31B
100
AcDbEntity
  8
0
100
AcDbBlockBegin
  2
INS-D6X42
 70
     0
 10
0.0
 20
0.0
 30
0.0
  3
INS-D6X42
  1

  0
TEXT
  5
31F
330
31B
100
AcDbEntity
  8
寸法
  6
Continuous
100
AcDbText
 10
-29.19964616815014
 20
-37.32000000000726
 30
0.0
 40
19.982
  1
φ310
 50
90.0
 41
1.041145908602337
 72
     1
 11
-29.19964616815014
 21
-0.0000000000072689
 31
0.0
100
AcDbText
  0
LINE
  5
320
330
31B
100
AcDbEntity
  8
寸法
  6
Continuous
100
AcDbLine
 10
51.80035383184986
 20
-155.0000000000109
 30
0.0
 11
-19.19964616815014
 21
-155.0000000000109
 31
0.0
  0
LINE
  5
321
330
31B
100
AcDbEntity
  8
寸法
  6
Continuous
100
AcDbLine
 10
51.80035383184986
 20
154.9999999999964
 30
0.0
 11
-19.19964616815014
 21
154.9999999999964
 31
0.0
  0
LINE
  5
322
330
31B
100
AcDbEntity
  8
寸法
  6
Continuous
100
AcDbLine
 10
-19.19964616815014
 20
154.9999999999964
 30
0.0
 11
-19.19964616815014
 21
-155.0000000000109
 31
0.0
  0
LWPOLYLINE
  5
323
330
31B
100
AcDbEntity
  8
寸法
  6
Continuous
100
AcDbPolyline
 90
        3
 70
     0
 43
0.0
 10
-21.78783661917532
 20
145.3407417371054
 10
-19.19964616815014
 20
154.9999999999964
 10
-16.61145571712495
 20
145.3407417371054
  0
LWPOLYLINE
  5
324
330
31B
100
AcDbEntity
  8
寸法
  6
Continuous
100
AcDbPolyline
 90
        3
 70
     0
 43
0.0
 10
-16.61145571712495
 20
-145.34074173712
 10
-19.19964616815014
 20
-155.0000000000109
 10
-21.78783661917532
 20
-145.34074173712
  0
ENDBLK
  5
31D
330
31B
100
AcDbEntity
  8
0
100
AcDbBlockEnd
  0
BLOCK
  5
326
330
325
100
AcDbEntity
  8
0
100
AcDbBlockBegin
  2
INS-D8EDS
 70
     0
 10
0.0
 20
0.0
 30
0.0
  3
INS-D8EDS
  1

  0
TEXT
  5
329
330
325
100
AcDbEntity
  8
寸法
  6
Continuous
100
AcDbText
 10
-16.91964616815032
 20
21.23765888888738
 30
0.0
 40
19.982
  1
15
 41
1.089505144794249
 72
     1
 11
0.0003538318496794
 21
21.23765888888738
 31
0.0
100
AcDbText
  0
LINE
  5
32A
330
325
100
AcDbEntity
  8
寸法
  6
Continuous
100
AcDbLine
 10
7.500353831849679
 20
-43.83700000000317
 30
0.0
 11
7.500353831849679
 21
11.52376999999615
 31
0.0
  0
LINE
  5
32B
330
325
100
AcDbEntity
  8
寸法
  6
Continuous
100
AcDbLine
 10
-7.499646168150321
 20
-37.83700000000317
 30
0.0
 11
-7.499646168150321
 21
11.52376999999615
 31
0.0
  0
LINE
  5
32C
330
325
100
AcDbEntity
  8
寸法
  6
Continuous
100
AcDbLine
 10
-7.499646168150321
 20
11.52376999999615
 30
0.0
 11
7.500353831849679
 21
11.52376999999615
 31
0.0
  0
ENDBLK
  5
327
330
325
100
AcDbEntity
  8
0
100
AcDbBlockEnd
  0
BLOCK
  5
32E
330
32D
100
AcDbEntity
  8
0
100
AcDbBlockBegin
  2
INS-D6M1J
 70
     0
 10
0.0
 20
0.0
 30
0.0
  3
INS-D6M1J
  1

  0
TEXT
  5
331
330
32D
100
AcDbEntity
  8
寸法
  6
Continuous
100
AcDbText
 10
26.70635383184981
 20
-42.42000000000364
 30
0.0
 40
19.982
  1
φ298
 50
90.0
 41
1.041145908602337
 72
     1
 11
26.70635383184981
 21
-0.000000000003638
 31
0.0
100
AcDbText
  0
LINE
  5
332
330
32D
100
AcDbEntity
  8
寸法
  6
Continuous
100
AcDbLine
 10
-41.29364616815019
 20
-149.0000000000036
 30
0.0
 11
36.70635383184981
 21
-149.0000000000036
 31
0.0
  0
LINE
  5
333
330
32D
100
AcDbEntity
  8
寸法
  6
Continuous
100
AcDbLine
 10
-41.29364616815019
 20
148.9999999999964
 30
0.0
 11
36.70635383184981
 21
148.9999999999964
 31
0.0
  0
LINE
  5
334
330
32D
100
AcDbEntity
  8
寸法
  6
Continuous
100
AcDbLine
 10
36.70635383184981
 20
148.9999999999964
 30
0.0
 11
36.70635383184981
 21
-149.0000000000036
 31
0.0
  0
LWPOLYLINE
  5
335
330
32D
100
AcDbEntity
  8
寸法
  6
Continuous
100
AcDbPolyline
 90
        3
 70
     0
 43
0.0
 10
34.11816338082463
 20
139.3407417371054
 10
36.70635383184981
 20
148.9999999999964
 10
39.29454428287499
 20
139.3407417371054
  0
LWPOLYLINE
  5
336
330
32D
100
AcDbEntity
  8
寸法
  6
Continuous
100
AcDbPolyline
 90
        3
 70
     0
 43
0.0
 10
39.29454428287499
 20
-139.3407417371127
 10
36.70635383184981
 20
-149.0000000000036
 10
34.11816338082463
 20
-139.3407417371127
  0
ENDBLK
  5
32F
330
32D
100
AcDbEntity
  8
0
100
AcDbBlockEnd
  0
BLOCK
  5
34F
330
34E
100
AcDbEntity
  8
0
100
AcDbBlockBegin
  2
INS-D4J01
 70
     0
 10
0.0
 20
0.0
 30
0.0
  3
INS-D4J01
  1

  0
TEXT
  5
352
330
34E
100
AcDbEntity
  8
寸法
  6
Continuous
100
AcDbText
 10
-29.19916891403818
 20
-42.42000000000728
 30
0.0
 40
19.982
  1
φ335
 50
90.0
 41
1.041145908602337
 72
     1
 11
-29.19916891403818
 21
-0.000000000007276
 31
0.0
100
AcDbText
  0
LINE
  5
353
330
34E
100
AcDbEntity
  8
寸法
  6
Continuous
100
AcDbLine
 10
51.80083108596182
 20
-167.5000000000109
 30
0.0
 11
-19.19916891403818
 21
-167.5000000000109
 31
0.0
  0
LINE
  5
354
330
34E
100
AcDbEntity
  8
寸法
  6
Continuous
100
AcDbLine
 10
51.80083108596182
 20
167.4999999999964
 30
0.0
 11
-19.19916891403818
 21
167.4999999999964
 31
0.0
  0
LINE
  5
355
330
34E
100
AcDbEntity
  8
寸法
  6
Continuous
100
AcDbLine
 10
-19.19916891403818
 20
167.4999999999964
 30
0.0
 11
-19.19916891403818
 21
-167.5000000000109
 31
0.0
  0
LWPOLYLINE
  5
356
330
34E
100
AcDbEntity
  8
寸法
  6
Continuous
100
AcDbPolyline
 90
        3
 70
     0
 43
0.0
 10
-21.78735936506337
 20
157.8407417371054
 10
-19.19916891403818
 20
167.4999999999964
 10
-16.610978463013
 20
157.8407417371054
  0
LWPOLYLINE
  5
357
330
34E
100
AcDbEntity
  8
寸法
  6
Continuous
100
AcDbPolyline
 90
        3
 70
     0
 43
0.0
 10
-16.610978463013
 20
-157.84074173712
 10
-19.19916891403818
 20
-167.5000000000109
 10
-21.78735936506337
 20
-157.84074173712
  0
ENDBLK
  5
350
330
34E
100
AcDbEntity
  8
0
100
AcDbBlockEnd
  0
BLOCK
  5
359
330
358
100
AcDbEntity
  8
0
100
AcDbBlockBegin
  2
INS-D6Q23
 70
     0
 10
0.0
 20
0.0
 30
0.0
  3
INS-D6Q23
  1

  0
TEXT
  5
35C
330
358
100
AcDbEntity
  8
寸法
  6
Continuous
100
AcDbText
 10
-16.91916891403837
 20
21.23765888888738
 30
0.0
 40
19.982
  1
15
 41
1.089505144794249
 72
     1
 11
0.0008310859616358
 21
21.23765888888738
 31
0.0
100
AcDbText
  0
LINE
  5
35D
330
358
100
AcDbEntity
  8
寸法
  6
Continuous
100
AcDbLine
 10
7.500831085961636
 20
-43.83700000000317
 30
0.0
 11
7.500831085961636
 21
11.52376999999615
 31
0.0
  0
LINE
  5
35E
330
358
100
AcDbEntity
  8
寸法
  6
Continuous
100
AcDbLine
 10
-7.499168914038364
 20
-37.83700000000317
 30
0.0
 11
-7.499168914038364
 21
11.52376999999615
 31
0.0
  0
LINE
  5
35F
330
358
100
AcDbEntity
  8
寸法
  6
Continuous
100
AcDbLine
 10
-7.499168914038364
 20
11.52376999999615
 30
0.0
 11
7.500831085961636
 21
11.52376999999615
 31
0.0
  0
ENDBLK
  5
35A
330
358
100
AcDbEntity
  8
0
100
AcDbBlockEnd
  0
BLOCK
  5
361
330
360
100
AcDbEntity
  8
0
100
AcDbBlockBegin
  2
INS-DM1R4
 70
     0
 10
0.0
 20
0.0
 30
0.0
  3
INS-DM1R4
  1

  0
TEXT
  5
364
330
360
100
AcDbEntity
  8
寸法
  6
Continuous
100
AcDbText
 10
26.70633108596166
 20
-42.42000000000364
 30
0.0
 40
19.982
  1
φ323
 50
90.0
 41
1.041145908602337
 72
     1
 11
26.70633108596166
 21
-0.000000000003638
 31
0.0
100
AcDbText
  0
LINE
  5
365
330
360
100
AcDbEntity
  8
寸法
  6
Continuous
100
AcDbLine
 10
-41.29366891403834
 20
-161.5000000000036
 30
0.0
 11
36.70633108596166
 21
-161.5000000000036
 31
0.0
  0
LINE
  5
366
330
360
100
AcDbEntity
  8
寸法
  6
Continuous
100
AcDbLine
 10
-41.29366891403834
 20
161.4999999999964
 30
0.0
 11
36.70633108596166
 21
161.4999999999964
 31
0.0
  0
LINE
  5
367
330
360
100
AcDbEntity
  8
寸法
  6
Continuous
100
AcDbLine
 10
36.70633108596166
 20
161.4999999999964
 30
0.0
 11
36.70633108596166
 21
-161.5000000000036
 31
0.0
  0
LWPOLYLINE
  5
368
330
360
100
AcDbEntity
  8
寸法
  6
Continuous
100
AcDbPolyline
 90
        3
 70
     0
 43
0.0
 10
34.11814063493648
 20
151.8407417371054
 10
36.70633108596166
 20
161.4999999999964
 10
39.29452153698685
 20
151.8407417371054
  0
LWPOLYLINE
  5
369
330
360
100
AcDbEntity
  8
寸法
  6
Continuous
100
AcDbPolyline
 90
        3
 70
     0
 43
0.0
 10
39.29452153698685
 20
-151.8407417371127
 10
36.70633108596166
 20
-161.5000000000036
 10
34.11814063493648
 20
-151.8407417371127
  0
ENDBLK
  5
362
330
360
100
AcDbEntity
  8
0
100
AcDbBlockEnd
  0
BLOCK
  5
381
330
380
100
AcDbEntity
  8
0
100
AcDbBlockBegin
  2
INS-D4684
 70
     0
 10
0.0
 20
0.0
 30
0.0
  3
INS-D4684
  1

  0
TEXT
  5
384
330
380
100
AcDbEntity
  8
寸法
  6
Continuous
100
AcDbText
 10
-29.19916891403818
 20
-40.68000000001093
 30
0.0
 40
19.982
  1
φ360
 50
90.0
 41
1.041145908602337
 72
     1
 11
-29.19916891403818
 21
-0.000000000010921
 31
0.0
100
AcDbText
  0
LINE
  5
385
330
380
100
AcDbEntity
  8
寸法
  6
Continuous
100
AcDbLine
 10
51.80083108596182
 20
-180.0000000000146
 30
0.0
 11
-19.19916891403818
 21
-180.0000000000146
 31
0.0
  0
LINE
  5
386
330
380
100
AcDbEntity
  8
寸法
  6
Continuous
100
AcDbLine
 10
51.80083108596182
 20
179.9999999999927
 30
0.0
 11
-19.19916891403818
 21
179.9999999999927
 31
0.0
  0
LINE
  5
387
330
380
100
AcDbEntity
  8
寸法
  6
Continuous
100
AcDbLine
 10
-19.19916891403818
 20
179.9999999999927
 30
0.0
 11
-19.19916891403818
 21
-180.0000000000146
 31
0.0
  0
LWPOLYLINE
  5
388
330
380
100
AcDbEntity
  8
寸法
  6
Continuous
100
AcDbPolyline
 90
        3
 70
     0
 43
0.0
 10
-21.78735936506337
 20
170.3407417371018
 10
-19.19916891403818
 20
179.9999999999927
 10
-16.610978463013
 20
170.3407417371018
  0
LWPOLYLINE
  5
389
330
380
100
AcDbEntity
  8
寸法
  6
Continuous
100
AcDbPolyline
 90
        3
 70
     0
 43
0.0
 10
-16.610978463013
 20
-170.3407417371236
 10
-19.19916891403818
 20
-180.0000000000146
 10
-21.78735936506337
 20
-170.3407417371236
  0
ENDBLK
  5
382
330
380
100
AcDbEntity
  8
0
100
AcDbBlockEnd
  0
BLOCK
  5
38B
330
38A
100
AcDbEntity
  8
0
100
AcDbBlockBegin
  2
INS-D7RI8
 70
     0
 10
0.0
 20
0.0
 30
0.0
  3
INS-D7RI8
  1

  0
TEXT
  5
38E
330
38A
100
AcDbEntity
  8
寸法
  6
Continuous
100
AcDbText
 10
-16.91916891403837
 20
21.23765888888374
 30
0.0
 40
19.982
  1
15
 41
1.089505144794249
 72
     1
 11
0.0008310859616358
 21
21.23765888888374
 31
0.0
100
AcDbText
  0
LINE
  5
38F
330
38A
100
AcDbEntity
  8
寸法
  6
Continuous
100
AcDbLine
 10
7.500831085961636
 20
-43.83700000000681
 30
0.0
 11
7.500831085961636
 21
11.52376999999251
 31
0.0
  0
LINE
  5
390
330
38A
100
AcDbEntity
  8
寸法
  6
Continuous
100
AcDbLine
 10
-7.499168914038364
 20
-37.83700000000681
 30
0.0
 11
-7.499168914038364
 21
11.52376999999251
 31
0.0
  0
LINE
  5
391
330
38A
100
AcDbEntity
  8
寸法
  6
Continuous
100
AcDbLine
 10
-7.499168914038364
 20
11.52376999999251
 30
0.0
 11
7.500831085961636
 21
11.52376999999251
 31
0.0
  0
ENDBLK
  5
38C
330
38A
100
AcDbEntity
  8
0
100
AcDbBlockEnd
  0
BLOCK
  5
393
330
392
100
AcDbEntity
  8
0
100
AcDbBlockBegin
  2
INS-D8DEV
 70
     0
 10
0.0
 20
0.0
 30
0.0
  3
INS-D8DEV
  1

  0
TEXT
  5
396
330
392
100
AcDbEntity
  8
寸法
  6
Continuous
100
AcDbText
 10
26.70633108596166
 20
-42.42000000000728
 30
0.0
 40
19.982
  1
φ348
 50
90.0
 41
1.041145908602337
 72
     1
 11
26.70633108596166
 21
-0.000000000007276
 31
0.0
100
AcDbText
  0
LINE
  5
397
330
392
100
AcDbEntity
  8
寸法
  6
Continuous
100
AcDbLine
 10
-41.29366891403834
 20
-174.0000000000073
 30
0.0
 11
36.70633108596166
 21
-174.0000000000073
 31
0.0
  0
LINE
  5
398
330
392
100
AcDbEntity
  8
寸法
  6
Continuous
100
AcDbLine
 10
-41.29366891403834
 20
173.9999999999927
 30
0.0
 11
36.70633108596166
 21
173.9999999999927
 31
0.0
  0
LINE
  5
399
330
392
100
AcDbEntity
  8
寸法
  6
Continuous
100
AcDbLine
 10
36.70633108596166
 20
173.9999999999927
 30
0.0
 11
36.70633108596166
 21
-174.0000000000073
 31
0.0
  0
LWPOLYLINE
  5
39A
330
392
100
AcDbEntity
  8
寸法
  6
Continuous
100
AcDbPolyline
 90
        3
 70
     0
 43
0.0
 10
34.11814063493648
 20
164.3407417371018
 10
36.70633108596166
 20
173.9999999999927
 10
39.29452153698685
 20
164.3407417371018
  0
LWPOLYLINE
  5
39B
330
392
100
AcDbEntity
  8
寸法
  6
Continuous
100
AcDbPolyline
 90
        3
 70
     0
 43
0.0
 10
39.29452153698685
 20
-164.3407417371163
 10
36.70633108596166
 20
-174.0000000000073
 10
34.11814063493648
 20
-164.3407417371163
  0
ENDBLK
  5
394
330
392
100
AcDbEntity
  8
0
100
AcDbBlockEnd
  0
BLOCK
  5
3B3
330
3B2
100
AcDbEntity
  8
0
100
AcDbBlockBegin
  2
INS-D50FL
 70
     0
 10
0.0
 20
0.0
 30
0.0
  3
INS-D50FL
  1

  0
TEXT
  5
3B6
330
3B2
100
AcDbEntity
  8
寸法
  6
Continuous
100
AcDbText
 10
-29.19916891403818
 20
-42.42000000000728
 30
0.0
 40
19.982
  1
φ385
 50
90.0
 41
1.041145908602337
 72
     1
 11
-29.19916891403818
 21
-0.000000000007276
 31
0.0
100
AcDbText
  0
LINE
  5
3B7
330
3B2
100
AcDbEntity
  8
寸法
  6
Continuous
100
AcDbLine
 10
51.80083108596182
 20
-192.5000000000109
 30
0.0
 11
-19.19916891403818
 21
-192.5000000000109
 31
0.0
  0
LINE
  5
3B8
330
3B2
100
AcDbEntity
  8
寸法
  6
Continuous
100
AcDbLine
 10
51.80083108596182
 20
192.4999999999964
 30
0.0
 11
-19.19916891403818
 21
192.4999999999964
 31
0.0
  0
LINE
  5
3B9
330
3B2
100
AcDbEntity
  8
寸法
  6
Continuous
100
AcDbLine
 10
-19.19916891403818
 20
192.4999999999964
 30
0.0
 11
-19.19916891403818
 21
-192.5000000000109
 31
0.0
  0
LWPOLYLINE
  5
3BA
330
3B2
100
AcDbEntity
  8
寸法
  6
Continuous
100
AcDbPolyline
 90
        3
 70
     0
 43
0.0
 10
-21.78735936506337
 20
182.8407417371054
 10
-19.19916891403818
 20
192.4999999999964
 10
-16.610978463013
 20
182.8407417371054
  0
LWPOLYLINE
  5
3BB
330
3B2
100
AcDbEntity
  8
寸法
  6
Continuous
100
AcDbPolyline
 90
        3
 70
     0
 43
0.0
 10
-16.610978463013
 20
-182.84074173712
 10
-19.19916891403818
 20
-192.5000000000109
 10
-21.78735936506337
 20
-182.84074173712
  0
ENDBLK
  5
3B4
330
3B2
100
AcDbEntity
  8
0
100
AcDbBlockEnd
  0
BLOCK
  5
3BD
330
3BC
100
AcDbEntity
  8
0
100
AcDbBlockBegin
  2
INS-D3W0V
 70
     0
 10
0.0
 20
0.0
 30
0.0
  3
INS-D3W0V
  1

  0
TEXT
  5
3C0
330
3BC
100
AcDbEntity
  8
寸法
  6
Continuous
100
AcDbText
 10
-16.91916891403837
 20
21.23765888888738
 30
0.0
 40
19.982
  1
15
 41
1.089505144794249
 72
     1
 11
0.0008310859616358
 21
21.23765888888738
 31
0.0
100
AcDbText
  0
LINE
  5
3C1
330
3BC
100
AcDbEntity
  8
寸法
  6
Continuous
100
AcDbLine
 10
7.500831085961636
 20
-43.83700000000317
 30
0.0
 11
7.500831085961636
 21
11.52376999999615
 31
0.0
  0
LINE
  5
3C2
330
3BC
100
AcDbEntity
  8
寸法
  6
Continuous
100
AcDbLine
 10
-7.499168914038364
 20
-37.83700000000317
 30
0.0
 11
-7.499168914038364
 21
11.52376999999615
 31
0.0
  0
LINE
  5
3C3
330
3BC
100
AcDbEntity
  8
寸法
  6
Continuous
100
AcDbLine
 10
-7.499168914038364
 20
11.52376999999615
 30
0.0
 11
7.500831085961636
 21
11.52376999999615
 31
0.0
  0
ENDBLK
  5
3BE
330
3BC
100
AcDbEntity
  8
0
100
AcDbBlockEnd
  0
BLOCK
  5
3C5
330
3C4
100
AcDbEntity
  8
0
100
AcDbBlockBegin
  2
INS-D3M2B
 70
     0
 10
0.0
 20
0.0
 30
0.0
  3
INS-D3M2B
  1

  0
TEXT
  5
3C8
330
3C4
100
AcDbEntity
  8
寸法
  6
Continuous
100
AcDbText
 10
26.70633108596166
 20
-42.42000000000364
 30
0.0
 40
19.982
  1
φ373
 50
90.0
 41
1.041145908602337
 72
     1
 11
26.70633108596166
 21
-0.000000000003638
 31
0.0
100
AcDbText
  0
LINE
  5
3C9
330
3C4
100
AcDbEntity
  8
寸法
  6
Continuous
100
AcDbLine
 10
-41.29366891403834
 20
-186.5000000000036
 30
0.0
 11
36.70633108596166
 21
-186.5000000000036
 31
0.0
  0
LINE
  5
3CA
330
3C4
100
AcDbEntity
  8
寸法
  6
Continuous
100
AcDbLine
 10
-41.29366891403834
 20
186.4999999999964
 30
0.0
 11
36.70633108596166
 21
186.4999999999964
 31
0.0
  0
LINE
  5
3CB
330
3C4
100
AcDbEntity
  8
寸法
  6
Continuous
100
AcDbLine
 10
36.70633108596166
 20
186.4999999999964
 30
0.0
 11
36.70633108596166
 21
-186.5000000000036
 31
0.0
  0
LWPOLYLINE
  5
3CC
330
3C4
100
AcDbEntity
  8
寸法
  6
Continuous
100
AcDbPolyline
 90
        3
 70
     0
 43
0.0
 10
34.11814063493648
 20
176.8407417371054
 10
36.70633108596166
 20
186.4999999999964
 10
39.29452153698685
 20
176.8407417371054
  0
LWPOLYLINE
  5
3CD
330
3C4
100
AcDbEntity
  8
寸法
  6
Continuous
100
AcDbPolyline
 90
        3
 70
     0
 43
0.0
 10
39.29452153698685
 20
-176.8407417371127
 10
36.70633108596166
 20
-186.5000000000036
 10
34.11814063493648
 20
-176.8407417371127
  0
ENDBLK
  5
3C6
330
3C4
100
AcDbEntity
  8
0
100
AcDbBlockEnd
  0
BLOCK
  5
3E1
330
3E0
100
AcDbEntity
  8
0
100
AcDbBlockBegin
  2
INS-D55T4
 70
     0
 10
0.0
 20
0.0
 30
0.0
  3
INS-D55T4
  1

  0
TEXT
  5
3E4
330
3E0
100
AcDbEntity
  8
寸法
  6
Continuous
100
AcDbText
 10
-29.19916891403823
 20
-59.58000000000363
 30
0.0
 40
19.982
  1
内径φ100
 50
90.0
 41
1.025966251272801
 72
     1
 11
-29.19916891403823
 21
-0.000000000003638
 31
0.0
100
AcDbText
  0
LINE
  5
3E5
330
3E0
100
AcDbEntity
  8
寸法
  6
Continuous
100
AcDbLine
 10
51.80083108596176
 20
-50.00000000000364
 30
0.0
 11
-19.19916891403824
 21
-50.00000000000364
 31
0.0
  0
LINE
  5
3E6
330
3E0
100
AcDbEntity
  8
寸法
  6
Continuous
100
AcDbLine
 10
51.80083108596176
 20
49.99999999999636
 30
0.0
 11
-19.19916891403824
 21
49.99999999999636
 31
0.0
  0
LINE
  5
3E7
330
3E0
100
AcDbEntity
  8
寸法
  6
Continuous
100
AcDbLine
 10
-19.19916891403824
 20
49.99999999999636
 30
0.0
 11
-19.19916891403824
 21
-50.00000000000364
 31
0.0
  0
LWPOLYLINE
  5
3E8
330
3E0
100
AcDbEntity
  8
寸法
  6
Continuous
100
AcDbPolyline
 90
        3
 70
     0
 43
0.0
 10
-21.78735936506345
 20
40.34074173710542
 10
-19.19916891403824
 20
49.99999999999636
 10
-16.61097846301303
 20
40.34074173710542
  0
LWPOLYLINE
  5
3E9
330
3E0
100
AcDbEntity
  8
寸法
  6
Continuous
100
AcDbPolyline
 90
        3
 70
     0
 43
0.0
 10
-16.61097846301303
 20
-40.34074173711269
 10
-19.19916891403824
 20
-50.00000000000364
 10
-21.78735936506345
 20
-40.34074173711269
  0
ENDBLK
  5
3E2
330
3E0
100
AcDbEntity
  8
0
100
AcDbBlockEnd
  0
BLOCK
  5
3EB
330
3EA
100
AcDbEntity
  8
0
100
AcDbBlockBegin
  2
INS-DZ10E
 70
     0
 10
0.0
 20
0.0
 30
0.0
  3
INS-DZ10E
  1

  0
TEXT
  5
3EE
330
3EA
100
AcDbEntity
  8
寸法
  6
Continuous
100
AcDbText
 10
-20.27916891403822
 20
20.58076999999685
 30
0.0
 40
19.982
  1
45
 41
1.089505144794249
 72
     1
 11
0.0008310859617779
 21
20.58076999999685
 31
0.0
100
AcDbText
  0
LINE
  5
3EF
330
3EA
100
AcDbEntity
  8
寸法
  6
Continuous
100
AcDbLine
 10
22.50083108596178
 20
-43.18000000000393
 30
0.0
 11
22.50083108596178
 21
10.58076999999685
 31
0.0
  0
LINE
  5
3F0
330
3EA
100
AcDbEntity
  8
寸法
  6
Continuous
100
AcDbLine
 10
-22.49916891403822
 20
-43.18000000000393
 30
0.0
 11
-22.49916891403822
 21
10.58076999999685
 31
0.0
  0
LINE
  5
3F1
330
3EA
100
AcDbEntity
  8
寸法
  6
Continuous
100
AcDbLine
 10
-22.49916891403822
 20
10.58076999999685
 30
0.0
 11
22.50083108596178
 21
10.58076999999685
 31
0.0
  0
LWPOLYLINE
  5
3F2
330
3EA
100
AcDbEntity
  8
寸法
  6
Continuous
100
AcDbPolyline
 90
        3
 70
     0
 43
0.0
 10
-12.83991065114753
 20
7.992579548972572
 10
-22.49916891403822
 20
10.58076999999685
 10
-12.83991065114753
 20
13.16896045102112
  0
LWPOLYLINE
  5
3F3
330
3EA
100
AcDbEntity
  8
寸法
  6
Continuous
100
AcDbPolyline
 90
        3
 70
     0
 43
0.0
 10
12.84157282307109
 20
13.16896045102112
 10
22.50083108596178
 20
10.58076999999685
 10
12.84157282307109
 20
7.992579548972572
  0
ENDBLK
  5
3EC
330
3EA
100
AcDbEntity
  8
0
100
AcDbBlockEnd
  0
BLOCK
  5
402
330
401
100
AcDbEntity
  8
0
100
AcDbBlockBegin
  2
INS-D7CD4
 70
     0
 10
0.0
 20
0.0
 30
0.0
  3
INS-D7CD4
  1

  0
TEXT
  5
405
330
401
100
AcDbEntity
  8
寸法
  6
Continuous
100
AcDbText
 10
-29.19916891403825
 20
-63.06000000000363
 30
0.0
 40
19.982
  1
内径φ125
 50
90.0
 41
1.025966251272801
 72
     1
 11
-29.19916891403825
 21
-0.000000000003638
 31
0.0
100
AcDbText
  0
LINE
  5
406
330
401
100
AcDbEntity
  8
寸法
  6
Continuous
100
AcDbLine
 10
51.80083108596176
 20
-62.50000000000364
 30
0.0
 11
-19.19916891403824
 21
-62.50000000000364
 31
0.0
  0
LINE
  5
407
330
401
100
AcDbEntity
  8
寸法
  6
Continuous
100
AcDbLine
 10
51.80083108596176
 20
62.49999999999636
 30
0.0
 11
-19.19916891403824
 21
62.49999999999636
 31
0.0
  0
LINE
  5
408
330
401
100
AcDbEntity
  8
寸法
  6
Continuous
100
AcDbLine
 10
-19.19916891403824
 20
62.49999999999636
 30
0.0
 11
-19.19916891403824
 21
-62.50000000000364
 31
0.0
  0
LWPOLYLINE
  5
409
330
401
100
AcDbEntity
  8
寸法
  6
Continuous
100
AcDbPolyline
 90
        3
 70
     0
 43
0.0
 10
-21.78735936506345
 20
52.84074173710542
 10
-19.19916891403824
 20
62.49999999999636
 10
-16.61097846301303
 20
52.84074173710542
  0
LWPOLYLINE
  5
40A
330
401
100
AcDbEntity
  8
寸法
  6
Continuous
100
AcDbPolyline
 90
        3
 70
     0
 43
0.0
 10
-16.61097846301303
 20
-52.84074173711269
 10
-19.19916891403824
 20
-62.50000000000364
 10
-21.78735936506345
 20
-52.84074173711269
  0
ENDBLK
  5
403
330
401
100
AcDbEntity
  8
0
100
AcDbBlockEnd
  0
BLOCK
  5
40C
330
40B
100
AcDbEntity
  8
0
100
AcDbBlockBegin
  2
INS-D8QXC
 70
     0
 10
0.0
 20
0.0
 30
0.0
  3
INS-D8QXC
  1

  0
TEXT
  5
40F
330
40B
100
AcDbEntity
  8
寸法
  6
Continuous
100
AcDbText
 10
-20.27916891403822
 20
20.58076999999685
 30
0.0
 40
19.982
  1
45
 41
1.089505144794249
 72
     1
 11
0.0008310859617779
 21
20.58076999999685
 31
0.0
100
AcDbText
  0
LINE
  5
410
330
40B
100
AcDbEntity
  8
寸法
  6
Continuous
100
AcDbLine
 10
22.50083108596178
 20
-43.18000000000393
 30
0.0
 11
22.50083108596178
 21
10.58076999999685
 31
0.0
  0
LINE
  5
411
330
40B
100
AcDbEntity
  8
寸法
  6
Continuous
100
AcDbLine
 10
-22.49916891403822
 20
-43.18000000000393
 30
0.0
 11
-22.49916891403822
 21
10.58076999999685
 31
0.0
  0
LINE
  5
412
330
40B
100
AcDbEntity
  8
寸法
  6
Continuous
100
AcDbLine
 10
-22.49916891403822
 20
10.58076999999685
 30
0.0
 11
22.50083108596178
 21
10.58076999999685
 31
0.0
  0
LWPOLYLINE
  5
413
330
40B
100
AcDbEntity
  8
寸法
  6
Continuous
100
AcDbPolyline
 90
        3
 70
     0
 43
0.0
 10
-12.83991065114753
 20
7.992579548972572
 10
-22.49916891403822
 20
10.58076999999685
 10
-12.83991065114753
 20
13.16896045102112
  0
LWPOLYLINE
  5
414
330
40B
100
AcDbEntity
  8
寸法
  6
Continuous
100
AcDbPolyline
 90
        3
 70
     0
 43
0.0
 10
12.84157282307109
 20
13.16896045102112
 10
22.50083108596178
 20
10.58076999999685
 10
12.84157282307109
 20
7.992579548972572
  0
ENDBLK
  5
40D
330
40B
100
AcDbEntity
  8
0
100
AcDbBlockEnd
  0
BLOCK
  5
423
330
422
100
AcDbEntity
  8
0
100
AcDbBlockBegin
  2
INS-DKQNQ
 70
     0
 10
0.0
 20
0.0
 30
0.0
  3
INS-DKQNQ
  1

  0
TEXT
  5
426
330
422
100
AcDbEntity
  8
寸法
  6
Continuous
100
AcDbText
 10
-29.19916891403825
 20
-61.32000000000364
 30
0.0
 40
19.982
  1
内径φ150
 50
90.0
 41
1.025966251272801
 72
     1
 11
-29.19916891403825
 21
-0.000000000003638
 31
0.0
100
AcDbText
  0
LINE
  5
427
330
422
100
AcDbEntity
  8
寸法
  6
Continuous
100
AcDbLine
 10
51.80083108596176
 20
-75.00000000000364
 30
0.0
 11
-19.19916891403824
 21
-75.00000000000364
 31
0.0
  0
LINE
  5
428
330
422
100
AcDbEntity
  8
寸法
  6
Continuous
100
AcDbLine
 10
51.80083108596176
 20
74.99999999999636
 30
0.0
 11
-19.19916891403824
 21
74.99999999999636
 31
0.0
  0
LINE
  5
429
330
422
100
AcDbEntity
  8
寸法
  6
Continuous
100
AcDbLine
 10
-19.19916891403824
 20
74.99999999999636
 30
0.0
 11
-19.19916891403824
 21
-75.00000000000364
 31
0.0
  0
LWPOLYLINE
  5
42A
330
422
100
AcDbEntity
  8
寸法
  6
Continuous
100
AcDbPolyline
 90
        3
 70
     0
 43
0.0
 10
-21.78735936506345
 20
65.34074173710542
 10
-19.19916891403824
 20
74.99999999999636
 10
-16.61097846301303
 20
65.34074173710542
  0
LWPOLYLINE
  5
42B
330
422
100
AcDbEntity
  8
寸法
  6
Continuous
100
AcDbPolyline
 90
        3
 70
     0
 43
0.0
 10
-16.61097846301303
 20
-65.3407417371127
 10
-19.19916891403824
 20
-75.00000000000364
 10
-21.78735936506345
 20
-65.3407417371127
  0
ENDBLK
  5
424
330
422
100
AcDbEntity
  8
0
100
AcDbBlockEnd
  0
BLOCK
  5
42D
330
42C
100
AcDbEntity
  8
0
100
AcDbBlockBegin
  2
INS-D65EO
 70
     0
 10
0.0
 20
0.0
 30
0.0
  3
INS-D65EO
  1

  0
TEXT
  5
430
330
42C
100
AcDbEntity
  8
寸法
  6
Continuous
100
AcDbText
 10
-20.27916891403822
 20
20.58076999999685
 30
0.0
 40
19.982
  1
45
 41
1.089505144794249
 72
     1
 11
0.0008310859617779
 21
20.58076999999685
 31
0.0
100
AcDbText
  0
LINE
  5
431
330
42C
100
AcDbEntity
  8
寸法
  6
Continuous
100
AcDbLine
 10
22.50083108596178
 20
-43.18000000000393
 30
0.0
 11
22.50083108596178
 21
10.58076999999685
 31
0.0
  0
LINE
  5
432
330
42C
100
AcDbEntity
  8
寸法
  6
Continuous
100
AcDbLine
 10
-22.49916891403822
 20
-43.18000000000393
 30
0.0
 11
-22.49916891403822
 21
10.58076999999685
 31
0.0
  0
LINE
  5
433
330
42C
100
AcDbEntity
  8
寸法
  6
Continuous
100
AcDbLine
 10
-22.49916891403822
 20
10.58076999999685
 30
0.0
 11
22.50083108596178
 21
10.58076999999685
 31
0.0
  0
LWPOLYLINE
  5
434
330
42C
100
AcDbEntity
  8
寸法
  6
Continuous
100
AcDbPolyline
 90
        3
 70
     0
 43
0.0
 10
-12.83991065114753
 20
7.992579548972572
 10
-22.49916891403822
 20
10.58076999999685
 10
-12.83991065114753
 20
13.16896045102112
  0
LWPOLYLINE
  5
435
330
42C
100
AcDbEntity
  8
寸法
  6
Continuous
100
AcDbPolyline
 90
        3
 70
     0
 43
0.0
 10
12.84157282307109
 20
13.16896045102112
 10
22.50083108596178
 20
10.58076999999685
 10
12.84157282307109
 20
7.992579548972572
  0
ENDBLK
  5
42E
330
42C
100
AcDbEntity
  8
0
100
AcDbBlockEnd
  0
BLOCK
  5
444
330
443
100
AcDbEntity
  8
0
100
AcDbBlockBegin
  2
INS-D92V6
 70
     0
 10
0.0
 20
0.0
 30
0.0
  3
INS-D92V6
  1

  0
TEXT
  5
447
330
443
100
AcDbEntity
  8
寸法
  6
Continuous
100
AcDbText
 10
-29.19916891403825
 20
-63.06000000000363
 30
0.0
 40
19.982
  1
内径φ175
 50
90.0
 41
1.025966251272801
 72
     1
 11
-29.19916891403825
 21
-0.000000000003638
 31
0.0
100
AcDbText
  0
LINE
  5
448
330
443
100
AcDbEntity
  8
寸法
  6
Continuous
100
AcDbLine
 10
51.80083108596176
 20
-87.50000000000364
 30
0.0
 11
-19.19916891403824
 21
-87.50000000000364
 31
0.0
  0
LINE
  5
449
330
443
100
AcDbEntity
  8
寸法
  6
Continuous
100
AcDbLine
 10
51.80083108596176
 20
87.49999999999636
 30
0.0
 11
-19.19916891403824
 21
87.49999999999636
 31
0.0
  0
LINE
  5
44A
330
443
100
AcDbEntity
  8
寸法
  6
Continuous
100
AcDbLine
 10
-19.19916891403824
 20
87.49999999999636
 30
0.0
 11
-19.19916891403824
 21
-87.50000000000364
 31
0.0
  0
LWPOLYLINE
  5
44B
330
443
100
AcDbEntity
  8
寸法
  6
Continuous
100
AcDbPolyline
 90
        3
 70
     0
 43
0.0
 10
-21.78735936506345
 20
77.84074173710542
 10
-19.19916891403824
 20
87.49999999999636
 10
-16.61097846301303
 20
77.84074173710542
  0
LWPOLYLINE
  5
44C
330
443
100
AcDbEntity
  8
寸法
  6
Continuous
100
AcDbPolyline
 90
        3
 70
     0
 43
0.0
 10
-16.61097846301303
 20
-77.8407417371127
 10
-19.19916891403824
 20
-87.50000000000364
 10
-21.78735936506345
 20
-77.8407417371127
  0
ENDBLK
  5
445
330
443
100
AcDbEntity
  8
0
100
AcDbBlockEnd
  0
BLOCK
  5
44E
330
44D
100
AcDbEntity
  8
0
100
AcDbBlockBegin
  2
INS-D46PK
 70
     0
 10
0.0
 20
0.0
 30
0.0
  3
INS-D46PK
  1

  0
TEXT
  5
451
330
44D
100
AcDbEntity
  8
寸法
  6
Continuous
100
AcDbText
 10
-20.27916891403822
 20
20.58076999999685
 30
0.0
 40
19.982
  1
45
 41
1.089505144794249
 72
     1
 11
0.0008310859617779
 21
20.58076999999685
 31
0.0
100
AcDbText
  0
LINE
  5
452
330
44D
100
AcDbEntity
  8
寸法
  6
Continuous
100
AcDbLine
 10
22.50083108596178
 20
-43.18000000000393
 30
0.0
 11
22.50083108596178
 21
10.58076999999685
 31
0.0
  0
LINE
  5
453
330
44D
100
AcDbEntity
  8
寸法
  6
Continuous
100
AcDbLine
 10
-22.49916891403822
 20
-43.18000000000393
 30
0.0
 11
-22.49916891403822
 21
10.58076999999685
 31
0.0
  0
LINE
  5
454
330
44D
100
AcDbEntity
  8
寸法
  6
Continuous
100
AcDbLine
 10
-22.49916891403822
 20
10.58076999999685
 30
0.0
 11
22.50083108596178
 21
10.58076999999685
 31
0.0
  0
LWPOLYLINE
  5
455
330
44D
100
AcDbEntity
  8
寸法
  6
Continuous
100
AcDbPolyline
 90
        3
 70
     0
 43
0.0
 10
-12.83991065114753
 20
7.992579548972572
 10
-22.49916891403822
 20
10.58076999999685
 10
-12.83991065114753
 20
13.16896045102112
  0
LWPOLYLINE
  5
456
330
44D
100
AcDbEntity
  8
寸法
  6
Continuous
100
AcDbPolyline
 90
        3
 70
     0
 43
0.0
 10
12.84157282307109
 20
13.16896045102112
 10
22.50083108596178
 20
10.58076999999685
 10
12.84157282307109
 20
7.992579548972572
  0
ENDBLK
  5
44F
330
44D
100
AcDbEntity
  8
0
100
AcDbBlockEnd
  0
BLOCK
  5
465
330
464
100
AcDbEntity
  8
0
100
AcDbBlockBegin
  2
INS-D9MMC
 70
     0
 10
0.0
 20
0.0
 30
0.0
  3
INS-D9MMC
  1

  0
TEXT
  5
468
330
464
100
AcDbEntity
  8
寸法
  6
Continuous
100
AcDbText
 10
-29.19916891403825
 20
-62.94000000000363
 30
0.0
 40
19.982
  1
内径φ200
 50
90.0
 41
1.025966251272801
 72
     1
 11
-29.19916891403825
 21
-0.000000000003638
 31
0.0
100
AcDbText
  0
LINE
  5
469
330
464
100
AcDbEntity
  8
寸法
  6
Continuous
100
AcDbLine
 10
51.80083108596176
 20
-100.0000000000036
 30
0.0
 11
-19.19916891403824
 21
-100.0000000000036
 31
0.0
  0
LINE
  5
46A
330
464
100
AcDbEntity
  8
寸法
  6
Continuous
100
AcDbLine
 10
51.80083108596176
 20
99.99999999999636
 30
0.0
 11
-19.19916891403824
 21
99.99999999999636
 31
0.0
  0
LINE
  5
46B
330
464
100
AcDbEntity
  8
寸法
  6
Continuous
100
AcDbLine
 10
-19.19916891403824
 20
99.99999999999636
 30
0.0
 11
-19.19916891403824
 21
-100.0000000000036
 31
0.0
  0
LWPOLYLINE
  5
46C
330
464
100
AcDbEntity
  8
寸法
  6
Continuous
100
AcDbPolyline
 90
        3
 70
     0
 43
0.0
 10
-21.78735936506345
 20
90.34074173710542
 10
-19.19916891403824
 20
99.99999999999636
 10
-16.61097846301303
 20
90.34074173710542
  0
LWPOLYLINE
  5
46D
330
464
100
AcDbEntity
  8
寸法
  6
Continuous
100
AcDbPolyline
 90
        3
 70
     0
 43
0.0
 10
-16.61097846301303
 20
-90.3407417371127
 10
-19.19916891403824
 20
-100.0000000000036
 10
-21.78735936506345
 20
-90.3407417371127
  0
ENDBLK
  5
466
330
464
100
AcDbEntity
  8
0
100
AcDbBlockEnd
  0
BLOCK
  5
46F
330
46E
100
AcDbEntity
  8
0
100
AcDbBlockBegin
  2
INS-D70LU
 70
     0
 10
0.0
 20
0.0
 30
0.0
  3
INS-D70LU
  1

  0
TEXT
  5
472
330
46E
100
AcDbEntity
  8
寸法
  6
Continuous
100
AcDbText
 10
-20.27916891403822
 20
20.58076999999685
 30
0.0
 40
19.982
  1
45
 41
1.089505144794249
 72
     1
 11
0.0008310859617779
 21
20.58076999999685
 31
0.0
100
AcDbText
  0
LINE
  5
473
330
46E
100
AcDbEntity
  8
寸法
  6
Continuous
100
AcDbLine
 10
22.50083108596178
 20
-43.18000000000393
 30
0.0
 11
22.50083108596178
 21
10.58076999999685
 31
0.0
  0
LINE
  5
474
330
46E
100
AcDbEntity
  8
寸法
  6
Continuous
100
AcDbLine
 10
-22.49916891403822
 20
-43.18000000000393
 30
0.0
 11
-22.49916891403822
 21
10.58076999999685
 31
0.0
  0
LINE
  5
475
330
46E
100
AcDbEntity
  8
寸法
  6
Continuous
100
AcDbLine
 10
-22.49916891403822
 20
10.58076999999685
 30
0.0
 11
22.50083108596178
 21
10.58076999999685
 31
0.0
  0
LWPOLYLINE
  5
476
330
46E
100
AcDbEntity
  8
寸法
  6
Continuous
100
AcDbPolyline
 90
        3
 70
     0
 43
0.0
 10
-12.83991065114753
 20
7.992579548972572
 10
-22.49916891403822
 20
10.58076999999685
 10
-12.83991065114753
 20
13.16896045102112
  0
LWPOLYLINE
  5
477
330
46E
100
AcDbEntity
  8
寸法
  6
Continuous
100
AcDbPolyline
 90
        3
 70
     0
 43
0.0
 10
12.84157282307109
 20
13.16896045102112
 10
22.50083108596178
 20
10.58076999999685
 10
12.84157282307109
 20
7.992579548972572
  0
ENDBLK
  5
470
330
46E
100
AcDbEntity
  8
0
100
AcDbBlockEnd
  0
BLOCK
  5
486
330
485
100
AcDbEntity
  8
0
100
AcDbBlockBegin
  2
INS-D67NQ
 70
     0
 10
0.0
 20
0.0
 30
0.0
  3
INS-D67NQ
  1

  0
TEXT
  5
489
330
485
100
AcDbEntity
  8
寸法
  6
Continuous
100
AcDbText
 10
-29.19916891403823
 20
-66.42000000000363
 30
0.0
 40
19.982
  1
内径φ225
 50
90.0
 41
1.025966251272801
 72
     1
 11
-29.19916891403823
 21
-0.000000000003638
 31
0.0
100
AcDbText
  0
LINE
  5
48A
330
485
100
AcDbEntity
  8
寸法
  6
Continuous
100
AcDbLine
 10
51.80083108596176
 20
-112.5000000000036
 30
0.0
 11
-19.19916891403824
 21
-112.5000000000036
 31
0.0
  0
LINE
  5
48B
330
485
100
AcDbEntity
  8
寸法
  6
Continuous
100
AcDbLine
 10
51.80083108596176
 20
112.4999999999964
 30
0.0
 11
-19.19916891403824
 21
112.4999999999964
 31
0.0
  0
LINE
  5
48C
330
485
100
AcDbEntity
  8
寸法
  6
Continuous
100
AcDbLine
 10
-19.19916891403824
 20
112.4999999999964
 30
0.0
 11
-19.19916891403824
 21
-112.5000000000036
 31
0.0
  0
LWPOLYLINE
  5
48D
330
485
100
AcDbEntity
  8
寸法
  6
Continuous
100
AcDbPolyline
 90
        3
 70
     0
 43
0.0
 10
-21.78735936506342
 20
102.8407417371054
 10
-19.19916891403824
 20
112.4999999999964
 10
-16.61097846301303
 20
102.8407417371054
  0
LWPOLYLINE
  5
48E
330
485
100
AcDbEntity
  8
寸法
  6
Continuous
100
AcDbPolyline
 90
        3
 70
     0
 43
0.0
 10
-16.61097846301303
 20
-102.8407417371127
 10
-19.19916891403824
 20
-112.5000000000036
 10
-21.78735936506342
 20
-102.8407417371127
  0
ENDBLK
  5
487
330
485
100
AcDbEntity
  8
0
100
AcDbBlockEnd
  0
BLOCK
  5
490
330
48F
100
AcDbEntity
  8
0
100
AcDbBlockBegin
  2
INS-DWT09
 70
     0
 10
0.0
 20
0.0
 30
0.0
  3
INS-DWT09
  1

  0
TEXT
  5
493
330
48F
100
AcDbEntity
  8
寸法
  6
Continuous
100
AcDbText
 10
-20.27916891403822
 20
20.58076999999685
 30
0.0
 40
19.982
  1
55
 41
1.089505144794249
 72
     1
 11
0.0008310859617779
 21
20.58076999999685
 31
0.0
100
AcDbText
  0
LINE
  5
494
330
48F
100
AcDbEntity
  8
寸法
  6
Continuous
100
AcDbLine
 10
27.50083108596178
 20
-43.18000000000393
 30
0.0
 11
27.50083108596178
 21
10.58076999999685
 31
0.0
  0
LINE
  5
495
330
48F
100
AcDbEntity
  8
寸法
  6
Continuous
100
AcDbLine
 10
-27.49916891403822
 20
-43.18000000000393
 30
0.0
 11
-27.49916891403822
 21
10.58076999999685
 31
0.0
  0
LINE
  5
496
330
48F
100
AcDbEntity
  8
寸法
  6
Continuous
100
AcDbLine
 10
-27.49916891403822
 20
10.58076999999685
 30
0.0
 11
27.50083108596178
 21
10.58076999999685
 31
0.0
  0
LWPOLYLINE
  5
497
330
48F
100
AcDbEntity
  8
寸法
  6
Continuous
100
AcDbPolyline
 90
        3
 70
     0
 43
0.0
 10
-17.83991065114753
 20
7.992579548972572
 10
-27.49916891403822
 20
10.58076999999685
 10
-17.83991065114753
 20
13.16896045102112
  0
LWPOLYLINE
  5
498
330
48F
100
AcDbEntity
  8
寸法
  6
Continuous
100
AcDbPolyline
 90
        3
 70
     0
 43
0.0
 10
17.84157282307109
 20
13.16896045102112
 10
27.50083108596178
 20
10.58076999999685
 10
17.84157282307109
 20
7.992579548972572
  0
ENDBLK
  5
491
330
48F
100
AcDbEntity
  8
0
100
AcDbBlockEnd
  0
BLOCK
  5
4A7
330
4A6
100
AcDbEntity
  8
0
100
AcDbBlockBegin
  2
INS-D8F48
 70
     0
 10
0.0
 20
0.0
 30
0.0
  3
INS-D8F48
  1

  0
TEXT
  5
4AA
330
4A6
100
AcDbEntity
  8
寸法
  6
Continuous
100
AcDbText
 10
-29.19916891403825
 20
-64.68000000000364
 30
0.0
 40
19.982
  1
内径φ250
 50
90.0
 41
1.025966251272801
 72
     1
 11
-29.19916891403825
 21
-0.000000000003638
 31
0.0
100
AcDbText
  0
LINE
  5
4AB
330
4A6
100
AcDbEntity
  8
寸法
  6
Continuous
100
AcDbLine
 10
51.80083108596176
 20
-125.0000000000036
 30
0.0
 11
-19.19916891403824
 21
-125.0000000000036
 31
0.0
  0
LINE
  5
4AC
330
4A6
100
AcDbEntity
  8
寸法
  6
Continuous
100
AcDbLine
 10
51.80083108596176
 20
124.9999999999964
 30
0.0
 11
-19.19916891403824
 21
124.9999999999964
 31
0.0
  0
LINE
  5
4AD
330
4A6
100
AcDbEntity
  8
寸法
  6
Continuous
100
AcDbLine
 10
-19.19916891403824
 20
124.9999999999964
 30
0.0
 11
-19.19916891403824
 21
-125.0000000000036
 31
0.0
  0
LWPOLYLINE
  5
4AE
330
4A6
100
AcDbEntity
  8
寸法
  6
Continuous
100
AcDbPolyline
 90
        3
 70
     0
 43
0.0
 10
-21.78735936506342
 20
115.3407417371054
 10
-19.19916891403824
 20
124.9999999999964
 10
-16.61097846301303
 20
115.3407417371054
  0
LWPOLYLINE
  5
4AF
330
4A6
100
AcDbEntity
  8
寸法
  6
Continuous
100
AcDbPolyline
 90
        3
 70
     0
 43
0.0
 10
-16.61097846301303
 20
-115.3407417371127
 10
-19.19916891403824
 20
-125.0000000000036
 10
-21.78735936506342
 20
-115.3407417371127
  0
ENDBLK
  5
4A8
330
4A6
100
AcDbEntity
  8
0
100
AcDbBlockEnd
  0
BLOCK
  5
4B1
330
4B0
100
AcDbEntity
  8
0
100
AcDbBlockBegin
  2
INS-D8EYJ
 70
     0
 10
0.0
 20
0.0
 30
0.0
  3
INS-D8EYJ
  1

  0
TEXT
  5
4B4
330
4B0
100
AcDbEntity
  8
寸法
  6
Continuous
100
AcDbText
 10
-20.27916891403822
 20
20.58076999999685
 30
0.0
 40
19.982
  1
55
 41
1.089505144794249
 72
     1
 11
0.0008310859617779
 21
20.58076999999685
 31
0.0
100
AcDbText
  0
LINE
  5
4B5
330
4B0
100
AcDbEntity
  8
寸法
  6
Continuous
100
AcDbLine
 10
27.50083108596178
 20
-43.18000000000393
 30
0.0
 11
27.50083108596178
 21
10.58076999999685
 31
0.0
  0
LINE
  5
4B6
330
4B0
100
AcDbEntity
  8
寸法
  6
Continuous
100
AcDbLine
 10
-27.49916891403822
 20
-43.18000000000393
 30
0.0
 11
-27.49916891403822
 21
10.58076999999685
 31
0.0
  0
LINE
  5
4B7
330
4B0
100
AcDbEntity
  8
寸法
  6
Continuous
100
AcDbLine
 10
-27.49916891403822
 20
10.58076999999685
 30
0.0
 11
27.50083108596178
 21
10.58076999999685
 31
0.0
  0
LWPOLYLINE
  5
4B8
330
4B0
100
AcDbEntity
  8
寸法
  6
Continuous
100
AcDbPolyline
 90
        3
 70
     0
 43
0.0
 10
-17.83991065114753
 20
7.992579548972572
 10
-27.49916891403822
 20
10.58076999999685
 10
-17.83991065114753
 20
13.16896045102112
  0
LWPOLYLINE
  5
4B9
330
4B0
100
AcDbEntity
  8
寸法
  6
Continuous
100
AcDbPolyline
 90
        3
 70
     0
 43
0.0
 10
17.84157282307109
 20
13.16896045102112
 10
27.50083108596178
 20
10.58076999999685
 10
17.84157282307109
 20
7.992579548972572
  0
ENDBLK
  5
4B2
330
4B0
100
AcDbEntity
  8
0
100
AcDbBlockEnd
  0
BLOCK
  5
4C8
330
4C7
100
AcDbEntity
  8
0
100
AcDbBlockBegin
  2
INS-D8HGO
 70
     0
 10
0.0
 20
0.0
 30
0.0
  3
INS-D8HGO
  1

  0
TEXT
  5
4CB
330
4C7
100
AcDbEntity
  8
寸法
  6
Continuous
100
AcDbText
 10
-29.19916891403823
 20
-66.42000000000363
 30
0.0
 40
19.982
  1
内径φ275
 50
90.0
 41
1.025966251272801
 72
     1
 11
-29.19916891403823
 21
-0.000000000003638
 31
0.0
100
AcDbText
  0
LINE
  5
4CC
330
4C7
100
AcDbEntity
  8
寸法
  6
Continuous
100
AcDbLine
 10
51.80083108596176
 20
-137.5000000000036
 30
0.0
 11
-19.19916891403824
 21
-137.5000000000036
 31
0.0
  0
LINE
  5
4CD
330
4C7
100
AcDbEntity
  8
寸法
  6
Continuous
100
AcDbLine
 10
51.80083108596176
 20
137.4999999999964
 30
0.0
 11
-19.19916891403824
 21
137.4999999999964
 31
0.0
  0
LINE
  5
4CE
330
4C7
100
AcDbEntity
  8
寸法
  6
Continuous
100
AcDbLine
 10
-19.19916891403824
 20
137.4999999999964
 30
0.0
 11
-19.19916891403824
 21
-137.5000000000036
 31
0.0
  0
LWPOLYLINE
  5
4CF
330
4C7
100
AcDbEntity
  8
寸法
  6
Continuous
100
AcDbPolyline
 90
        3
 70
     0
 43
0.0
 10
-21.78735936506342
 20
127.8407417371054
 10
-19.19916891403824
 20
137.4999999999964
 10
-16.61097846301303
 20
127.8407417371054
  0
LWPOLYLINE
  5
4D0
330
4C7
100
AcDbEntity
  8
寸法
  6
Continuous
100
AcDbPolyline
 90
        3
 70
     0
 43
0.0
 10
-16.61097846301303
 20
-127.8407417371127
 10
-19.19916891403824
 20
-137.5000000000036
 10
-21.78735936506342
 20
-127.8407417371127
  0
ENDBLK
  5
4C9
330
4C7
100
AcDbEntity
  8
0
100
AcDbBlockEnd
  0
BLOCK
  5
4D2
330
4D1
100
AcDbEntity
  8
0
100
AcDbBlockBegin
  2
INS-D3TO9
 70
     0
 10
0.0
 20
0.0
 30
0.0
  3
INS-D3TO9
  1

  0
TEXT
  5
4D5
330
4D1
100
AcDbEntity
  8
寸法
  6
Continuous
100
AcDbText
 10
-20.27916891403822
 20
20.58076999999685
 30
0.0
 40
19.982
  1
55
 41
1.089505144794249
 72
     1
 11
0.0008310859617779
 21
20.58076999999685
 31
0.0
100
AcDbText
  0
LINE
  5
4D6
330
4D1
100
AcDbEntity
  8
寸法
  6
Continuous
100
AcDbLine
 10
27.50083108596178
 20
-43.18000000000393
 30
0.0
 11
27.50083108596178
 21
10.58076999999685
 31
0.0
  0
LINE
  5
4D7
330
4D1
100
AcDbEntity
  8
寸法
  6
Continuous
100
AcDbLine
 10
-27.49916891403822
 20
-43.18000000000393
 30
0.0
 11
-27.49916891403822
 21
10.58076999999685
 31
0.0
  0
LINE
  5
4D8
330
4D1
100
AcDbEntity
  8
寸法
  6
Continuous
100
AcDbLine
 10
-27.49916891403822
 20
10.58076999999685
 30
0.0
 11
27.50083108596178
 21
10.58076999999685
 31
0.0
  0
LWPOLYLINE
  5
4D9
330
4D1
100
AcDbEntity
  8
寸法
  6
Continuous
100
AcDbPolyline
 90
        3
 70
     0
 43
0.0
 10
-17.83991065114753
 20
7.992579548972572
 10
-27.49916891403822
 20
10.58076999999685
 10
-17.83991065114753
 20
13.16896045102112
  0
LWPOLYLINE
  5
4DA
330
4D1
100
AcDbEntity
  8
寸法
  6
Continuous
100
AcDbPolyline
 90
        3
 70
     0
 43
0.0
 10
17.84157282307109
 20
13.16896045102112
 10
27.50083108596178
 20
10.58076999999685
 10
17.84157282307109
 20
7.992579548972572
  0
ENDBLK
  5
4D3
330
4D1
100
AcDbEntity
  8
0
100
AcDbBlockEnd
  0
BLOCK
  5
4E9
330
4E8
100
AcDbEntity
  8
0
100
AcDbBlockBegin
  2
INS-DA5NJ
 70
     0
 10
0.0
 20
0.0
 30
0.0
  3
INS-DA5NJ
  1

  0
TEXT
  5
4EC
330
4E8
100
AcDbEntity
  8
寸法
  6
Continuous
100
AcDbText
 10
-29.19916891403825
 20
-62.94000000000363
 30
0.0
 40
19.982
  1
内径φ300
 50
90.0
 41
1.025966251272801
 72
     1
 11
-29.19916891403825
 21
-0.000000000003638
 31
0.0
100
AcDbText
  0
LINE
  5
4ED
330
4E8
100
AcDbEntity
  8
寸法
  6
Continuous
100
AcDbLine
 10
51.80083108596176
 20
-150.0000000000036
 30
0.0
 11
-19.19916891403824
 21
-150.0000000000036
 31
0.0
  0
LINE
  5
4EE
330
4E8
100
AcDbEntity
  8
寸法
  6
Continuous
100
AcDbLine
 10
51.80083108596176
 20
149.9999999999964
 30
0.0
 11
-19.19916891403824
 21
149.9999999999964
 31
0.0
  0
LINE
  5
4EF
330
4E8
100
AcDbEntity
  8
寸法
  6
Continuous
100
AcDbLine
 10
-19.19916891403824
 20
149.9999999999964
 30
0.0
 11
-19.19916891403824
 21
-150.0000000000036
 31
0.0
  0
LWPOLYLINE
  5
4F0
330
4E8
100
AcDbEntity
  8
寸法
  6
Continuous
100
AcDbPolyline
 90
        3
 70
     0
 43
0.0
 10
-21.78735936506342
 20
140.3407417371054
 10
-19.19916891403824
 20
149.9999999999964
 10
-16.61097846301303
 20
140.3407417371054
  0
LWPOLYLINE
  5
4F1
330
4E8
100
AcDbEntity
  8
寸法
  6
Continuous
100
AcDbPolyline
 90
        3
 70
     0
 43
0.0
 10
-16.61097846301303
 20
-140.3407417371127
 10
-19.19916891403824
 20
-150.0000000000036
 10
-21.78735936506342
 20
-140.3407417371127
  0
ENDBLK
  5
4EA
330
4E8
100
AcDbEntity
  8
0
100
AcDbBlockEnd
  0
BLOCK
  5
4F3
330
4F2
100
AcDbEntity
  8
0
100
AcDbBlockBegin
  2
INS-D5AO9
 70
     0
 10
0.0
 20
0.0
 30
0.0
  3
INS-D5AO9
  1

  0
TEXT
  5
4F6
330
4F2
100
AcDbEntity
  8
寸法
  6
Continuous
100
AcDbText
 10
-20.27916891403822
 20
20.58076999999685
 30
0.0
 40
19.982
  1
55
 41
1.089505144794249
 72
     1
 11
0.0008310859617779
 21
20.58076999999685
 31
0.0
100
AcDbText
  0
LINE
  5
4F7
330
4F2
100
AcDbEntity
  8
寸法
  6
Continuous
100
AcDbLine
 10
27.50083108596178
 20
-43.18000000000393
 30
0.0
 11
27.50083108596178
 21
10.58076999999685
 31
0.0
  0
LINE
  5
4F8
330
4F2
100
AcDbEntity
  8
寸法
  6
Continuous
100
AcDbLine
 10
-27.49916891403822
 20
-43.18000000000393
 30
0.0
 11
-27.49916891403822
 21
10.58076999999685
 31
0.0
  0
LINE
  5
4F9
330
4F2
100
AcDbEntity
  8
寸法
  6
Continuous
100
AcDbLine
 10
-27.49916891403822
 20
10.58076999999685
 30
0.0
 11
27.50083108596178
 21
10.58076999999685
 31
0.0
  0
LWPOLYLINE
  5
4FA
330
4F2
100
AcDbEntity
  8
寸法
  6
Continuous
100
AcDbPolyline
 90
        3
 70
     0
 43
0.0
 10
-17.83991065114753
 20
7.992579548972572
 10
-27.49916891403822
 20
10.58076999999685
 10
-17.83991065114753
 20
13.16896045102112
  0
LWPOLYLINE
  5
4FB
330
4F2
100
AcDbEntity
  8
寸法
  6
Continuous
100
AcDbPolyline
 90
        3
 70
     0
 43
0.0
 10
17.84157282307109
 20
13.16896045102112
 10
27.50083108596178
 20
10.58076999999685
 10
17.84157282307109
 20
7.992579548972572
  0
ENDBLK
  5
4F4
330
4F2
100
AcDbEntity
  8
0
100
AcDbBlockEnd
  0
BLOCK
  5
50B
330
50A
100
AcDbEntity
  8
0
100
AcDbBlockBegin
  2
INS-DC94Y
 70
     0
 10
0.0
 20
0.0
 30
0.0
  3
INS-DC94Y
  1

  0
TEXT
  5
50E
330
50A
100
AcDbEntity
  8
寸法
  6
Continuous
100
AcDbText
 10
-29.19916891403823
 20
-66.42000000000363
 30
0.0
 40
19.982
  1
内径φ325
 50
90.0
 41
1.025966251272801
 72
     1
 11
-29.19916891403823
 21
-0.000000000003638
 31
0.0
100
AcDbText
  0
LINE
  5
50F
330
50A
100
AcDbEntity
  8
寸法
  6
Continuous
100
AcDbLine
 10
51.80083108596176
 20
-162.5000000000036
 30
0.0
 11
-19.19916891403824
 21
-162.5000000000036
 31
0.0
  0
LINE
  5
510
330
50A
100
AcDbEntity
  8
寸法
  6
Continuous
100
AcDbLine
 10
51.80083108596176
 20
162.4999999999964
 30
0.0
 11
-19.19916891403824
 21
162.4999999999964
 31
0.0
  0
LINE
  5
511
330
50A
100
AcDbEntity
  8
寸法
  6
Continuous
100
AcDbLine
 10
-19.19916891403824
 20
162.4999999999964
 30
0.0
 11
-19.19916891403824
 21
-162.5000000000036
 31
0.0
  0
LWPOLYLINE
  5
512
330
50A
100
AcDbEntity
  8
寸法
  6
Continuous
100
AcDbPolyline
 90
        3
 70
     0
 43
0.0
 10
-21.78735936506342
 20
152.8407417371054
 10
-19.19916891403824
 20
162.4999999999964
 10
-16.61097846301305
 20
152.8407417371054
  0
LWPOLYLINE
  5
513
330
50A
100
AcDbEntity
  8
寸法
  6
Continuous
100
AcDbPolyline
 90
        3
 70
     0
 43
0.0
 10
-16.61097846301305
 20
-152.8407417371127
 10
-19.19916891403824
 20
-162.5000000000036
 10
-21.78735936506342
 20
-152.8407417371127
  0
ENDBLK
  5
50C
330
50A
100
AcDbEntity
  8
0
100
AcDbBlockEnd
  0
BLOCK
  5
515
330
514
100
AcDbEntity
  8
0
100
AcDbBlockBegin
  2
INS-D81PW
 70
     0
 10
0.0
 20
0.0
 30
0.0
  3
INS-D81PW
  1

  0
TEXT
  5
518
330
514
100
AcDbEntity
  8
寸法
  6
Continuous
100
AcDbText
 10
-20.27916891403822
 20
21.38076999999612
 30
0.0
 40
19.982
  1
65
 41
1.089505144794249
 72
     1
 11
0.0008310859617779
 21
21.38076999999612
 31
0.0
100
AcDbText
  0
LINE
  5
519
330
514
100
AcDbEntity
  8
寸法
  6
Continuous
100
AcDbLine
 10
32.50083108596178
 20
-43.9800000000032
 30
0.0
 11
32.50083108596178
 21
11.38076999999612
 31
0.0
  0
LINE
  5
51A
330
514
100
AcDbEntity
  8
寸法
  6
Continuous
100
AcDbLine
 10
-32.49916891403822
 20
-43.9800000000032
 30
0.0
 11
-32.49916891403822
 21
11.38076999999612
 31
0.0
  0
LINE
  5
51B
330
514
100
AcDbEntity
  8
寸法
  6
Continuous
100
AcDbLine
 10
-32.49916891403822
 20
11.38076999999612
 30
0.0
 11
32.50083108596178
 21
11.38076999999612
 31
0.0
  0
LWPOLYLINE
  5
51C
330
514
100
AcDbEntity
  8
寸法
  6
Continuous
100
AcDbPolyline
 90
        3
 70
     0
 43
0.0
 10
-22.83991065114753
 20
8.792579548971844
 10
-32.49916891403822
 20
11.38076999999612
 10
-22.83991065114753
 20
13.96896045102039
  0
LWPOLYLINE
  5
51D
330
514
100
AcDbEntity
  8
寸法
  6
Continuous
100
AcDbPolyline
 90
        3
 70
     0
 43
0.0
 10
22.84157282307109
 20
13.96896045102039
 10
32.50083108596178
 20
11.38076999999612
 10
22.84157282307109
 20
8.792579548971844
  0
ENDBLK
  5
516
330
514
100
AcDbEntity
  8
0
100
AcDbBlockEnd
  0
BLOCK
  5
52C
330
52B
100
AcDbEntity
  8
0
100
AcDbBlockBegin
  2
INS-DE90K
 70
     0
 10
0.0
 20
0.0
 30
0.0
  3
INS-DE90K
  1

  0
TEXT
  5
52F
330
52B
100
AcDbEntity
  8
寸法
  6
Continuous
100
AcDbText
 10
-29.19916891403825
 20
-64.68000000000728
 30
0.0
 40
19.982
  1
内径φ350
 50
90.0
 41
1.025966251272801
 72
     1
 11
-29.19916891403825
 21
-0.000000000007276
 31
0.0
100
AcDbText
  0
LINE
  5
530
330
52B
100
AcDbEntity
  8
寸法
  6
Continuous
100
AcDbLine
 10
51.80083108596176
 20
-175.0000000000073
 30
0.0
 11
-19.19916891403824
 21
-175.0000000000073
 31
0.0
  0
LINE
  5
531
330
52B
100
AcDbEntity
  8
寸法
  6
Continuous
100
AcDbLine
 10
51.80083108596176
 20
174.9999999999927
 30
0.0
 11
-19.19916891403824
 21
174.9999999999927
 31
0.0
  0
LINE
  5
532
330
52B
100
AcDbEntity
  8
寸法
  6
Continuous
100
AcDbLine
 10
-19.19916891403824
 20
174.9999999999927
 30
0.0
 11
-19.19916891403824
 21
-175.0000000000073
 31
0.0
  0
LWPOLYLINE
  5
533
330
52B
100
AcDbEntity
  8
寸法
  6
Continuous
100
AcDbPolyline
 90
        3
 70
     0
 43
0.0
 10
-21.78735936506342
 20
165.3407417371018
 10
-19.19916891403824
 20
174.9999999999927
 10
-16.61097846301305
 20
165.3407417371018
  0
LWPOLYLINE
  5
534
330
52B
100
AcDbEntity
  8
寸法
  6
Continuous
100
AcDbPolyline
 90
        3
 70
     0
 43
0.0
 10
-16.61097846301305
 20
-165.3407417371163
 10
-19.19916891403824
 20
-175.0000000000073
 10
-21.78735936506342
 20
-165.3407417371163
  0
ENDBLK
  5
52D
330
52B
100
AcDbEntity
  8
0
100
AcDbBlockEnd
  0
BLOCK
  5
536
330
535
100
AcDbEntity
  8
0
100
AcDbBlockBegin
  2
INS-D6RK2
 70
     0
 10
0.0
 20
0.0
 30
0.0
  3
INS-D6RK2
  1

  0
TEXT
  5
539
330
535
100
AcDbEntity
  8
寸法
  6
Continuous
100
AcDbText
 10
-20.27916891403822
 20
21.38076999999248
 30
0.0
 40
19.982
  1
65
 41
1.089505144794249
 72
     1
 11
0.0008310859617779
 21
21.38076999999248
 31
0.0
100
AcDbText
  0
LINE
  5
53A
330
535
100
AcDbEntity
  8
寸法
  6
Continuous
100
AcDbLine
 10
32.50083108596178
 20
-43.98000000000684
 30
0.0
 11
32.50083108596178
 21
11.38076999999248
 31
0.0
  0
LINE
  5
53B
330
535
100
AcDbEntity
  8
寸法
  6
Continuous
100
AcDbLine
 10
-32.49916891403822
 20
-43.98000000000684
 30
0.0
 11
-32.49916891403822
 21
11.38076999999248
 31
0.0
  0
LINE
  5
53C
330
535
100
AcDbEntity
  8
寸法
  6
Continuous
100
AcDbLine
 10
-32.49916891403822
 20
11.38076999999248
 30
0.0
 11
32.50083108596178
 21
11.38076999999248
 31
0.0
  0
LWPOLYLINE
  5
53D
330
535
100
AcDbEntity
  8
寸法
  6
Continuous
100
AcDbPolyline
 90
        3
 70
     0
 43
0.0
 10
-22.83991065114753
 20
8.792579548968206
 10
-32.49916891403822
 20
11.38076999999248
 10
-22.83991065114753
 20
13.96896045101676
  0
LWPOLYLINE
  5
53E
330
535
100
AcDbEntity
  8
寸法
  6
Continuous
100
AcDbPolyline
 90
        3
 70
     0
 43
0.0
 10
22.84157282307109
 20
13.96896045101676
 10
32.50083108596178
 20
11.38076999999248
 10
22.84157282307109
 20
8.792579548968206
  0
ENDBLK
  5
537
330
535
100
AcDbEntity
  8
0
100
AcDbBlockEnd
  0
BLOCK
  5
54D
330
54C
100
AcDbEntity
  8
0
100
AcDbBlockBegin
  2
INS-D7CC2
 70
     0
 10
0.0
 20
0.0
 30
0.0
  3
INS-D7CC2
  1

  0
TEXT
  5
550
330
54C
100
AcDbEntity
  8
寸法
  6
Continuous
100
AcDbText
 10
-29.19916891403823
 20
-66.42000000000726
 30
0.0
 40
19.982
  1
内径φ375
 50
90.0
 41
1.025966251272801
 72
     1
 11
-29.19916891403823
 21
-0.000000000007276
 31
0.0
100
AcDbText
  0
LINE
  5
551
330
54C
100
AcDbEntity
  8
寸法
  6
Continuous
100
AcDbLine
 10
51.80083108596176
 20
-187.5000000000073
 30
0.0
 11
-19.19916891403824
 21
-187.5000000000073
 31
0.0
  0
LINE
  5
552
330
54C
100
AcDbEntity
  8
寸法
  6
Continuous
100
AcDbLine
 10
51.80083108596176
 20
187.4999999999927
 30
0.0
 11
-19.19916891403824
 21
187.4999999999927
 31
0.0
  0
LINE
  5
553
330
54C
100
AcDbEntity
  8
寸法
  6
Continuous
100
AcDbLine
 10
-19.19916891403824
 20
187.4999999999927
 30
0.0
 11
-19.19916891403824
 21
-187.5000000000073
 31
0.0
  0
LWPOLYLINE
  5
554
330
54C
100
AcDbEntity
  8
寸法
  6
Continuous
100
AcDbPolyline
 90
        3
 70
     0
 43
0.0
 10
-21.78735936506342
 20
177.8407417371018
 10
-19.19916891403824
 20
187.4999999999927
 10
-16.61097846301305
 20
177.8407417371018
  0
LWPOLYLINE
  5
555
330
54C
100
AcDbEntity
  8
寸法
  6
Continuous
100
AcDbPolyline
 90
        3
 70
     0
 43
0.0
 10
-16.61097846301305
 20
-177.8407417371163
 10
-19.19916891403824
 20
-187.5000000000073
 10
-21.78735936506342
 20
-177.8407417371163
  0
ENDBLK
  5
54E
330
54C
100
AcDbEntity
  8
0
100
AcDbBlockEnd
  0
BLOCK
  5
557
330
556
100
AcDbEntity
  8
0
100
AcDbBlockBegin
  2
INS-D7K5C
 70
     0
 10
0.0
 20
0.0
 30
0.0
  3
INS-D7K5C
  1

  0
TEXT
  5
55A
330
556
100
AcDbEntity
  8
寸法
  6
Continuous
100
AcDbText
 10
-20.27916891403822
 20
21.38076999999248
 30
0.0
 40
19.982
  1
65
 41
1.089505144794249
 72
     1
 11
0.0008310859617779
 21
21.38076999999248
 31
0.0
100
AcDbText
  0
LINE
  5
55B
330
556
100
AcDbEntity
  8
寸法
  6
Continuous
100
AcDbLine
 10
32.50083108596178
 20
-43.98000000000684
 30
0.0
 11
32.50083108596178
 21
11.38076999999248
 31
0.0
  0
LINE
  5
55C
330
556
100
AcDbEntity
  8
寸法
  6
Continuous
100
AcDbLine
 10
-32.49916891403822
 20
-43.98000000000684
 30
0.0
 11
-32.49916891403822
 21
11.38076999999248
 31
0.0
  0
LINE
  5
55D
330
556
100
AcDbEntity
  8
寸法
  6
Continuous
100
AcDbLine
 10
-32.49916891403822
 20
11.38076999999248
 30
0.0
 11
32.50083108596178
 21
11.38076999999248
 31
0.0
  0
LWPOLYLINE
  5
55E
330
556
100
AcDbEntity
  8
寸法
  6
Continuous
100
AcDbPolyline
 90
        3
 70
     0
 43
0.0
 10
-22.83991065114753
 20
8.792579548968206
 10
-32.49916891403822
 20
11.38076999999248
 10
-22.83991065114753
 20
13.96896045101676
  0
LWPOLYLINE
  5
55F
330
556
100
AcDbEntity
  8
寸法
  6
Continuous
100
AcDbPolyline
 90
        3
 70
     0
 43
0.0
 10
22.84157282307109
 20
13.96896045101676
 10
32.50083108596178
 20
11.38076999999248
 10
22.84157282307109
 20
8.792579548968206
  0
ENDBLK
  5
558
330
556
100
AcDbEntity
  8
0
100
AcDbBlockEnd
  0
ENDSEC
  0
SECTION
  2
ENTITIES
  0
LINE
  5
B9
330
1F
100
AcDbEntity
  8
シンボル
100
AcDbLine
 10
-3156.255168914038
 20
-18000.0
 30
0.0
 11
-3156.255168914038
 21
-31600.0
 31
0.0
  0
LINE
  5
BA
330
1F
100
AcDbEntity
  8
シンボル
100
AcDbLine
 10
-5156.255168914038
 20
-19400.0
 30
0.0
 11
843.7448310859618
 21
-19400.0
 31
0.0
  0
LINE
  5
BB
330
1F
100
AcDbEntity
  8
シンボル
100
AcDbLine
 10
-1156.255168914038
 20
-18000.0
 30
0.0
 11
-1156.255168914038
 21
-31600.0
 31
0.0
  0
TEXT
  5
BC
330
1F
100
AcDbEntity
  8
03-文字-2
100
AcDbText
 10
-2976.255168914038
 20
-18799.91
 30
0.0
 40
199.82
  1
直管用キャップ
 41
0.997383736138513
 72
     1
 11
-2156.255168914038
 21
-18700.0
 31
0.0
100
AcDbText
 73
     2
  0
LINE
  5
BD
330
1F
100
AcDbEntity
  8
シンボル
100
AcDbLine
 10
843.7448310859618
 20
-18000.0
 30
0.0
 11
843.7448310859618
 21
-31600.0
 31
0.0
  0
TEXT
  5
BE
330
1F
100
AcDbEntity
  8
03-文字-2
100
AcDbText
 10
-976.2551689140365
 20
-18799.90999999997
 30
0.0
 40
199.82
  1
継手用キャップ
 41
0.997383736138513
 72
     1
 11
-156.2551689140365
 21
-18699.99999999997
 31
0.0
100
AcDbText
 73
     2
  0
LINE
  5
BF
330
1F
100
AcDbEntity
  8
シンボル
100
AcDbLine
 10
-5156.255168914038
 20
-18000.0
 30
0.0
 11
843.7448310859618
 21
-18000.0
 31
0.0
  0
LINE
  5
C0
330
1F
100
AcDbEntity
  8
シンボル
100
AcDbLine
 10
-5156.255168914038
 20
-18000.0
 30
0.0
 11
-5156.255168914038
 21
-31600.0
 31
0.0
  0
LINE
  5
C1
330
1F
100
AcDbEntity
  8
シンボル
100
AcDbLine
 10
-5156.255168914038
 20
-18000.0
 30
0.0
 11
-3156.25516891657
 21
-19400.0
 31
0.0
  0
TEXT
  5
C2
330
1F
100
AcDbEntity
  8
03-文字-2
100
AcDbText
 10
-4761.75516891398
 20
-19899.90999999954
 30
0.0
 40
199.82
  1
管径 φ75
 41
0.997467188737445
 72
     1
 11
-4156.25516891398
 21
-19799.99999999954
 31
0.0
100
AcDbText
 73
     2
  0
LINE
  5
C3
330
1F
100
AcDbEntity
  8
シンボル
100
AcDbLine
 10
-5156.255168914038
 20
-20200.0
 30
0.0
 11
843.7448310859618
 21
-20200.0
 31
0.0
  0
TEXT
  5
C4
330
1F
100
AcDbEntity
  8
03-文字-2
100
AcDbText
 10
-4796.440883199767
 20
-20699.91000000029
 30
0.0
 40
199.82
  1
管径 φ100
 41
0.997383736138513
 72
     1
 11
-4156.255168914053
 21
-20600.00000000029
 31
0.0
100
AcDbText
 73
     2
  0
LINE
  5
C5
330
1F
100
AcDbEntity
  8
04-ダクトセンター
100
AcDbLine
 10
-2165.26264616815
 20
-19800.0
 30
0.0
 11
-2150.26264616815
 21
-19800.0
 31
0.0
  0
LINE
  5
C6
330
1F
100
AcDbEntity
  8
05-ダクト外線
100
AcDbLine
 10
-2165.26264616815
 20
-19762.6
 30
0.0
 11
-2165.26264616815
 21
-19752.5
 31
0.0
  0
LINE
  5
C7
330
1F
100
AcDbEntity
  8
05-ダクト外線
100
AcDbLine
 10
-2150.26264616815
 20
-19834.0
 30
0.0
 11
-2150.26264616815
 21
-19766.0
 31
0.0
  0
LINE
  5
C8
330
1F
100
AcDbEntity
  8
05-ダクト外線
100
AcDbLine
 10
-2165.26264616815
 20
-19752.5
 30
0.0
 11
-2164.662646168144
 21
-19752.5
 31
0.0
  0
LINE
  5
C9
330
1F
100
AcDbEntity
  8
05-ダクト外線
100
AcDbLine
 10
-2152.76264616815
 20
-19763.5
 30
0.0
 11
-2163.76264616815
 21
-19763.5
 31
0.0
  0
LINE
  5
CA
330
1F
100
AcDbEntity
  8
05-ダクト外線
100
AcDbLine
 10
-2152.76264616815
 20
-19836.5
 30
0.0
 11
-2163.76264616815
 21
-19836.5
 31
0.0
  0
LINE
  5
CB
330
1F
100
AcDbEntity
  8
05-ダクト外線
100
AcDbLine
 10
-2165.26264616815
 20
-19847.5
 30
0.0
 11
-2164.662646168144
 21
-19847.5
 31
0.0
  0
INSERT
  5
CF
330
1F
100
AcDbEntity
  8
寸法
100
AcDbBlockReference
  2
INS-D8WI6
 10
-2218.063
 20
-19800.0
 30
0.0
  0
INSERT
  5
D9
330
1F
100
AcDbEntity
  8
寸法
100
AcDbBlockReference
  2
INS-DXB8O
 10
-2157.763
 20
-19718.663
 30
0.0
  0
INSERT
  5
E1
330
1F
100
AcDbEntity
  8
寸法
100
AcDbBlockReference
  2
INS-DNO7T
 10
-2107.969
 20
-19800.0
 30
0.0
  0
LINE
  5
E8
330
1F
100
AcDbEntity
  8
05-ダクト外線
100
AcDbLine
 10
-2164.662646168144
 20
-19847.5
 30
0.0
 11
-2164.662646168144
 21
-19837.40000000001
 31
0.0
  0
LINE
  5
E9
330
1F
100
AcDbEntity
  8
06-ダクト内線
  6
DASHED2
 48
0.2
100
AcDbLine
 10
-2152.76264616815
 20
-19835.90000000001
 30
0.0
 11
-2163.76264616815
 21
-19835.90000000001
 31
0.0
  0
LINE
  5
EA
330
1F
100
AcDbEntity
  8
06-ダクト内線
  6
DASHED2
 48
0.2
100
AcDbLine
 10
-2150.862646168127
 20
-19834.0
 30
0.0
 11
-2150.862646168127
 21
-19766.0
 31
0.0
  0
LINE
  5
EB
330
1F
100
AcDbEntity
  8
06-ダクト内線
  6
DASHED2
 48
0.2
100
AcDbLine
 10
-2152.76264616815
 20
-19764.1
 30
0.0
 11
-2163.76264616815
 21
-19764.1
 31
0.0
  0
ARC
  5
EC
330
1F
100
AcDbEntity
  8
05-ダクト外線
100
AcDbCircle
 10
-2152.76264616815
 20
-19834.0
 30
0.0
 40
2.5
100
AcDbArc
 50
270.0
 51
0.0
  0
ARC
  5
ED
330
1F
100
AcDbEntity
  8
05-ダクト外線
100
AcDbCircle
 10
-2152.76264616815
 20
-19766.0
 30
0.0
 40
2.5
100
AcDbArc
 50
0.0
 51
90.0
  0
ARC
  5
EE
330
1F
100
AcDbEntity
  8
06-ダクト内線
  6
DASHED2
 48
0.2
100
AcDbCircle
 10
-2163.76264616815
 20
-19762.6
 30
0.0
 40
1.5
100
AcDbArc
 50
180.0
 51
270.0
  0
ARC
  5
EF
330
1F
100
AcDbEntity
  8
05-ダクト外線
100
AcDbCircle
 10
-2163.76264616815
 20
-19762.6
 30
0.0
 40
0.9
100
AcDbArc
 50
180.0
 51
270.0
  0
ARC
  5
F0
330
1F
100
AcDbEntity
  8
06-ダクト内線
  6
DASHED2
 48
0.2
100
AcDbCircle
 10
-2152.76264616815
 20
-19766.0
 30
0.0
 40
1.9
100
AcDbArc
 50
0.0
 51
90.0
  0
ARC
  5
F1
330
1F
100
AcDbEntity
  8
06-ダクト内線
  6
DASHED2
 48
0.2
100
AcDbCircle
 10
-2152.76264616815
 20
-19834.0
 30
0.0
 40
1.9
100
AcDbArc
 50
270.0
 51
0.0
  0
ARC
  5
F2
330
1F
100
AcDbEntity
  8
06-ダクト内線
  6
DASHED2
 48
0.2
100
AcDbCircle
 10
-2163.76264616815
 20
-19837.40000000001
 30
0.0
 40
1.5
100
AcDbArc
 50
90.0
 51
180.0
  0
LINE
  5
F3
330
1F
100
AcDbEntity
  8
05-ダクト外線
100
AcDbLine
 10
-2165.26264616815
 20
-19847.5
 30
0.0
 11
-2165.26264616815
 21
-19752.5
 31
0.0
  0
ARC
  5
F4
330
1F
100
AcDbEntity
  8
05-ダクト外線
100
AcDbCircle
 10
-2163.76264616815
 20
-19837.40000000001
 30
0.0
 40
0.9
100
AcDbArc
 50
90.0
 51
180.0
  0
LINE
  5
F5
330
1F
100
AcDbEntity
  8
05-ダクト外線
100
AcDbLine
 10
-2164.662646168144
 20
-19762.6
 30
0.0
 11
-2164.662646168144
 21
-19752.5
 31
0.0
  0
TEXT
  5
F6
330
1F
100
AcDbEntity
  8
03-文字-2
100
AcDbText
 10
-2548.003502247499
 20
-19973.16889336939
 30
0.0
 40
49.955
  1
直管用キャップφ75-0.6t
 41
0.99712127968442
 72
     1
 11
-2156.255168914165
 21
-19948.19139336939
 31
0.0
100
AcDbText
 73
     2
  0
LINE
  5
F7
330
1F
100
AcDbEntity
  8
04-ダクトセンター
100
AcDbLine
 10
-2163.755168914038
 20
-31100.00002379817
 30
0.0
 11
-2148.755168914038
 21
-31100.00002379817
 31
0.0
  0
LINE
  5
F8
330
1F
100
AcDbEntity
  8
05-ダクト外線
100
AcDbLine
 10
-2163.755168914038
 20
-30900.10002379816
 30
0.0
 11
-2163.755168914038
 21
-30890.00002379817
 31
0.0
  0
LINE
  5
F9
330
1F
100
AcDbEntity
  8
05-ダクト外線
100
AcDbLine
 10
-2148.755168914038
 20
-31296.50002379817
 30
0.0
 11
-2148.755168914038
 21
-30903.50002379817
 31
0.0
  0
LINE
  5
FA
330
1F
100
AcDbEntity
  8
05-ダクト外線
100
AcDbLine
 10
-2163.755168914038
 20
-30890.00002379817
 30
0.0
 11
-2162.955168914021
 21
-30890.00002379817
 31
0.0
  0
LINE
  5
FB
330
1F
100
AcDbEntity
  8
05-ダクト外線
100
AcDbLine
 10
-2151.255168914038
 20
-30901.00002379817
 30
0.0
 11
-2161.455168914021
 21
-30901.00002379817
 31
0.0
  0
LINE
  5
FC
330
1F
100
AcDbEntity
  8
05-ダクト外線
100
AcDbLine
 10
-2151.255168914038
 20
-31299.00002379817
 30
0.0
 11
-2161.455168914021
 21
-31299.00002379817
 31
0.0
  0
LINE
  5
FD
330
1F
100
AcDbEntity
  8
05-ダクト外線
100
AcDbLine
 10
-2163.755168914038
 20
-31310.00002379817
 30
0.0
 11
-2162.955168914021
 21
-31310.00002379817
 31
0.0
  0
INSERT
  5
101
330
1F
100
AcDbEntity
  8
寸法
100
AcDbBlockReference
  2
INS-D7I27
 10
-2216.556
 20
-31100.001
 30
0.0
  0
INSERT
  5
10B
330
1F
100
AcDbEntity
  8
寸法
100
AcDbBlockReference
  2
INS-D9HIS
 10
-2156.256
 20
-30856.1635
 30
0.0
  0
INSERT
  5
113
330
1F
100
AcDbEntity
  8
寸法
100
AcDbBlockReference
  2
INS-D87LP
 10
-2106.4615
 20
-31100.001
 30
0.0
  0
LINE
  5
11A
330
1F
100
AcDbEntity
  8
05-ダクト外線
100
AcDbLine
 10
-2163.755168914038
 20
-31310.00002379817
 30
0.0
 11
-2163.755168914038
 21
-30890.00002379817
 31
0.0
  0
TEXT
  5
11B
330
1F
100
AcDbEntity
  8
03-文字-2
100
AcDbText
 10
-2563.247691659841
 20
-31435.66891716367
 30
0.0
 40
49.955
  1
直管用キャップφ400-0.8t
 41
0.9971071247761646
 72
     1
 11
-2154.747691659841
 21
-31410.69141716367
 31
0.0
100
AcDbText
 73
     2
  0
LINE
  5
11C
330
1F
100
AcDbEntity
  8
05-ダクト外線
100
AcDbLine
 10
-2162.955168914021
 20
-31310.00002379817
 30
0.0
 11
-2162.955168914021
 21
-31300.50002379817
 31
0.0
  0
LINE
  5
11D
330
1F
100
AcDbEntity
  8
06-ダクト内線
  6
DASHED2
 62
    20
 48
0.2
100
AcDbLine
 10
-2151.255168914038
 20
-31298.20002379817
 30
0.0
 11
-2161.455168914021
 21
-31298.20002379817
 31
0.0
  0
LINE
  5
11E
330
1F
100
AcDbEntity
  8
06-ダクト内線
  6
DASHED2
 62
    20
 48
0.2
100
AcDbLine
 10
-2149.555168914056
 20
-31296.50002379817
 30
0.0
 11
-2149.555168914056
 21
-30903.50002379817
 31
0.0
  0
LINE
  5
11F
330
1F
100
AcDbEntity
  8
06-ダクト内線
  6
DASHED2
 62
    20
 48
0.2
100
AcDbLine
 10
-2151.255168914038
 20
-30901.80002379817
 30
0.0
 11
-2161.455168914021
 21
-30901.80002379817
 31
0.0
  0
ARC
  5
120
330
1F
100
AcDbEntity
  8
05-ダクト外線
100
AcDbCircle
 10
-2161.455168914021
 20
-31300.50002379817
 30
0.0
 40
1.5
100
AcDbArc
 50
90.0
 51
180.0
  0
ARC
  5
121
330
1F
100
AcDbEntity
  8
06-ダクト内線
  6
DASHED2
 62
    20
 48
0.2
100
AcDbCircle
 10
-2161.455168914021
 20
-31300.50002379817
 30
0.0
 40
2.3
100
AcDbArc
 50
90.0
 51
180.0
  0
ARC
  5
122
330
1F
100
AcDbEntity
  8
05-ダクト外線
100
AcDbCircle
 10
-2161.455168914021
 20
-30899.50002379817
 30
0.0
 40
1.5
100
AcDbArc
 50
180.0
 51
270.0
  0
ARC
  5
123
330
1F
100
AcDbEntity
  8
06-ダクト内線
  6
DASHED2
 62
    20
 48
0.2
100
AcDbCircle
 10
-2161.455168914021
 20
-30899.50002379817
 30
0.0
 40
2.3
100
AcDbArc
 50
180.0
 51
270.0
  0
LINE
  5
124
330
1F
100
AcDbEntity
  8
05-ダクト外線
100
AcDbLine
 10
-2162.955168914021
 20
-30899.50002379817
 30
0.0
 11
-2162.955168914021
 21
-30890.00002379817
 31
0.0
  0
ARC
  5
125
330
1F
100
AcDbEntity
  8
05-ダクト外線
100
AcDbCircle
 10
-2151.255168914038
 20
-30903.50002379817
 30
0.0
 40
2.5
100
AcDbArc
 50
0.0
 51
90.0
  0
ARC
  5
126
330
1F
100
AcDbEntity
  8
05-ダクト外線
100
AcDbCircle
 10
-2151.255168914038
 20
-31296.50002379817
 30
0.0
 40
2.5
100
AcDbArc
 50
270.0
 51
0.0
  0
ARC
  5
127
330
1F
100
AcDbEntity
  8
06-ダクト内線
  6
DASHED2
 62
    20
 48
0.2
100
AcDbCircle
 10
-2151.255168914038
 20
-31296.50002379817
 30
0.0
 40
1.7
100
AcDbArc
 50
270.0
 51
0.0
  0
ARC
  5
128
330
1F
100
AcDbEntity
  8
06-ダクト内線
  6
DASHED2
 62
    20
 48
0.2
100
AcDbCircle
 10
-2151.255168914038
 20
-30903.50002379817
 30
0.0
 40
1.7
100
AcDbArc
 50
0.0
 51
90.0
  0
LINE
  5
129
330
1F
100
AcDbEntity
  8
04-ダクトセンター
100
AcDbLine
 10
-178.7551689140382
 20
-19800.0
 30
0.0
 11
-133.7551689140382
 21
-19800.0
 31
0.0
  0
LINE
  5
12A
330
1F
100
AcDbEntity
  8
05-ダクト外線
100
AcDbLine
 10
-133.7551689140382
 20
-19835.6
 30
0.0
 11
-133.7551689140382
 21
-19764.40000000001
 31
0.0
  0
LINE
  5
12B
330
1F
100
AcDbEntity
  8
05-ダクト外線
100
AcDbLine
 10
-136.2551689140382
 20
-19761.90000000001
 30
0.0
 11
-178.7551689140382
 21
-19761.90000000001
 31
0.0
  0
LINE
  5
12C
330
1F
100
AcDbEntity
  8
05-ダクト外線
100
AcDbLine
 10
-136.2551689140382
 20
-19838.1
 30
0.0
 11
-178.7551689140382
 21
-19838.1
 31
0.0
  0
INSERT
  5
130
330
1F
100
AcDbEntity
  8
寸法
100
AcDbBlockReference
  2
INS-D7HER
 10
-231.556
 20
-19800.0
 30
0.0
  0
INSERT
  5
13A
330
1F
100
AcDbEntity
  8
寸法
100
AcDbBlockReference
  2
INS-D6ZAZ
 10
-156.256
 20
-19717.72
 30
0.0
  0
LINE
  5
141
330
1F
100
AcDbEntity
  8
06-ダクト内線
  6
DASHED2
 48
0.2
100
AcDbLine
 10
-136.2551689140382
 20
-19837.5
 30
0.0
 11
-178.7551689140382
 21
-19837.5
 31
0.0
  0
LINE
  5
142
330
1F
100
AcDbEntity
  8
06-ダクト内線
  6
DASHED2
 48
0.2
100
AcDbLine
 10
-134.355168914044
 20
-19835.6
 30
0.0
 11
-134.355168914044
 21
-19764.40000000001
 31
0.0
  0
LINE
  5
143
330
1F
100
AcDbEntity
  8
06-ダクト内線
  6
DASHED2
 48
0.2
100
AcDbLine
 10
-136.2551689140382
 20
-19762.5
 30
0.0
 11
-178.7551689140382
 21
-19762.5
 31
0.0
  0
ARC
  5
144
330
1F
100
AcDbEntity
  8
05-ダクト外線
100
AcDbCircle
 10
-136.2551689140382
 20
-19835.6
 30
0.0
 40
2.5
100
AcDbArc
 50
270.0
 51
0.0
  0
ARC
  5
145
330
1F
100
AcDbEntity
  8
05-ダクト外線
100
AcDbCircle
 10
-136.2551689140382
 20
-19764.40000000001
 30
0.0
 40
2.5
100
AcDbArc
 50
0.0
 51
90.0
  0
ARC
  5
146
330
1F
100
AcDbEntity
  8
06-ダクト内線
  6
DASHED2
 48
0.2
100
AcDbCircle
 10
-136.2551689140382
 20
-19764.40000000001
 30
0.0
 40
1.9
100
AcDbArc
 50
0.0
 51
90.0
  0
ARC
  5
147
330
1F
100
AcDbEntity
  8
06-ダクト内線
  6
DASHED2
 48
0.2
100
AcDbCircle
 10
-136.2551689140382
 20
-19835.6
 30
0.0
 40
1.9
100
AcDbArc
 50
270.0
 51
0.0
  0
LINE
  5
148
330
1F
100
AcDbEntity
  8
05-ダクト外線
100
AcDbLine
 10
-178.7551689140382
 20
-19838.1
 30
0.0
 11
-178.7551689140382
 21
-19761.90000000001
 31
0.0
  0
TEXT
  5
149
330
1F
100
AcDbEntity
  8
03-文字-2
100
AcDbText
 10
-546.4960249932603
 20
-19973.16889336939
 30
0.0
 40
49.955
  1
継手用キャップφ75-0.6t
 41
0.99712127968442
 72
     1
 11
-154.747691659927
 21
-19948.19139336939
 31
0.0
100
AcDbText
 73
     2
  0
LINE
  5
14A
330
1F
100
AcDbEntity
  8
04-ダクトセンター
100
AcDbLine
 10
-188.7551689140382
 20
-31100.00002379817
 30
0.0
 11
-123.7551689140382
 21
-31100.00002379817
 31
0.0
  0
LINE
  5
14B
330
1F
100
AcDbEntity
  8
05-ダクト外線
100
AcDbLine
 10
-123.7551689140382
 20
-31298.30002379817
 30
0.0
 11
-123.7551689140382
 21
-30901.70002379817
 31
0.0
  0
LINE
  5
14C
330
1F
100
AcDbEntity
  8
05-ダクト外線
100
AcDbLine
 10
-126.2551689140382
 20
-30899.20002379817
 30
0.0
 11
-188.7551689140382
 21
-30899.20002379817
 31
0.0
  0
LINE
  5
14D
330
1F
100
AcDbEntity
  8
05-ダクト外線
100
AcDbLine
 10
-126.2551689140382
 20
-31300.80002379817
 30
0.0
 11
-188.7551689140382
 21
-31300.80002379817
 31
0.0
  0
INSERT
  5
151
330
1F
100
AcDbEntity
  8
寸法
100
AcDbBlockReference
  2
INS-DJYXS
 10
-241.556
 20
-31100.001
 30
0.0
  0
INSERT
  5
15B
330
1F
100
AcDbEntity
  8
寸法
100
AcDbBlockReference
  2
INS-D61X1
 10
-156.256
 20
-30854.2205
 30
0.0
  0
LINE
  5
162
330
1F
100
AcDbEntity
  8
05-ダクト外線
100
AcDbLine
 10
-188.7551689140382
 20
-31300.80002379817
 30
0.0
 11
-188.7551689140382
 21
-30899.20002379817
 31
0.0
  0
TEXT
  5
163
330
1F
100
AcDbEntity
  8
03-文字-2
100
AcDbText
 10
-563.2476916599398
 20
-31435.6689171674
 30
0.0
 40
49.955
  1
継手用キャップφ400-0.8t
 41
0.9971071247761646
 72
     1
 11
-154.7476916599398
 21
-31410.6914171674
 31
0.0
100
AcDbText
 73
     2
  0
LINE
  5
164
330
1F
100
AcDbEntity
  8
06-ダクト内線
  6
DASHED2
 62
    20
 48
0.2
100
AcDbLine
 10
-126.2551689140382
 20
-31300.00002379817
 30
0.0
 11
-188.7551689140382
 21
-31300.00002379817
 31
0.0
  0
LINE
  5
165
330
1F
100
AcDbEntity
  8
06-ダクト内線
  6
DASHED2
 62
    20
 48
0.2
100
AcDbLine
 10
-124.5551689140557
 20
-31298.30002379817
 30
0.0
 11
-124.5551689140557
 21
-30901.70002379817
 31
0.0
  0
LINE
  5
166
330
1F
100
AcDbEntity
  8
06-ダクト内線
  6
DASHED2
 62
    20
 48
0.2
100
AcDbLine
 10
-126.2551689140382
 20
-30900.00002379817
 30
0.0
 11
-188.7551689140382
 21
-30900.00002379817
 31
0.0
  0
ARC
  5
167
330
1F
100
AcDbEntity
  8
05-ダクト外線
100
AcDbCircle
 10
-126.2551689140382
 20
-30901.70002379817
 30
0.0
 40
2.5
100
AcDbArc
 50
0.0
 51
90.0
  0
ARC
  5
168
330
1F
100
AcDbEntity
  8
05-ダクト外線
100
AcDbCircle
 10
-126.2551689140382
 20
-31298.30002379817
 30
0.0
 40
2.5
100
AcDbArc
 50
270.0
 51
0.0
  0
ARC
  5
169
330
1F
100
AcDbEntity
  8
06-ダクト内線
  6
DASHED2
 62
    20
 48
0.2
100
AcDbCircle
 10
-126.2551689140382
 20
-31298.30002379817
 30
0.0
 40
1.7
100
AcDbArc
 50
270.0
 51
0.0
  0
ARC
  5
16A
330
1F
100
AcDbEntity
  8
06-ダクト内線
  6
DASHED2
 62
    20
 48
0.2
100
AcDbCircle
 10
-126.2551689140382
 20
-30901.70002379817
 30
0.0
 40
1.7
100
AcDbArc
 50
0.0
 51
90.0
  0
LINE
  5
16B
330
1F
100
AcDbEntity
  8
シンボル
100
AcDbLine
 10
-5156.255168914038
 20
-21000.0
 30
0.0
 11
843.7448310859618
 21
-21000.0
 31
0.0
  0
TEXT
  5
16C
330
1F
100
AcDbEntity
  8
03-文字-2
100
AcDbText
 10
-4830.412311771173
 20
-21499.91
 30
0.0
 40
199.82
  1
管径 φ125
 41
0.997383736138513
 72
     1
 11
-4156.255168914031
 21
-21400.0
 31
0.0
100
AcDbText
 73
     2
  0
LINE
  5
16D
330
1F
100
AcDbEntity
  8
シンボル
100
AcDbLine
 10
-5156.255168914038
 20
-21800.0
 30
0.0
 11
843.7448310859618
 21
-21800.0
 31
0.0
  0
TEXT
  5
16E
330
1F
100
AcDbEntity
  8
03-文字-2
100
AcDbText
 10
-4813.426597485469
 20
-22299.9099999997
 30
0.0
 40
199.82
  1
管径 φ150
 41
0.997383736138513
 72
     1
 11
-4156.25516891404
 21
-22199.9999999997
 31
0.0
100
AcDbText
 73
     2
  0
LINE
  5
16F
330
1F
100
AcDbEntity
  8
シンボル
100
AcDbLine
 10
-5156.255168914038
 20
-22600.0
 30
0.0
 11
843.7448310859618
 21
-22600.0
 31
0.0
  0
TEXT
  5
170
330
1F
100
AcDbEntity
  8
03-文字-2
100
AcDbText
 10
-4830.41231177129
 20
-23099.91
 30
0.0
 40
199.82
  1
管径 φ175
 41
0.997383736138513
 72
     1
 11
-4156.255168914147
 21
-23000.0
 31
0.0
100
AcDbText
 73
     2
  0
LINE
  5
171
330
1F
100
AcDbEntity
  8
シンボル
100
AcDbLine
 10
-5156.255168914038
 20
-23400.0
 30
0.0
 11
843.7448310859618
 21
-23400.0
 31
0.0
  0
TEXT
  5
172
330
1F
100
AcDbEntity
  8
03-文字-2
100
AcDbText
 10
-4829.240883199747
 20
-23899.90999999979
 30
0.0
 40
199.82
  1
管径 φ200
 41
0.997383736138513
 72
     1
 11
-4156.255168914033
 21
-23799.99999999979
 31
0.0
100
AcDbText
 73
     2
  0
LINE
  5
173
330
1F
100
AcDbEntity
  8
シンボル
100
AcDbLine
 10
-5156.255168914038
 20
-24200.0
 30
0.0
 11
843.7448310859618
 21
-24200.0
 31
0.0
  0
TEXT
  5
174
330
1F
100
AcDbEntity
  8
03-文字-2
100
AcDbText
 10
-4863.212311771144
 20
-24699.91000000035
 30
0.0
 40
199.82
  1
管径 φ225
 41
0.997383736138513
 72
     1
 11
-4156.255168914001
 21
-24600.00000000035
 31
0.0
100
AcDbText
 73
     2
  0
LINE
  5
175
330
1F
100
AcDbEntity
  8
シンボル
100
AcDbLine
 10
-5156.255168914038
 20
-25000.0
 30
0.0
 11
843.7448310859618
 21
-25000.0
 31
0.0
  0
TEXT
  5
176
330
1F
100
AcDbEntity
  8
03-文字-2
100
AcDbText
 10
-4846.226597485564
 20
-25499.91000000011
 30
0.0
 40
199.82
  1
管径 φ250
 41
0.997383736138513
 72
     1
 11
-4156.255168914135
 21
-25400.00000000011
 31
0.0
100
AcDbText
 73
     2
  0
LINE
  5
177
330
1F
100
AcDbEntity
  8
シンボル
100
AcDbLine
 10
-5156.255168914038
 20
-25800.0
 30
0.0
 11
843.7448310859618
 21
-25800.0
 31
0.0
  0
TEXT
  5
178
330
1F
100
AcDbEntity
  8
03-文字-2
100
AcDbText
 10
-4863.212311771144
 20
-26299.90999999991
 30
0.0
 40
199.82
  1
管径 φ275
 41
0.997383736138513
 72
     1
 11
-4156.255168914001
 21
-26199.99999999991
 31
0.0
100
AcDbText
 73
     2
  0
LINE
  5
179
330
1F
100
AcDbEntity
  8
シンボル
100
AcDbLine
 10
-5156.255168914038
 20
-26600.0
 30
0.0
 11
843.7448310859618
 21
-26600.0
 31
0.0
  0
TEXT
  5
17A
330
1F
100
AcDbEntity
  8
03-文字-2
100
AcDbText
 10
-4829.240883199747
 20
-27199.91000000016
 30
0.0
 40
199.82
  1
管径 φ300
 41
0.997383736138513
 72
     1
 11
-4156.255168914033
 21
-27100.00000000016
 31
0.0
100
AcDbText
 73
     2
  0
LINE
  5
17B
330
1F
100
AcDbEntity
  8
シンボル
100
AcDbLine
 10
-5156.255168914038
 20
-27600.0
 30
0.0
 11
843.7448310859618
 21
-27600.0
 31
0.0
  0
TEXT
  5
17C
330
1F
100
AcDbEntity
  8
03-文字-2
100
AcDbText
 10
-4863.212311771144
 20
-28199.90999999954
 30
0.0
 40
199.82
  1
管径 φ325
 41
0.997383736138513
 72
     1
 11
-4156.255168914001
 21
-28099.99999999954
 31
0.0
100
AcDbText
 73
     2
  0
LINE
  5
17D
330
1F
100
AcDbEntity
  8
シンボル
100
AcDbLine
 10
-5156.255168914038
 20
-28600.0
 30
0.0
 11
843.7448310859618
 21
-28600.0
 31
0.0
  0
TEXT
  5
17E
330
1F
100
AcDbEntity
  8
03-文字-2
100
AcDbText
 10
-4846.226597485564
 20
-29199.91
 30
0.0
 40
199.82
  1
管径 φ350
 41
0.997383736138513
 72
     1
 11
-4156.255168914135
 21
-29100.0
 31
0.0
100
AcDbText
 73
     2
  0
LINE
  5
17F
330
1F
100
AcDbEntity
  8
シンボル
100
AcDbLine
 10
-5156.255168914038
 20
-29600.0
 30
0.0
 11
843.7448310859618
 21
-29600.0
 31
0.0
  0
TEXT
  5
180
330
1F
100
AcDbEntity
  8
03-文字-2
100
AcDbText
 10
-4863.212311771204
 20
-30199.90999999945
 30
0.0
 40
199.82
  1
管径 φ375
 41
0.997383736138513
 72
     1
 11
-4156.255168914061
 21
-30099.99999999945
 31
0.0
100
AcDbText
 73
     2
  0
LINE
  5
181
330
1F
100
AcDbEntity
  8
シンボル
100
AcDbLine
 10
-5156.255168914038
 20
-30600.0
 30
0.0
 11
843.7448310859618
 21
-30600.0
 31
0.0
  0
TEXT
  5
182
330
1F
100
AcDbEntity
  8
03-文字-2
100
AcDbText
 10
-4829.240883199864
 20
-31199.91000000005
 30
0.0
 40
199.82
  1
管径 φ400
 41
0.997383736138513
 72
     1
 11
-4156.255168914149
 21
-31100.00000000005
 31
0.0
100
AcDbText
 73
     2
  0
LINE
  5
183
330
1F
100
AcDbEntity
  8
シンボル
100
AcDbLine
 10
-5156.255168914038
 20
-31600.0
 30
0.0
 11
843.7448310859618
 21
-31600.0
 31
0.0
  0
LINE
  5
184
330
1F
100
AcDbEntity
  8
04-ダクトセンター
100
AcDbLine
 10
-2165.26264616815
 20
-20600.0
 30
0.0
 11
-2150.26264616815
 21
-20600.0
 31
0.0
  0
LINE
  5
185
330
1F
100
AcDbEntity
  8
05-ダクト外線
100
AcDbLine
 10
-2165.26264616815
 20
-20550.1
 30
0.0
 11
-2165.26264616815
 21
-20545.0
 31
0.0
  0
LINE
  5
186
330
1F
100
AcDbEntity
  8
05-ダクト外線
100
AcDbLine
 10
-2150.26264616815
 20
-20646.5
 30
0.0
 11
-2150.26264616815
 21
-20553.5
 31
0.0
  0
LINE
  5
187
330
1F
100
AcDbEntity
  8
05-ダクト外線
100
AcDbLine
 10
-2165.26264616815
 20
-20545.0
 30
0.0
 11
-2164.662646168144
 21
-20545.0
 31
0.0
  0
LINE
  5
188
330
1F
100
AcDbEntity
  8
05-ダクト外線
100
AcDbLine
 10
-2152.76264616815
 20
-20551.0
 30
0.0
 11
-2163.76264616815
 21
-20551.0
 31
0.0
  0
LINE
  5
189
330
1F
100
AcDbEntity
  8
05-ダクト外線
100
AcDbLine
 10
-2152.76264616815
 20
-20649.0
 30
0.0
 11
-2163.76264616815
 21
-20649.0
 31
0.0
  0
LINE
  5
18A
330
1F
100
AcDbEntity
  8
05-ダクト外線
100
AcDbLine
 10
-2165.26264616815
 20
-20655.0
 30
0.0
 11
-2164.662646168144
 21
-20655.0
 31
0.0
  0
INSERT
  5
18E
330
1F
100
AcDbEntity
  8
寸法
100
AcDbBlockReference
  2
INS-D90GH
 10
-2218.063
 20
-20600.0
 30
0.0
  0
INSERT
  5
198
330
1F
100
AcDbEntity
  8
寸法
100
AcDbBlockReference
  2
INS-DE4EG
 10
-2157.763
 20
-20506.163
 30
0.0
  0
INSERT
  5
1A0
330
1F
100
AcDbEntity
  8
寸法
100
AcDbBlockReference
  2
INS-D6F8L
 10
-2107.969
 20
-20600.0
 30
0.0
  0
LINE
  5
1A7
330
1F
100
AcDbEntity
  8
05-ダクト外線
100
AcDbLine
 10
-2164.662646168144
 20
-20655.0
 30
0.0
 11
-2164.662646168144
 21
-20649.90000000001
 31
0.0
  0
LINE
  5
1A8
330
1F
100
AcDbEntity
  8
06-ダクト内線
  6
DASHED2
 48
0.2
100
AcDbLine
 10
-2152.76264616815
 20
-20648.40000000001
 30
0.0
 11
-2163.76264616815
 21
-20648.40000000001
 31
0.0
  0
LINE
  5
1A9
330
1F
100
AcDbEntity
  8
06-ダクト内線
  6
DASHED2
 48
0.2
100
AcDbLine
 10
-2150.862646168127
 20
-20646.5
 30
0.0
 11
-2150.862646168127
 21
-20553.5
 31
0.0
  0
LINE
  5
1AA
330
1F
100
AcDbEntity
  8
06-ダクト内線
  6
DASHED2
 48
0.2
100
AcDbLine
 10
-2152.76264616815
 20
-20551.6
 30
0.0
 11
-2163.76264616815
 21
-20551.6
 31
0.0
  0
ARC
  5
1AB
330
1F
100
AcDbEntity
  8
05-ダクト外線
100
AcDbCircle
 10
-2152.76264616815
 20
-20646.5
 30
0.0
 40
2.5
100
AcDbArc
 50
270.0
 51
0.0
  0
ARC
  5
1AC
330
1F
100
AcDbEntity
  8
05-ダクト外線
100
AcDbCircle
 10
-2152.76264616815
 20
-20553.5
 30
0.0
 40
2.5
100
AcDbArc
 50
0.0
 51
90.0
  0
ARC
  5
1AD
330
1F
100
AcDbEntity
  8
06-ダクト内線
  6
DASHED2
 48
0.2
100
AcDbCircle
 10
-2163.76264616815
 20
-20550.1
 30
0.0
 40
1.5
100
AcDbArc
 50
180.0
 51
270.0
  0
ARC
  5
1AE
330
1F
100
AcDbEntity
  8
05-ダクト外線
100
AcDbCircle
 10
-2163.76264616815
 20
-20550.1
 30
0.0
 40
0.9
100
AcDbArc
 50
180.0
 51
270.0
  0
ARC
  5
1AF
330
1F
100
AcDbEntity
  8
06-ダクト内線
  6
DASHED2
 48
0.2
100
AcDbCircle
 10
-2152.76264616815
 20
-20553.5
 30
0.0
 40
1.9
100
AcDbArc
 50
0.0
 51
90.0
  0
ARC
  5
1B0
330
1F
100
AcDbEntity
  8
06-ダクト内線
  6
DASHED2
 48
0.2
100
AcDbCircle
 10
-2152.76264616815
 20
-20646.5
 30
0.0
 40
1.9
100
AcDbArc
 50
270.0
 51
0.0
  0
ARC
  5
1B1
330
1F
100
AcDbEntity
  8
06-ダクト内線
  6
DASHED2
 48
0.2
100
AcDbCircle
 10
-2163.76264616815
 20
-20649.90000000001
 30
0.0
 40
1.5
100
AcDbArc
 50
90.0
 51
180.0
  0
LINE
  5
1B2
330
1F
100
AcDbEntity
  8
05-ダクト外線
100
AcDbLine
 10
-2165.26264616815
 20
-20655.0
 30
0.0
 11
-2165.26264616815
 21
-20545.0
 31
0.0
  0
ARC
  5
1B3
330
1F
100
AcDbEntity
  8
05-ダクト外線
100
AcDbCircle
 10
-2163.76264616815
 20
-20649.90000000001
 30
0.0
 40
0.9
100
AcDbArc
 50
90.0
 51
180.0
  0
LINE
  5
1B4
330
1F
100
AcDbEntity
  8
05-ダクト外線
100
AcDbLine
 10
-2164.662646168144
 20
-20550.1
 30
0.0
 11
-2164.662646168144
 21
-20545.0
 31
0.0
  0
TEXT
  5
1B5
330
1F
100
AcDbEntity
  8
03-文字-2
100
AcDbText
 10
-2556.442668914114
 20
-20785.66889336864
 30
0.0
 40
49.955
  1
直管用キャップφ100-0.6t
 41
0.9971071247761646
 72
     1
 11
-2156.255168914114
 21
-20760.69139336864
 31
0.0
100
AcDbText
 73
     2
  0
LINE
  5
1B6
330
1F
100
AcDbEntity
  8
04-ダクトセンター
100
AcDbLine
 10
-2165.26264616815
 20
-21400.0
 30
0.0
 11
-2150.26264616815
 21
-21400.0
 31
0.0
  0
LINE
  5
1B7
330
1F
100
AcDbEntity
  8
05-ダクト外線
100
AcDbLine
 10
-2165.26264616815
 20
-21337.6
 30
0.0
 11
-2165.26264616815
 21
-21332.5
 31
0.0
  0
LINE
  5
1B8
330
1F
100
AcDbEntity
  8
05-ダクト外線
100
AcDbLine
 10
-2150.26264616815
 20
-21459.0
 30
0.0
 11
-2150.26264616815
 21
-21341.0
 31
0.0
  0
LINE
  5
1B9
330
1F
100
AcDbEntity
  8
05-ダクト外線
100
AcDbLine
 10
-2165.26264616815
 20
-21332.5
 30
0.0
 11
-2164.662646168144
 21
-21332.5
 31
0.0
  0
LINE
  5
1BA
330
1F
100
AcDbEntity
  8
05-ダクト外線
100
AcDbLine
 10
-2152.76264616815
 20
-21338.5
 30
0.0
 11
-2163.76264616815
 21
-21338.5
 31
0.0
  0
LINE
  5
1BB
330
1F
100
AcDbEntity
  8
05-ダクト外線
100
AcDbLine
 10
-2152.76264616815
 20
-21461.5
 30
0.0
 11
-2163.76264616815
 21
-21461.5
 31
0.0
  0
LINE
  5
1BC
330
1F
100
AcDbEntity
  8
05-ダクト外線
100
AcDbLine
 10
-2165.26264616815
 20
-21467.5
 30
0.0
 11
-2164.662646168144
 21
-21467.5
 31
0.0
  0
INSERT
  5
1C0
330
1F
100
AcDbEntity
  8
寸法
100
AcDbBlockReference
  2
INS-D8W0W
 10
-2218.063
 20
-21400.0
 30
0.0
  0
INSERT
  5
1CA
330
1F
100
AcDbEntity
  8
寸法
100
AcDbBlockReference
  2
INS-D58RQ
 10
-2157.763
 20
-21293.663
 30
0.0
  0
INSERT
  5
1D2
330
1F
100
AcDbEntity
  8
寸法
100
AcDbBlockReference
  2
INS-D5CAA
 10
-2107.969
 20
-21400.0
 30
0.0
  0
LINE
  5
1D9
330
1F
100
AcDbEntity
  8
05-ダクト外線
100
AcDbLine
 10
-2164.662646168144
 20
-21467.5
 30
0.0
 11
-2164.662646168144
 21
-21462.40000000001
 31
0.0
  0
LINE
  5
1DA
330
1F
100
AcDbEntity
  8
06-ダクト内線
  6
DASHED2
 48
0.2
100
AcDbLine
 10
-2152.76264616815
 20
-21460.90000000001
 30
0.0
 11
-2163.76264616815
 21
-21460.90000000001
 31
0.0
  0
LINE
  5
1DB
330
1F
100
AcDbEntity
  8
06-ダクト内線
  6
DASHED2
 48
0.2
100
AcDbLine
 10
-2150.862646168127
 20
-21459.0
 30
0.0
 11
-2150.862646168127
 21
-21341.0
 31
0.0
  0
LINE
  5
1DC
330
1F
100
AcDbEntity
  8
06-ダクト内線
  6
DASHED2
 48
0.2
100
AcDbLine
 10
-2152.76264616815
 20
-21339.1
 30
0.0
 11
-2163.76264616815
 21
-21339.1
 31
0.0
  0
ARC
  5
1DD
330
1F
100
AcDbEntity
  8
05-ダクト外線
100
AcDbCircle
 10
-2152.76264616815
 20
-21459.0
 30
0.0
 40
2.5
100
AcDbArc
 50
270.0
 51
0.0
  0
ARC
  5
1DE
330
1F
100
AcDbEntity
  8
05-ダクト外線
100
AcDbCircle
 10
-2152.76264616815
 20
-21341.0
 30
0.0
 40
2.5
100
AcDbArc
 50
0.0
 51
90.0
  0
ARC
  5
1DF
330
1F
100
AcDbEntity
  8
06-ダクト内線
  6
DASHED2
 48
0.2
100
AcDbCircle
 10
-2163.76264616815
 20
-21337.6
 30
0.0
 40
1.5
100
AcDbArc
 50
180.0
 51
270.0
  0
ARC
  5
1E0
330
1F
100
AcDbEntity
  8
05-ダクト外線
100
AcDbCircle
 10
-2163.76264616815
 20
-21337.6
 30
0.0
 40
0.9
100
AcDbArc
 50
180.0
 51
270.0
  0
ARC
  5
1E1
330
1F
100
AcDbEntity
  8
06-ダクト内線
  6
DASHED2
 48
0.2
100
AcDbCircle
 10
-2152.76264616815
 20
-21341.0
 30
0.0
 40
1.9
100
AcDbArc
 50
0.0
 51
90.0
  0
ARC
  5
1E2
330
1F
100
AcDbEntity
  8
06-ダクト内線
  6
DASHED2
 48
0.2
100
AcDbCircle
 10
-2152.76264616815
 20
-21459.0
 30
0.0
 40
1.9
100
AcDbArc
 50
270.0
 51
0.0
  0
ARC
  5
1E3
330
1F
100
AcDbEntity
  8
06-ダクト内線
  6
DASHED2
 48
0.2
100
AcDbCircle
 10
-2163.76264616815
 20
-21462.40000000001
 30
0.0
 40
1.5
100
AcDbArc
 50
90.0
 51
180.0
  0
LINE
  5
1E4
330
1F
100
AcDbEntity
  8
05-ダクト外線
100
AcDbLine
 10
-2165.26264616815
 20
-21467.5
 30
0.0
 11
-2165.26264616815
 21
-21332.5
 31
0.0
  0
ARC
  5
1E5
330
1F
100
AcDbEntity
  8
05-ダクト外線
100
AcDbCircle
 10
-2163.76264616815
 20
-21462.40000000001
 30
0.0
 40
0.9
100
AcDbArc
 50
90.0
 51
180.0
  0
LINE
  5
1E6
330
1F
100
AcDbEntity
  8
05-ダクト外線
100
AcDbLine
 10
-2164.662646168144
 20
-21337.6
 30
0.0
 11
-2164.662646168144
 21
-21332.5
 31
0.0
  0
TEXT
  5
1E7
330
1F
100
AcDbEntity
  8
03-文字-2
100
AcDbText
 10
-2565.052043913955
 20
-21598.16889336934
 30
0.0
 40
49.955
  1
直管用キャップφ125-0.6t
 41
0.9971071247761646
 72
     1
 11
-2156.255168913955
 21
-21573.19139336934
 31
0.0
100
AcDbText
 73
     2
  0
LINE
  5
1E8
330
1F
100
AcDbEntity
  8
04-ダクトセンター
100
AcDbLine
 10
-2165.26264616815
 20
-22200.0
 30
0.0
 11
-2150.26264616815
 21
-22200.0
 31
0.0
  0
LINE
  5
1E9
330
1F
100
AcDbEntity
  8
05-ダクト外線
100
AcDbLine
 10
-2165.26264616815
 20
-22125.1
 30
0.0
 11
-2165.26264616815
 21
-22120.0
 31
0.0
  0
LINE
  5
1EA
330
1F
100
AcDbEntity
  8
05-ダクト外線
100
AcDbLine
 10
-2150.26264616815
 20
-22271.5
 30
0.0
 11
-2150.26264616815
 21
-22128.5
 31
0.0
  0
LINE
  5
1EB
330
1F
100
AcDbEntity
  8
05-ダクト外線
100
AcDbLine
 10
-2165.26264616815
 20
-22120.0
 30
0.0
 11
-2164.662646168144
 21
-22120.0
 31
0.0
  0
LINE
  5
1EC
330
1F
100
AcDbEntity
  8
05-ダクト外線
100
AcDbLine
 10
-2152.76264616815
 20
-22126.0
 30
0.0
 11
-2163.76264616815
 21
-22126.0
 31
0.0
  0
LINE
  5
1ED
330
1F
100
AcDbEntity
  8
05-ダクト外線
100
AcDbLine
 10
-2152.76264616815
 20
-22274.0
 30
0.0
 11
-2163.76264616815
 21
-22274.0
 31
0.0
  0
LINE
  5
1EE
330
1F
100
AcDbEntity
  8
05-ダクト外線
100
AcDbLine
 10
-2165.26264616815
 20
-22280.0
 30
0.0
 11
-2164.662646168144
 21
-22280.0
 31
0.0
  0
INSERT
  5
1F2
330
1F
100
AcDbEntity
  8
寸法
100
AcDbBlockReference
  2
INS-D7UEW
 10
-2218.063
 20
-22200.0
 30
0.0
  0
INSERT
  5
1FC
330
1F
100
AcDbEntity
  8
寸法
100
AcDbBlockReference
  2
INS-D7IYV
 10
-2157.763
 20
-22081.163
 30
0.0
  0
INSERT
  5
204
330
1F
100
AcDbEntity
  8
寸法
100
AcDbBlockReference
  2
INS-DJDJT
 10
-2107.969
 20
-22200.0
 30
0.0
  0
LINE
  5
20B
330
1F
100
AcDbEntity
  8
05-ダクト外線
100
AcDbLine
 10
-2164.662646168144
 20
-22280.0
 30
0.0
 11
-2164.662646168144
 21
-22274.90000000001
 31
0.0
  0
LINE
  5
20C
330
1F
100
AcDbEntity
  8
06-ダクト内線
  6
DASHED2
 48
0.2
100
AcDbLine
 10
-2152.76264616815
 20
-22273.40000000001
 30
0.0
 11
-2163.76264616815
 21
-22273.40000000001
 31
0.0
  0
LINE
  5
20D
330
1F
100
AcDbEntity
  8
06-ダクト内線
  6
DASHED2
 48
0.2
100
AcDbLine
 10
-2150.862646168127
 20
-22271.5
 30
0.0
 11
-2150.862646168127
 21
-22128.5
 31
0.0
  0
LINE
  5
20E
330
1F
100
AcDbEntity
  8
06-ダクト内線
  6
DASHED2
 48
0.2
100
AcDbLine
 10
-2152.76264616815
 20
-22126.6
 30
0.0
 11
-2163.76264616815
 21
-22126.6
 31
0.0
  0
ARC
  5
20F
330
1F
100
AcDbEntity
  8
05-ダクト外線
100
AcDbCircle
 10
-2152.76264616815
 20
-22271.5
 30
0.0
 40
2.5
100
AcDbArc
 50
270.0
 51
0.0
  0
ARC
  5
210
330
1F
100
AcDbEntity
  8
05-ダクト外線
100
AcDbCircle
 10
-2152.76264616815
 20
-22128.5
 30
0.0
 40
2.5
100
AcDbArc
 50
0.0
 51
90.0
  0
ARC
  5
211
330
1F
100
AcDbEntity
  8
06-ダクト内線
  6
DASHED2
 48
0.2
100
AcDbCircle
 10
-2163.76264616815
 20
-22125.1
 30
0.0
 40
1.5
100
AcDbArc
 50
180.0
 51
270.0
  0
ARC
  5
212
330
1F
100
AcDbEntity
  8
05-ダクト外線
100
AcDbCircle
 10
-2163.76264616815
 20
-22125.1
 30
0.0
 40
0.9
100
AcDbArc
 50
180.0
 51
270.0
  0
ARC
  5
213
330
1F
100
AcDbEntity
  8
06-ダクト内線
  6
DASHED2
 48
0.2
100
AcDbCircle
 10
-2152.76264616815
 20
-22128.5
 30
0.0
 40
1.9
100
AcDbArc
 50
0.0
 51
90.0
  0
ARC
  5
214
330
1F
100
AcDbEntity
  8
06-ダクト内線
  6
DASHED2
 48
0.2
100
AcDbCircle
 10
-2152.76264616815
 20
-22271.5
 30
0.0
 40
1.9
100
AcDbArc
 50
270.0
 51
0.0
  0
ARC
  5
215
330
1F
100
AcDbEntity
  8
06-ダクト内線
  6
DASHED2
 48
0.2
100
AcDbCircle
 10
-2163.76264616815
 20
-22274.90000000001
 30
0.0
 40
1.5
100
AcDbArc
 50
90.0
 51
180.0
  0
LINE
  5
216
330
1F
100
AcDbEntity
  8
05-ダクト外線
100
AcDbLine
 10
-2165.26264616815
 20
-22280.0
 30
0.0
 11
-2165.26264616815
 21
-22120.0
 31
0.0
  0
ARC
  5
217
330
1F
100
AcDbEntity
  8
05-ダクト外線
100
AcDbCircle
 10
-2163.76264616815
 20
-22274.90000000001
 30
0.0
 40
0.9
100
AcDbArc
 50
90.0
 51
180.0
  0
LINE
  5
218
330
1F
100
AcDbEntity
  8
05-ダクト外線
100
AcDbLine
 10
-2164.662646168144
 20
-22125.1
 30
0.0
 11
-2164.662646168144
 21
-22120.0
 31
0.0
  0
TEXT
  5
219
330
1F
100
AcDbEntity
  8
03-文字-2
100
AcDbText
 10
-2560.747356413885
 20
-22410.66889337116
 30
0.0
 40
49.955
  1
直管用キャップφ150-0.6t
 41
0.9971071247761646
 72
     1
 11
-2156.255168913885
 21
-22385.69139337116
 31
0.0
100
AcDbText
 73
     2
  0
LINE
  5
21A
330
1F
100
AcDbEntity
  8
04-ダクトセンター
100
AcDbLine
 10
-2165.26264616815
 20
-23000.0
 30
0.0
 11
-2150.26264616815
 21
-23000.0
 31
0.0
  0
LINE
  5
21B
330
1F
100
AcDbEntity
  8
05-ダクト外線
100
AcDbLine
 10
-2165.26264616815
 20
-22912.6
 30
0.0
 11
-2165.26264616815
 21
-22907.5
 31
0.0
  0
LINE
  5
21C
330
1F
100
AcDbEntity
  8
05-ダクト外線
100
AcDbLine
 10
-2150.26264616815
 20
-23084.0
 30
0.0
 11
-2150.26264616815
 21
-22916.0
 31
0.0
  0
LINE
  5
21D
330
1F
100
AcDbEntity
  8
05-ダクト外線
100
AcDbLine
 10
-2165.26264616815
 20
-22907.5
 30
0.0
 11
-2164.662646168144
 21
-22907.5
 31
0.0
  0
LINE
  5
21E
330
1F
100
AcDbEntity
  8
05-ダクト外線
100
AcDbLine
 10
-2152.76264616815
 20
-22913.5
 30
0.0
 11
-2163.76264616815
 21
-22913.5
 31
0.0
  0
LINE
  5
21F
330
1F
100
AcDbEntity
  8
05-ダクト外線
100
AcDbLine
 10
-2152.76264616815
 20
-23086.5
 30
0.0
 11
-2163.76264616815
 21
-23086.5
 31
0.0
  0
LINE
  5
220
330
1F
100
AcDbEntity
  8
05-ダクト外線
100
AcDbLine
 10
-2165.26264616815
 20
-23092.5
 30
0.0
 11
-2164.662646168144
 21
-23092.5
 31
0.0
  0
INSERT
  5
224
330
1F
100
AcDbEntity
  8
寸法
100
AcDbBlockReference
  2
INS-DRAEL
 10
-2218.063
 20
-23000.0
 30
0.0
  0
INSERT
  5
22E
330
1F
100
AcDbEntity
  8
寸法
100
AcDbBlockReference
  2
INS-DQ4LX
 10
-2157.763
 20
-22868.663
 30
0.0
  0
INSERT
  5
236
330
1F
100
AcDbEntity
  8
寸法
100
AcDbBlockReference
  2
INS-D7XAS
 10
-2107.969
 20
-23000.0
 30
0.0
  0
LINE
  5
23D
330
1F
100
AcDbEntity
  8
05-ダクト外線
100
AcDbLine
 10
-2164.662646168144
 20
-23092.5
 30
0.0
 11
-2164.662646168144
 21
-23087.40000000001
 31
0.0
  0
LINE
  5
23E
330
1F
100
AcDbEntity
  8
06-ダクト内線
  6
DASHED2
 48
0.2
100
AcDbLine
 10
-2152.76264616815
 20
-23085.90000000001
 30
0.0
 11
-2163.76264616815
 21
-23085.90000000001
 31
0.0
  0
LINE
  5
23F
330
1F
100
AcDbEntity
  8
06-ダクト内線
  6
DASHED2
 48
0.2
100
AcDbLine
 10
-2150.862646168127
 20
-23084.0
 30
0.0
 11
-2150.862646168127
 21
-22916.0
 31
0.0
  0
LINE
  5
240
330
1F
100
AcDbEntity
  8
06-ダクト内線
  6
DASHED2
 48
0.2
100
AcDbLine
 10
-2152.76264616815
 20
-22914.1
 30
0.0
 11
-2163.76264616815
 21
-22914.1
 31
0.0
  0
ARC
  5
241
330
1F
100
AcDbEntity
  8
05-ダクト外線
100
AcDbCircle
 10
-2152.76264616815
 20
-23084.0
 30
0.0
 40
2.5
100
AcDbArc
 50
270.0
 51
0.0
  0
ARC
  5
242
330
1F
100
AcDbEntity
  8
05-ダクト外線
100
AcDbCircle
 10
-2152.76264616815
 20
-22916.0
 30
0.0
 40
2.5
100
AcDbArc
 50
0.0
 51
90.0
  0
ARC
  5
243
330
1F
100
AcDbEntity
  8
06-ダクト内線
  6
DASHED2
 48
0.2
100
AcDbCircle
 10
-2163.76264616815
 20
-22912.6
 30
0.0
 40
1.5
100
AcDbArc
 50
180.0
 51
270.0
  0
ARC
  5
244
330
1F
100
AcDbEntity
  8
05-ダクト外線
100
AcDbCircle
 10
-2163.76264616815
 20
-22912.6
 30
0.0
 40
0.9
100
AcDbArc
 50
180.0
 51
270.0
  0
ARC
  5
245
330
1F
100
AcDbEntity
  8
06-ダクト内線
  6
DASHED2
 48
0.2
100
AcDbCircle
 10
-2152.76264616815
 20
-22916.0
 30
0.0
 40
1.9
100
AcDbArc
 50
0.0
 51
90.0
  0
ARC
  5
246
330
1F
100
AcDbEntity
  8
06-ダクト内線
  6
DASHED2
 48
0.2
100
AcDbCircle
 10
-2152.76264616815
 20
-23084.0
 30
0.0
 40
1.9
100
AcDbArc
 50
270.0
 51
0.0
  0
ARC
  5
247
330
1F
100
AcDbEntity
  8
06-ダクト内線
  6
DASHED2
 48
0.2
100
AcDbCircle
 10
-2163.76264616815
 20
-23087.40000000001
 30
0.0
 40
1.5
100
AcDbArc
 50
90.0
 51
180.0
  0
LINE
  5
248
330
1F
100
AcDbEntity
  8
05-ダクト外線
100
AcDbLine
 10
-2165.26264616815
 20
-23092.5
 30
0.0
 11
-2165.26264616815
 21
-22907.5
 31
0.0
  0
ARC
  5
249
330
1F
100
AcDbEntity
  8
05-ダクト外線
100
AcDbCircle
 10
-2163.76264616815
 20
-23087.40000000001
 30
0.0
 40
0.9
100
AcDbArc
 50
90.0
 51
180.0
  0
LINE
  5
24A
330
1F
100
AcDbEntity
  8
05-ダクト外線
100
AcDbLine
 10
-2164.662646168144
 20
-22912.6
 30
0.0
 11
-2164.662646168144
 21
-22907.5
 31
0.0
  0
TEXT
  5
24B
330
1F
100
AcDbEntity
  8
03-文字-2
100
AcDbText
 10
-2565.052043913955
 20
-23223.16889336962
 30
0.0
 40
49.955
  1
直管用キャップφ175-0.6t
 41
0.9971071247761646
 72
     1
 11
-2156.255168913955
 21
-23198.19139336962
 31
0.0
100
AcDbText
 73
     2
  0
LINE
  5
24C
330
1F
100
AcDbEntity
  8
04-ダクトセンター
100
AcDbLine
 10
-2165.26264616815
 20
-23800.0
 30
0.0
 11
-2150.26264616815
 21
-23800.0
 31
0.0
  0
LINE
  5
24D
330
1F
100
AcDbEntity
  8
05-ダクト外線
100
AcDbLine
 10
-2165.26264616815
 20
-23700.1
 30
0.0
 11
-2165.26264616815
 21
-23695.0
 31
0.0
  0
LINE
  5
24E
330
1F
100
AcDbEntity
  8
05-ダクト外線
100
AcDbLine
 10
-2150.26264616815
 20
-23896.5
 30
0.0
 11
-2150.26264616815
 21
-23703.5
 31
0.0
  0
LINE
  5
24F
330
1F
100
AcDbEntity
  8
05-ダクト外線
100
AcDbLine
 10
-2165.26264616815
 20
-23695.0
 30
0.0
 11
-2164.662646168144
 21
-23695.0
 31
0.0
  0
LINE
  5
250
330
1F
100
AcDbEntity
  8
05-ダクト外線
100
AcDbLine
 10
-2152.76264616815
 20
-23701.0
 30
0.0
 11
-2163.76264616815
 21
-23701.0
 31
0.0
  0
LINE
  5
251
330
1F
100
AcDbEntity
  8
05-ダクト外線
100
AcDbLine
 10
-2152.76264616815
 20
-23899.0
 30
0.0
 11
-2163.76264616815
 21
-23899.0
 31
0.0
  0
LINE
  5
252
330
1F
100
AcDbEntity
  8
05-ダクト外線
100
AcDbLine
 10
-2165.26264616815
 20
-23905.0
 30
0.0
 11
-2164.662646168144
 21
-23905.0
 31
0.0
  0
INSERT
  5
256
330
1F
100
AcDbEntity
  8
寸法
100
AcDbBlockReference
  2
INS-D3UXT
 10
-2218.063
 20
-23800.0
 30
0.0
  0
INSERT
  5
260
330
1F
100
AcDbEntity
  8
寸法
100
AcDbBlockReference
  2
INS-D919O
 10
-2157.763
 20
-23656.163
 30
0.0
  0
INSERT
  5
268
330
1F
100
AcDbEntity
  8
寸法
100
AcDbBlockReference
  2
INS-D775L
 10
-2107.969
 20
-23800.0
 30
0.0
  0
LINE
  5
26F
330
1F
100
AcDbEntity
  8
05-ダクト外線
100
AcDbLine
 10
-2164.662646168144
 20
-23905.0
 30
0.0
 11
-2164.662646168144
 21
-23899.90000000001
 31
0.0
  0
LINE
  5
270
330
1F
100
AcDbEntity
  8
06-ダクト内線
  6
DASHED2
 48
0.2
100
AcDbLine
 10
-2152.76264616815
 20
-23898.40000000001
 30
0.0
 11
-2163.76264616815
 21
-23898.40000000001
 31
0.0
  0
LINE
  5
271
330
1F
100
AcDbEntity
  8
06-ダクト内線
  6
DASHED2
 48
0.2
100
AcDbLine
 10
-2150.862646168127
 20
-23896.5
 30
0.0
 11
-2150.862646168127
 21
-23703.5
 31
0.0
  0
LINE
  5
272
330
1F
100
AcDbEntity
  8
06-ダクト内線
  6
DASHED2
 48
0.2
100
AcDbLine
 10
-2152.76264616815
 20
-23701.6
 30
0.0
 11
-2163.76264616815
 21
-23701.6
 31
0.0
  0
ARC
  5
273
330
1F
100
AcDbEntity
  8
05-ダクト外線
100
AcDbCircle
 10
-2152.76264616815
 20
-23896.5
 30
0.0
 40
2.5
100
AcDbArc
 50
270.0
 51
0.0
  0
ARC
  5
274
330
1F
100
AcDbEntity
  8
05-ダクト外線
100
AcDbCircle
 10
-2152.76264616815
 20
-23703.5
 30
0.0
 40
2.5
100
AcDbArc
 50
0.0
 51
90.0
  0
ARC
  5
275
330
1F
100
AcDbEntity
  8
06-ダクト内線
  6
DASHED2
 48
0.2
100
AcDbCircle
 10
-2163.76264616815
 20
-23700.1
 30
0.0
 40
1.5
100
AcDbArc
 50
180.0
 51
270.0
  0
ARC
  5
276
330
1F
100
AcDbEntity
  8
05-ダクト外線
100
AcDbCircle
 10
-2163.76264616815
 20
-23700.1
 30
0.0
 40
0.9
100
AcDbArc
 50
180.0
 51
270.0
  0
ARC
  5
277
330
1F
100
AcDbEntity
  8
06-ダクト内線
  6
DASHED2
 48
0.2
100
AcDbCircle
 10
-2152.76264616815
 20
-23703.5
 30
0.0
 40
1.9
100
AcDbArc
 50
0.0
 51
90.0
  0
ARC
  5
278
330
1F
100
AcDbEntity
  8
06-ダクト内線
  6
DASHED2
 48
0.2
100
AcDbCircle
 10
-2152.76264616815
 20
-23896.5
 30
0.0
 40
1.9
100
AcDbArc
 50
270.0
 51
0.0
  0
ARC
  5
279
330
1F
100
AcDbEntity
  8
06-ダクト内線
  6
DASHED2
 48
0.2
100
AcDbCircle
 10
-2163.76264616815
 20
-23899.90000000001
 30
0.0
 40
1.5
100
AcDbArc
 50
90.0
 51
180.0
  0
LINE
  5
27A
330
1F
100
AcDbEntity
  8
05-ダクト外線
100
AcDbLine
 10
-2165.26264616815
 20
-23905.0
 30
0.0
 11
-2165.26264616815
 21
-23695.0
 31
0.0
  0
ARC
  5
27B
330
1F
100
AcDbEntity
  8
05-ダクト外線
100
AcDbCircle
 10
-2163.76264616815
 20
-23899.90000000001
 30
0.0
 40
0.9
100
AcDbArc
 50
90.0
 51
180.0
  0
LINE
  5
27C
330
1F
100
AcDbEntity
  8
05-ダクト外線
100
AcDbLine
 10
-2164.662646168144
 20
-23700.1
 30
0.0
 11
-2164.662646168144
 21
-23695.0
 31
0.0
  0
TEXT
  5
27D
330
1F
100
AcDbEntity
  8
03-文字-2
100
AcDbText
 10
-2564.755168914038
 20
-24035.66889336939
 30
0.0
 40
49.955
  1
直管用キャップφ200-0.6t
 41
0.9971071247761646
 72
     1
 11
-2156.255168914038
 21
-24010.69139336939
 31
0.0
100
AcDbText
 73
     2
  0
LINE
  5
27E
330
1F
100
AcDbEntity
  8
04-ダクトセンター
100
AcDbLine
 10
-2165.26264616815
 20
-24600.0
 30
0.0
 11
-2150.26264616815
 21
-24600.0
 31
0.0
  0
LINE
  5
27F
330
1F
100
AcDbEntity
  8
05-ダクト外線
100
AcDbLine
 10
-2165.26264616815
 20
-24487.6
 30
0.0
 11
-2165.26264616815
 21
-24482.5
 31
0.0
  0
LINE
  5
280
330
1F
100
AcDbEntity
  8
05-ダクト外線
100
AcDbLine
 10
-2150.26264616815
 20
-24709.0
 30
0.0
 11
-2150.26264616815
 21
-24491.0
 31
0.0
  0
LINE
  5
281
330
1F
100
AcDbEntity
  8
05-ダクト外線
100
AcDbLine
 10
-2165.26264616815
 20
-24482.5
 30
0.0
 11
-2164.662646168144
 21
-24482.5
 31
0.0
  0
LINE
  5
282
330
1F
100
AcDbEntity
  8
05-ダクト外線
100
AcDbLine
 10
-2152.76264616815
 20
-24488.5
 30
0.0
 11
-2163.76264616815
 21
-24488.5
 31
0.0
  0
LINE
  5
283
330
1F
100
AcDbEntity
  8
05-ダクト外線
100
AcDbLine
 10
-2152.76264616815
 20
-24711.5
 30
0.0
 11
-2163.76264616815
 21
-24711.5
 31
0.0
  0
LINE
  5
284
330
1F
100
AcDbEntity
  8
05-ダクト外線
100
AcDbLine
 10
-2165.26264616815
 20
-24717.5
 30
0.0
 11
-2164.662646168144
 21
-24717.5
 31
0.0
  0
INSERT
  5
288
330
1F
100
AcDbEntity
  8
寸法
100
AcDbBlockReference
  2
INS-DOVTR
 10
-2218.063
 20
-24600.0
 30
0.0
  0
INSERT
  5
292
330
1F
100
AcDbEntity
  8
寸法
100
AcDbBlockReference
  2
INS-DWMV8
 10
-2157.763
 20
-24443.663
 30
0.0
  0
INSERT
  5
29A
330
1F
100
AcDbEntity
  8
寸法
100
AcDbBlockReference
  2
INS-DSYKO
 10
-2107.969
 20
-24600.0
 30
0.0
  0
LINE
  5
2A1
330
1F
100
AcDbEntity
  8
05-ダクト外線
100
AcDbLine
 10
-2164.662646168144
 20
-24717.5
 30
0.0
 11
-2164.662646168144
 21
-24712.40000000001
 31
0.0
  0
LINE
  5
2A2
330
1F
100
AcDbEntity
  8
06-ダクト内線
  6
DASHED2
 48
0.2
100
AcDbLine
 10
-2152.76264616815
 20
-24710.90000000001
 30
0.0
 11
-2163.76264616815
 21
-24710.90000000001
 31
0.0
  0
LINE
  5
2A3
330
1F
100
AcDbEntity
  8
06-ダクト内線
  6
DASHED2
 48
0.2
100
AcDbLine
 10
-2150.862646168127
 20
-24709.0
 30
0.0
 11
-2150.862646168127
 21
-24491.0
 31
0.0
  0
LINE
  5
2A4
330
1F
100
AcDbEntity
  8
06-ダクト内線
  6
DASHED2
 48
0.2
100
AcDbLine
 10
-2152.76264616815
 20
-24489.1
 30
0.0
 11
-2163.76264616815
 21
-24489.1
 31
0.0
  0
ARC
  5
2A5
330
1F
100
AcDbEntity
  8
05-ダクト外線
100
AcDbCircle
 10
-2152.76264616815
 20
-24709.0
 30
0.0
 40
2.5
100
AcDbArc
 50
270.0
 51
0.0
  0
ARC
  5
2A6
330
1F
100
AcDbEntity
  8
05-ダクト外線
100
AcDbCircle
 10
-2152.76264616815
 20
-24491.0
 30
0.0
 40
2.5
100
AcDbArc
 50
0.0
 51
90.0
  0
ARC
  5
2A7
330
1F
100
AcDbEntity
  8
06-ダクト内線
  6
DASHED2
 48
0.2
100
AcDbCircle
 10
-2163.76264616815
 20
-24487.6
 30
0.0
 40
1.5
100
AcDbArc
 50
180.0
 51
270.0
  0
ARC
  5
2A8
330
1F
100
AcDbEntity
  8
05-ダクト外線
100
AcDbCircle
 10
-2163.76264616815
 20
-24487.6
 30
0.0
 40
0.9
100
AcDbArc
 50
180.0
 51
270.0
  0
ARC
  5
2A9
330
1F
100
AcDbEntity
  8
06-ダクト内線
  6
DASHED2
 48
0.2
100
AcDbCircle
 10
-2152.76264616815
 20
-24491.0
 30
0.0
 40
1.9
100
AcDbArc
 50
0.0
 51
90.0
  0
ARC
  5
2AA
330
1F
100
AcDbEntity
  8
06-ダクト内線
  6
DASHED2
 48
0.2
100
AcDbCircle
 10
-2152.76264616815
 20
-24709.0
 30
0.0
 40
1.9
100
AcDbArc
 50
270.0
 51
0.0
  0
ARC
  5
2AB
330
1F
100
AcDbEntity
  8
06-ダクト内線
  6
DASHED2
 48
0.2
100
AcDbCircle
 10
-2163.76264616815
 20
-24712.40000000001
 30
0.0
 40
1.5
100
AcDbArc
 50
90.0
 51
180.0
  0
LINE
  5
2AC
330
1F
100
AcDbEntity
  8
05-ダクト外線
100
AcDbLine
 10
-2165.26264616815
 20
-24717.5
 30
0.0
 11
-2165.26264616815
 21
-24482.5
 31
0.0
  0
ARC
  5
2AD
330
1F
100
AcDbEntity
  8
05-ダクト外線
100
AcDbCircle
 10
-2163.76264616815
 20
-24712.40000000001
 30
0.0
 40
0.9
100
AcDbArc
 50
90.0
 51
180.0
  0
LINE
  5
2AE
330
1F
100
AcDbEntity
  8
05-ダクト外線
100
AcDbLine
 10
-2164.662646168144
 20
-24487.6
 30
0.0
 11
-2164.662646168144
 21
-24482.5
 31
0.0
  0
TEXT
  5
2AF
330
1F
100
AcDbEntity
  8
03-文字-2
100
AcDbText
 10
-2573.364543914131
 20
-24848.16889337074
 30
0.0
 40
49.955
  1
直管用キャップφ225-0.6t
 41
0.9971071247761646
 72
     1
 11
-2156.255168914131
 21
-24823.19139337074
 31
0.0
100
AcDbText
 73
     2
  0
LINE
  5
2B0
330
1F
100
AcDbEntity
  8
04-ダクトセンター
100
AcDbLine
 10
-2165.26264616815
 20
-25400.0
 30
0.0
 11
-2150.26264616815
 21
-25400.0
 31
0.0
  0
LINE
  5
2B1
330
1F
100
AcDbEntity
  8
05-ダクト外線
100
AcDbLine
 10
-2165.26264616815
 20
-25275.1
 30
0.0
 11
-2165.26264616815
 21
-25270.0
 31
0.0
  0
LINE
  5
2B2
330
1F
100
AcDbEntity
  8
05-ダクト外線
100
AcDbLine
 10
-2150.26264616815
 20
-25521.5
 30
0.0
 11
-2150.26264616815
 21
-25278.5
 31
0.0
  0
LINE
  5
2B3
330
1F
100
AcDbEntity
  8
05-ダクト外線
100
AcDbLine
 10
-2165.26264616815
 20
-25270.0
 30
0.0
 11
-2164.662646168144
 21
-25270.0
 31
0.0
  0
LINE
  5
2B4
330
1F
100
AcDbEntity
  8
05-ダクト外線
100
AcDbLine
 10
-2152.76264616815
 20
-25276.0
 30
0.0
 11
-2163.76264616815
 21
-25276.0
 31
0.0
  0
LINE
  5
2B5
330
1F
100
AcDbEntity
  8
05-ダクト外線
100
AcDbLine
 10
-2152.76264616815
 20
-25524.0
 30
0.0
 11
-2163.76264616815
 21
-25524.0
 31
0.0
  0
LINE
  5
2B6
330
1F
100
AcDbEntity
  8
05-ダクト外線
100
AcDbLine
 10
-2165.26264616815
 20
-25530.0
 30
0.0
 11
-2164.662646168144
 21
-25530.0
 31
0.0
  0
INSERT
  5
2BA
330
1F
100
AcDbEntity
  8
寸法
100
AcDbBlockReference
  2
INS-D782R
 10
-2218.063
 20
-25400.0
 30
0.0
  0
INSERT
  5
2C4
330
1F
100
AcDbEntity
  8
寸法
100
AcDbBlockReference
  2
INS-D78EH
 10
-2157.763
 20
-25231.163
 30
0.0
  0
INSERT
  5
2CC
330
1F
100
AcDbEntity
  8
寸法
100
AcDbBlockReference
  2
INS-D8Z4G
 10
-2107.969
 20
-25400.0
 30
0.0
  0
LINE
  5
2D3
330
1F
100
AcDbEntity
  8
05-ダクト外線
100
AcDbLine
 10
-2164.662646168144
 20
-25530.0
 30
0.0
 11
-2164.662646168144
 21
-25524.90000000001
 31
0.0
  0
LINE
  5
2D4
330
1F
100
AcDbEntity
  8
06-ダクト内線
  6
DASHED2
 48
0.2
100
AcDbLine
 10
-2152.76264616815
 20
-25523.40000000001
 30
0.0
 11
-2163.76264616815
 21
-25523.40000000001
 31
0.0
  0
LINE
  5
2D5
330
1F
100
AcDbEntity
  8
06-ダクト内線
  6
DASHED2
 48
0.2
100
AcDbLine
 10
-2150.862646168127
 20
-25521.5
 30
0.0
 11
-2150.862646168127
 21
-25278.5
 31
0.0
  0
LINE
  5
2D6
330
1F
100
AcDbEntity
  8
06-ダクト内線
  6
DASHED2
 48
0.2
100
AcDbLine
 10
-2152.76264616815
 20
-25276.6
 30
0.0
 11
-2163.76264616815
 21
-25276.6
 31
0.0
  0
ARC
  5
2D7
330
1F
100
AcDbEntity
  8
05-ダクト外線
100
AcDbCircle
 10
-2152.76264616815
 20
-25521.5
 30
0.0
 40
2.5
100
AcDbArc
 50
270.0
 51
0.0
  0
ARC
  5
2D8
330
1F
100
AcDbEntity
  8
05-ダクト外線
100
AcDbCircle
 10
-2152.76264616815
 20
-25278.5
 30
0.0
 40
2.5
100
AcDbArc
 50
0.0
 51
90.0
  0
ARC
  5
2D9
330
1F
100
AcDbEntity
  8
06-ダクト内線
  6
DASHED2
 48
0.2
100
AcDbCircle
 10
-2163.76264616815
 20
-25275.1
 30
0.0
 40
1.5
100
AcDbArc
 50
180.0
 51
270.0
  0
ARC
  5
2DA
330
1F
100
AcDbEntity
  8
05-ダクト外線
100
AcDbCircle
 10
-2163.76264616815
 20
-25275.1
 30
0.0
 40
0.9
100
AcDbArc
 50
180.0
 51
270.0
  0
ARC
  5
2DB
330
1F
100
AcDbEntity
  8
06-ダクト内線
  6
DASHED2
 48
0.2
100
AcDbCircle
 10
-2152.76264616815
 20
-25278.5
 30
0.0
 40
1.9
100
AcDbArc
 50
0.0
 51
90.0
  0
ARC
  5
2DC
330
1F
100
AcDbEntity
  8
06-ダクト内線
  6
DASHED2
 48
0.2
100
AcDbCircle
 10
-2152.76264616815
 20
-25521.5
 30
0.0
 40
1.9
100
AcDbArc
 50
270.0
 51
0.0
  0
ARC
  5
2DD
330
1F
100
AcDbEntity
  8
06-ダクト内線
  6
DASHED2
 48
0.2
100
AcDbCircle
 10
-2163.76264616815
 20
-25524.90000000001
 30
0.0
 40
1.5
100
AcDbArc
 50
90.0
 51
180.0
  0
LINE
  5
2DE
330
1F
100
AcDbEntity
  8
05-ダクト外線
100
AcDbLine
 10
-2165.26264616815
 20
-25530.0
 30
0.0
 11
-2165.26264616815
 21
-25270.0
 31
0.0
  0
ARC
  5
2DF
330
1F
100
AcDbEntity
  8
05-ダクト外線
100
AcDbCircle
 10
-2163.76264616815
 20
-25524.90000000001
 30
0.0
 40
0.9
100
AcDbArc
 50
90.0
 51
180.0
  0
LINE
  5
2E0
330
1F
100
AcDbEntity
  8
05-ダクト外線
100
AcDbLine
 10
-2164.662646168144
 20
-25275.1
 30
0.0
 11
-2164.662646168144
 21
-25270.0
 31
0.0
  0
TEXT
  5
2E1
330
1F
100
AcDbEntity
  8
03-文字-2
100
AcDbText
 10
-2569.059856414271
 20
-25660.66889336939
 30
0.0
 40
49.955
  1
直管用キャップφ250-0.6t
 41
0.9971071247761646
 72
     1
 11
-2156.255168914271
 21
-25635.69139336939
 31
0.0
100
AcDbText
 73
     2
  0
LINE
  5
2E2
330
1F
100
AcDbEntity
  8
04-ダクトセンター
100
AcDbLine
 10
-2165.26264616815
 20
-26200.0
 30
0.0
 11
-2150.26264616815
 21
-26200.0
 31
0.0
  0
LINE
  5
2E3
330
1F
100
AcDbEntity
  8
05-ダクト外線
100
AcDbLine
 10
-2165.26264616815
 20
-26062.6
 30
0.0
 11
-2165.26264616815
 21
-26057.5
 31
0.0
  0
LINE
  5
2E4
330
1F
100
AcDbEntity
  8
05-ダクト外線
100
AcDbLine
 10
-2150.26264616815
 20
-26334.0
 30
0.0
 11
-2150.26264616815
 21
-26066.0
 31
0.0
  0
LINE
  5
2E5
330
1F
100
AcDbEntity
  8
05-ダクト外線
100
AcDbLine
 10
-2165.26264616815
 20
-26057.5
 30
0.0
 11
-2164.662646168144
 21
-26057.5
 31
0.0
  0
LINE
  5
2E6
330
1F
100
AcDbEntity
  8
05-ダクト外線
100
AcDbLine
 10
-2152.76264616815
 20
-26063.5
 30
0.0
 11
-2163.76264616815
 21
-26063.5
 31
0.0
  0
LINE
  5
2E7
330
1F
100
AcDbEntity
  8
05-ダクト外線
100
AcDbLine
 10
-2152.76264616815
 20
-26336.5
 30
0.0
 11
-2163.76264616815
 21
-26336.5
 31
0.0
  0
LINE
  5
2E8
330
1F
100
AcDbEntity
  8
05-ダクト外線
100
AcDbLine
 10
-2165.26264616815
 20
-26342.5
 30
0.0
 11
-2164.662646168144
 21
-26342.5
 31
0.0
  0
INSERT
  5
2EC
330
1F
100
AcDbEntity
  8
寸法
100
AcDbBlockReference
  2
INS-D5MIN
 10
-2218.063
 20
-26200.0
 30
0.0
  0
INSERT
  5
2F6
330
1F
100
AcDbEntity
  8
寸法
100
AcDbBlockReference
  2
INS-DN0TX
 10
-2157.763
 20
-26018.663
 30
0.0
  0
INSERT
  5
2FE
330
1F
100
AcDbEntity
  8
寸法
100
AcDbBlockReference
  2
INS-DD332
 10
-2107.969
 20
-26200.0
 30
0.0
  0
LINE
  5
305
330
1F
100
AcDbEntity
  8
05-ダクト外線
100
AcDbLine
 10
-2164.662646168144
 20
-26342.5
 30
0.0
 11
-2164.662646168144
 21
-26337.40000000001
 31
0.0
  0
LINE
  5
306
330
1F
100
AcDbEntity
  8
06-ダクト内線
  6
DASHED2
 48
0.2
100
AcDbLine
 10
-2152.76264616815
 20
-26335.90000000001
 30
0.0
 11
-2163.76264616815
 21
-26335.90000000001
 31
0.0
  0
LINE
  5
307
330
1F
100
AcDbEntity
  8
06-ダクト内線
  6
DASHED2
 48
0.2
100
AcDbLine
 10
-2150.862646168127
 20
-26334.0
 30
0.0
 11
-2150.862646168127
 21
-26066.0
 31
0.0
  0
LINE
  5
308
330
1F
100
AcDbEntity
  8
06-ダクト内線
  6
DASHED2
 48
0.2
100
AcDbLine
 10
-2152.76264616815
 20
-26064.1
 30
0.0
 11
-2163.76264616815
 21
-26064.1
 31
0.0
  0
ARC
  5
309
330
1F
100
AcDbEntity
  8
05-ダクト外線
100
AcDbCircle
 10
-2152.76264616815
 20
-26334.0
 30
0.0
 40
2.5
100
AcDbArc
 50
270.0
 51
0.0
  0
ARC
  5
30A
330
1F
100
AcDbEntity
  8
05-ダクト外線
100
AcDbCircle
 10
-2152.76264616815
 20
-26066.0
 30
0.0
 40
2.5
100
AcDbArc
 50
0.0
 51
90.0
  0
ARC
  5
30B
330
1F
100
AcDbEntity
  8
06-ダクト内線
  6
DASHED2
 48
0.2
100
AcDbCircle
 10
-2163.76264616815
 20
-26062.6
 30
0.0
 40
1.5
100
AcDbArc
 50
180.0
 51
270.0
  0
ARC
  5
30C
330
1F
100
AcDbEntity
  8
05-ダクト外線
100
AcDbCircle
 10
-2163.76264616815
 20
-26062.6
 30
0.0
 40
0.9
100
AcDbArc
 50
180.0
 51
270.0
  0
ARC
  5
30D
330
1F
100
AcDbEntity
  8
06-ダクト内線
  6
DASHED2
 48
0.2
100
AcDbCircle
 10
-2152.76264616815
 20
-26066.0
 30
0.0
 40
1.9
100
AcDbArc
 50
0.0
 51
90.0
  0
ARC
  5
30E
330
1F
100
AcDbEntity
  8
06-ダクト内線
  6
DASHED2
 48
0.2
100
AcDbCircle
 10
-2152.76264616815
 20
-26334.0
 30
0.0
 40
1.9
100
AcDbArc
 50
270.0
 51
0.0
  0
ARC
  5
30F
330
1F
100
AcDbEntity
  8
06-ダクト内線
  6
DASHED2
 48
0.2
100
AcDbCircle
 10
-2163.76264616815
 20
-26337.40000000001
 30
0.0
 40
1.5
100
AcDbArc
 50
90.0
 51
180.0
  0
LINE
  5
310
330
1F
100
AcDbEntity
  8
05-ダクト外線
100
AcDbLine
 10
-2165.26264616815
 20
-26342.5
 30
0.0
 11
-2165.26264616815
 21
-26057.5
 31
0.0
  0
ARC
  5
311
330
1F
100
AcDbEntity
  8
05-ダクト外線
100
AcDbCircle
 10
-2163.76264616815
 20
-26337.40000000001
 30
0.0
 40
0.9
100
AcDbArc
 50
90.0
 51
180.0
  0
LINE
  5
312
330
1F
100
AcDbEntity
  8
05-ダクト外線
100
AcDbLine
 10
-2164.662646168144
 20
-26062.6
 30
0.0
 11
-2164.662646168144
 21
-26057.5
 31
0.0
  0
TEXT
  5
313
330
1F
100
AcDbEntity
  8
03-文字-2
100
AcDbText
 10
-2573.364543913989
 20
-26473.16889336968
 30
0.0
 40
49.955
  1
直管用キャップφ275-0.6t
 41
0.9971071247761646
 72
     1
 11
-2156.255168913989
 21
-26448.19139336968
 31
0.0
100
AcDbText
 73
     2
  0
LINE
  5
314
330
1F
100
AcDbEntity
  8
04-ダクトセンター
100
AcDbLine
 10
-2165.26264616815
 20
-27100.0
 30
0.0
 11
-2150.26264616815
 21
-27100.0
 31
0.0
  0
LINE
  5
315
330
1F
100
AcDbEntity
  8
05-ダクト外線
100
AcDbLine
 10
-2165.26264616815
 20
-26950.1
 30
0.0
 11
-2165.26264616815
 21
-26945.0
 31
0.0
  0
LINE
  5
316
330
1F
100
AcDbEntity
  8
05-ダクト外線
100
AcDbLine
 10
-2150.26264616815
 20
-27246.5
 30
0.0
 11
-2150.26264616815
 21
-26953.5
 31
0.0
  0
LINE
  5
317
330
1F
100
AcDbEntity
  8
05-ダクト外線
100
AcDbLine
 10
-2165.26264616815
 20
-26945.0
 30
0.0
 11
-2164.662646168144
 21
-26945.0
 31
0.0
  0
LINE
  5
318
330
1F
100
AcDbEntity
  8
05-ダクト外線
100
AcDbLine
 10
-2152.76264616815
 20
-26951.0
 30
0.0
 11
-2163.76264616815
 21
-26951.0
 31
0.0
  0
LINE
  5
319
330
1F
100
AcDbEntity
  8
05-ダクト外線
100
AcDbLine
 10
-2152.76264616815
 20
-27249.0
 30
0.0
 11
-2163.76264616815
 21
-27249.0
 31
0.0
  0
LINE
  5
31A
330
1F
100
AcDbEntity
  8
05-ダクト外線
100
AcDbLine
 10
-2165.26264616815
 20
-27255.0
 30
0.0
 11
-2164.662646168144
 21
-27255.0
 31
0.0
  0
INSERT
  5
31E
330
1F
100
AcDbEntity
  8
寸法
100
AcDbBlockReference
  2
INS-D6X42
 10
-2218.063
 20
-27100.0
 30
0.0
  0
INSERT
  5
328
330
1F
100
AcDbEntity
  8
寸法
100
AcDbBlockReference
  2
INS-D8EDS
 10
-2157.763
 20
-26906.163
 30
0.0
  0
INSERT
  5
330
330
1F
100
AcDbEntity
  8
寸法
100
AcDbBlockReference
  2
INS-D6M1J
 10
-2107.969
 20
-27100.0
 30
0.0
  0
LINE
  5
337
330
1F
100
AcDbEntity
  8
05-ダクト外線
100
AcDbLine
 10
-2164.662646168144
 20
-27255.0
 30
0.0
 11
-2164.662646168144
 21
-27249.90000000001
 31
0.0
  0
LINE
  5
338
330
1F
100
AcDbEntity
  8
06-ダクト内線
  6
DASHED2
 48
0.2
100
AcDbLine
 10
-2152.76264616815
 20
-27248.40000000001
 30
0.0
 11
-2163.76264616815
 21
-27248.40000000001
 31
0.0
  0
LINE
  5
339
330
1F
100
AcDbEntity
  8
06-ダクト内線
  6
DASHED2
 48
0.2
100
AcDbLine
 10
-2150.862646168127
 20
-27246.5
 30
0.0
 11
-2150.862646168127
 21
-26953.5
 31
0.0
  0
LINE
  5
33A
330
1F
100
AcDbEntity
  8
06-ダクト内線
  6
DASHED2
 48
0.2
100
AcDbLine
 10
-2152.76264616815
 20
-26951.6
 30
0.0
 11
-2163.76264616815
 21
-26951.6
 31
0.0
  0
ARC
  5
33B
330
1F
100
AcDbEntity
  8
05-ダクト外線
100
AcDbCircle
 10
-2152.76264616815
 20
-27246.5
 30
0.0
 40
2.5
100
AcDbArc
 50
270.0
 51
0.0
  0
ARC
  5
33C
330
1F
100
AcDbEntity
  8
05-ダクト外線
100
AcDbCircle
 10
-2152.76264616815
 20
-26953.5
 30
0.0
 40
2.5
100
AcDbArc
 50
0.0
 51
90.0
  0
ARC
  5
33D
330
1F
100
AcDbEntity
  8
06-ダクト内線
  6
DASHED2
 48
0.2
100
AcDbCircle
 10
-2163.76264616815
 20
-26950.1
 30
0.0
 40
1.5
100
AcDbArc
 50
180.0
 51
270.0
  0
ARC
  5
33E
330
1F
100
AcDbEntity
  8
05-ダクト外線
100
AcDbCircle
 10
-2163.76264616815
 20
-26950.1
 30
0.0
 40
0.9
100
AcDbArc
 50
180.0
 51
270.0
  0
ARC
  5
33F
330
1F
100
AcDbEntity
  8
06-ダクト内線
  6
DASHED2
 48
0.2
100
AcDbCircle
 10
-2152.76264616815
 20
-26953.5
 30
0.0
 40
1.9
100
AcDbArc
 50
0.0
 51
90.0
  0
ARC
  5
340
330
1F
100
AcDbEntity
  8
06-ダクト内線
  6
DASHED2
 48
0.2
100
AcDbCircle
 10
-2152.76264616815
 20
-27246.5
 30
0.0
 40
1.9
100
AcDbArc
 50
270.0
 51
0.0
  0
ARC
  5
341
330
1F
100
AcDbEntity
  8
06-ダクト内線
  6
DASHED2
 48
0.2
100
AcDbCircle
 10
-2163.76264616815
 20
-27249.90000000001
 30
0.0
 40
1.5
100
AcDbArc
 50
90.0
 51
180.0
  0
LINE
  5
342
330
1F
100
AcDbEntity
  8
05-ダクト外線
100
AcDbLine
 10
-2165.26264616815
 20
-27255.0
 30
0.0
 11
-2165.26264616815
 21
-26945.0
 31
0.0
  0
ARC
  5
343
330
1F
100
AcDbEntity
  8
05-ダクト外線
100
AcDbCircle
 10
-2163.76264616815
 20
-27249.90000000001
 30
0.0
 40
0.9
100
AcDbArc
 50
90.0
 51
180.0
  0
LINE
  5
344
330
1F
100
AcDbEntity
  8
05-ダクト外線
100
AcDbLine
 10
-2164.662646168144
 20
-26950.1
 30
0.0
 11
-2164.662646168144
 21
-26945.0
 31
0.0
  0
TEXT
  5
345
330
1F
100
AcDbEntity
  8
03-文字-2
100
AcDbText
 10
-2564.755168914187
 20
-27385.66889337002
 30
0.0
 40
49.955
  1
直管用キャップφ300-0.6t
 41
0.9971071247761646
 72
     1
 11
-2156.255168914187
 21
-27360.69139337002
 31
0.0
100
AcDbText
 73
     2
  0
TEXT
  5
346
330
1F
100
AcDbEntity
  8
03-文字-2
100
AcDbText
 10
-2573.364543914179
 20
-28398.16889336703
 30
0.0
 40
49.955
  1
直管用キャップφ325-0.8t
 41
0.9971071247761646
 72
     1
 11
-2156.255168914179
 21
-28373.19139336703
 31
0.0
100
AcDbText
 73
     2
  0
LINE
  5
347
330
1F
100
AcDbEntity
  8
04-ダクトセンター
100
AcDbLine
 10
-2163.755168914038
 20
-28100.0
 30
0.0
 11
-2148.755168914038
 21
-28100.0
 31
0.0
  0
LINE
  5
348
330
1F
100
AcDbEntity
  8
05-ダクト外線
100
AcDbLine
 10
-2163.755168914038
 20
-27937.6
 30
0.0
 11
-2163.755168914038
 21
-27932.5
 31
0.0
  0
LINE
  5
349
330
1F
100
AcDbEntity
  8
05-ダクト外線
100
AcDbLine
 10
-2148.755168914038
 20
-28259.0
 30
0.0
 11
-2148.755168914038
 21
-27941.0
 31
0.0
  0
LINE
  5
34A
330
1F
100
AcDbEntity
  8
05-ダクト外線
100
AcDbLine
 10
-2163.755168914038
 20
-27932.5
 30
0.0
 11
-2162.955168914021
 21
-27932.5
 31
0.0
  0
LINE
  5
34B
330
1F
100
AcDbEntity
  8
05-ダクト外線
100
AcDbLine
 10
-2151.255168914038
 20
-27938.5
 30
0.0
 11
-2161.455168914021
 21
-27938.5
 31
0.0
  0
LINE
  5
34C
330
1F
100
AcDbEntity
  8
05-ダクト外線
100
AcDbLine
 10
-2151.255168914038
 20
-28261.5
 30
0.0
 11
-2161.455168914021
 21
-28261.5
 31
0.0
  0
LINE
  5
34D
330
1F
100
AcDbEntity
  8
05-ダクト外線
100
AcDbLine
 10
-2163.755168914038
 20
-28267.5
 30
0.0
 11
-2162.955168914021
 21
-28267.5
 31
0.0
  0
INSERT
  5
351
330
1F
100
AcDbEntity
  8
寸法
100
AcDbBlockReference
  2
INS-D4J01
 10
-2216.556
 20
-28100.0
 30
0.0
  0
INSERT
  5
35B
330
1F
100
AcDbEntity
  8
寸法
100
AcDbBlockReference
  2
INS-D6Q23
 10
-2156.256
 20
-27893.663
 30
0.0
  0
INSERT
  5
363
330
1F
100
AcDbEntity
  8
寸法
100
AcDbBlockReference
  2
INS-DM1R4
 10
-2106.4615
 20
-28100.0
 30
0.0
  0
LINE
  5
36A
330
1F
100
AcDbEntity
  8
05-ダクト外線
100
AcDbLine
 10
-2163.755168914038
 20
-28267.5
 30
0.0
 11
-2163.755168914038
 21
-27932.5
 31
0.0
  0
LINE
  5
36B
330
1F
100
AcDbEntity
  8
05-ダクト外線
100
AcDbLine
 10
-2162.955168914021
 20
-28267.5
 30
0.0
 11
-2162.955168914021
 21
-28263.0
 31
0.0
  0
LINE
  5
36C
330
1F
100
AcDbEntity
  8
06-ダクト内線
  6
DASHED2
 62
    20
 48
0.2
100
AcDbLine
 10
-2151.255168914038
 20
-28260.7
 30
0.0
 11
-2161.455168914021
 21
-28260.7
 31
0.0
  0
LINE
  5
36D
330
1F
100
AcDbEntity
  8
06-ダクト内線
  6
DASHED2
 62
    20
 48
0.2
100
AcDbLine
 10
-2149.555168914056
 20
-28259.0
 30
0.0
 11
-2149.555168914056
 21
-27941.0
 31
0.0
  0
LINE
  5
36E
330
1F
100
AcDbEntity
  8
06-ダクト内線
  6
DASHED2
 62
    20
 48
0.2
100
AcDbLine
 10
-2151.255168914038
 20
-27939.3
 30
0.0
 11
-2161.455168914021
 21
-27939.3
 31
0.0
  0
ARC
  5
36F
330
1F
100
AcDbEntity
  8
05-ダクト外線
100
AcDbCircle
 10
-2161.455168914021
 20
-28263.0
 30
0.0
 40
1.5
100
AcDbArc
 50
90.0
 51
180.0
  0
ARC
  5
370
330
1F
100
AcDbEntity
  8
06-ダクト内線
  6
DASHED2
 62
    20
 48
0.2
100
AcDbCircle
 10
-2161.455168914021
 20
-28263.0
 30
0.0
 40
2.3
100
AcDbArc
 50
90.0
 51
180.0
  0
ARC
  5
371
330
1F
100
AcDbEntity
  8
05-ダクト外線
100
AcDbCircle
 10
-2161.455168914021
 20
-27937.0
 30
0.0
 40
1.5
100
AcDbArc
 50
180.0
 51
270.0
  0
ARC
  5
372
330
1F
100
AcDbEntity
  8
06-ダクト内線
  6
DASHED2
 62
    20
 48
0.2
100
AcDbCircle
 10
-2161.455168914021
 20
-27937.0
 30
0.0
 40
2.3
100
AcDbArc
 50
180.0
 51
270.0
  0
LINE
  5
373
330
1F
100
AcDbEntity
  8
05-ダクト外線
100
AcDbLine
 10
-2162.955168914021
 20
-27937.0
 30
0.0
 11
-2162.955168914021
 21
-27932.5
 31
0.0
  0
ARC
  5
374
330
1F
100
AcDbEntity
  8
05-ダクト外線
100
AcDbCircle
 10
-2151.255168914038
 20
-27941.0
 30
0.0
 40
2.5
100
AcDbArc
 50
0.0
 51
90.0
  0
ARC
  5
375
330
1F
100
AcDbEntity
  8
05-ダクト外線
100
AcDbCircle
 10
-2151.255168914038
 20
-28259.0
 30
0.0
 40
2.5
100
AcDbArc
 50
270.0
 51
0.0
  0
ARC
  5
376
330
1F
100
AcDbEntity
  8
06-ダクト内線
  6
DASHED2
 62
    20
 48
0.2
100
AcDbCircle
 10
-2151.255168914038
 20
-28259.0
 30
0.0
 40
1.7
100
AcDbArc
 50
270.0
 51
0.0
  0
ARC
  5
377
330
1F
100
AcDbEntity
  8
06-ダクト内線
  6
DASHED2
 62
    20
 48
0.2
100
AcDbCircle
 10
-2151.255168914038
 20
-27941.0
 30
0.0
 40
1.7
100
AcDbArc
 50
0.0
 51
90.0
  0
TEXT
  5
378
330
1F
100
AcDbEntity
  8
03-文字-2
100
AcDbText
 10
-2569.05985641395
 20
-29410.66889337235
 30
0.0
 40
49.955
  1
直管用キャップφ350-0.8t
 41
0.9971071247761646
 72
     1
 11
-2156.25516891395
 21
-29385.69139337235
 31
0.0
100
AcDbText
 73
     2
  0
LINE
  5
379
330
1F
100
AcDbEntity
  8
04-ダクトセンター
100
AcDbLine
 10
-2163.755168914038
 20
-29100.00000000001
 30
0.0
 11
-2148.755168914038
 21
-29100.00000000001
 31
0.0
  0
LINE
  5
37A
330
1F
100
AcDbEntity
  8
05-ダクト外線
100
AcDbLine
 10
-2163.755168914038
 20
-28925.10000000001
 30
0.0
 11
-2163.755168914038
 21
-28920.00000000001
 31
0.0
  0
LINE
  5
37B
330
1F
100
AcDbEntity
  8
05-ダクト外線
100
AcDbLine
 10
-2148.755168914038
 20
-29271.50000000001
 30
0.0
 11
-2148.755168914038
 21
-28928.50000000001
 31
0.0
  0
LINE
  5
37C
330
1F
100
AcDbEntity
  8
05-ダクト外線
100
AcDbLine
 10
-2163.755168914038
 20
-28920.00000000001
 30
0.0
 11
-2162.955168914021
 21
-28920.00000000001
 31
0.0
  0
LINE
  5
37D
330
1F
100
AcDbEntity
  8
05-ダクト外線
100
AcDbLine
 10
-2151.255168914038
 20
-28926.00000000001
 30
0.0
 11
-2161.455168914021
 21
-28926.00000000001
 31
0.0
  0
LINE
  5
37E
330
1F
100
AcDbEntity
  8
05-ダクト外線
100
AcDbLine
 10
-2151.255168914038
 20
-29274.00000000001
 30
0.0
 11
-2161.455168914021
 21
-29274.00000000001
 31
0.0
  0
LINE
  5
37F
330
1F
100
AcDbEntity
  8
05-ダクト外線
100
AcDbLine
 10
-2163.755168914038
 20
-29280.00000000001
 30
0.0
 11
-2162.955168914021
 21
-29280.00000000001
 31
0.0
  0
INSERT
  5
383
330
1F
100
AcDbEntity
  8
寸法
100
AcDbBlockReference
  2
INS-D4684
 10
-2216.556
 20
-29100.0
 30
0.0
  0
INSERT
  5
38D
330
1F
100
AcDbEntity
  8
寸法
100
AcDbBlockReference
  2
INS-D7RI8
 10
-2156.256
 20
-28881.163
 30
0.0
  0
INSERT
  5
395
330
1F
100
AcDbEntity
  8
寸法
100
AcDbBlockReference
  2
INS-D8DEV
 10
-2106.4615
 20
-29100.0
 30
0.0
  0
LINE
  5
39C
330
1F
100
AcDbEntity
  8
05-ダクト外線
100
AcDbLine
 10
-2163.755168914038
 20
-29280.00000000001
 30
0.0
 11
-2163.755168914038
 21
-28920.00000000001
 31
0.0
  0
LINE
  5
39D
330
1F
100
AcDbEntity
  8
05-ダクト外線
100
AcDbLine
 10
-2162.955168914021
 20
-29280.00000000001
 30
0.0
 11
-2162.955168914021
 21
-29275.50000000001
 31
0.0
  0
LINE
  5
39E
330
1F
100
AcDbEntity
  8
06-ダクト内線
  6
DASHED2
 62
    20
 48
0.2
100
AcDbLine
 10
-2151.255168914038
 20
-29273.20000000001
 30
0.0
 11
-2161.455168914021
 21
-29273.20000000001
 31
0.0
  0
LINE
  5
39F
330
1F
100
AcDbEntity
  8
06-ダクト内線
  6
DASHED2
 62
    20
 48
0.2
100
AcDbLine
 10
-2149.555168914056
 20
-29271.50000000001
 30
0.0
 11
-2149.555168914056
 21
-28928.50000000001
 31
0.0
  0
LINE
  5
3A0
330
1F
100
AcDbEntity
  8
06-ダクト内線
  6
DASHED2
 62
    20
 48
0.2
100
AcDbLine
 10
-2151.255168914038
 20
-28926.80000000001
 30
0.0
 11
-2161.455168914021
 21
-28926.80000000001
 31
0.0
  0
ARC
  5
3A1
330
1F
100
AcDbEntity
  8
05-ダクト外線
100
AcDbCircle
 10
-2161.455168914021
 20
-29275.50000000001
 30
0.0
 40
1.5
100
AcDbArc
 50
90.0
 51
180.0
  0
ARC
  5
3A2
330
1F
100
AcDbEntity
  8
06-ダクト内線
  6
DASHED2
 62
    20
 48
0.2
100
AcDbCircle
 10
-2161.455168914021
 20
-29275.50000000001
 30
0.0
 40
2.3
100
AcDbArc
 50
90.0
 51
180.0
  0
ARC
  5
3A3
330
1F
100
AcDbEntity
  8
05-ダクト外線
100
AcDbCircle
 10
-2161.455168914021
 20
-28924.50000000001
 30
0.0
 40
1.5
100
AcDbArc
 50
180.0
 51
270.0
  0
ARC
  5
3A4
330
1F
100
AcDbEntity
  8
06-ダクト内線
  6
DASHED2
 62
    20
 48
0.2
100
AcDbCircle
 10
-2161.455168914021
 20
-28924.50000000001
 30
0.0
 40
2.3
100
AcDbArc
 50
180.0
 51
270.0
  0
LINE
  5
3A5
330
1F
100
AcDbEntity
  8
05-ダクト外線
100
AcDbLine
 10
-2162.955168914021
 20
-28924.50000000001
 30
0.0
 11
-2162.955168914021
 21
-28920.00000000001
 31
0.0
  0
ARC
  5
3A6
330
1F
100
AcDbEntity
  8
05-ダクト外線
100
AcDbCircle
 10
-2151.255168914038
 20
-28928.50000000001
 30
0.0
 40
2.5
100
AcDbArc
 50
0.0
 51
90.0
  0
ARC
  5
3A7
330
1F
100
AcDbEntity
  8
05-ダクト外線
100
AcDbCircle
 10
-2151.255168914038
 20
-29271.50000000001
 30
0.0
 40
2.5
100
AcDbArc
 50
270.0
 51
0.0
  0
ARC
  5
3A8
330
1F
100
AcDbEntity
  8
06-ダクト内線
  6
DASHED2
 62
    20
 48
0.2
100
AcDbCircle
 10
-2151.255168914038
 20
-29271.50000000001
 30
0.0
 40
1.7
100
AcDbArc
 50
270.0
 51
0.0
  0
ARC
  5
3A9
330
1F
100
AcDbEntity
  8
06-ダクト内線
  6
DASHED2
 62
    20
 48
0.2
100
AcDbCircle
 10
-2151.255168914038
 20
-28928.50000000001
 30
0.0
 40
1.7
100
AcDbArc
 50
0.0
 51
90.0
  0
TEXT
  5
3AA
330
1F
100
AcDbEntity
  8
03-文字-2
100
AcDbText
 10
-2573.36454391427
 20
-30423.16889337311
 30
0.0
 40
49.955
  1
直管用キャップφ375-0.8t
 41
0.9971071247761646
 72
     1
 11
-2156.25516891427
 21
-30398.19139337311
 31
0.0
100
AcDbText
 73
     2
  0
LINE
  5
3AB
330
1F
100
AcDbEntity
  8
04-ダクトセンター
100
AcDbLine
 10
-2163.755168914038
 20
-30100.0
 30
0.0
 11
-2148.755168914038
 21
-30100.0
 31
0.0
  0
LINE
  5
3AC
330
1F
100
AcDbEntity
  8
05-ダクト外線
100
AcDbLine
 10
-2163.755168914038
 20
-29912.6
 30
0.0
 11
-2163.755168914038
 21
-29907.5
 31
0.0
  0
LINE
  5
3AD
330
1F
100
AcDbEntity
  8
05-ダクト外線
100
AcDbLine
 10
-2148.755168914038
 20
-30284.0
 30
0.0
 11
-2148.755168914038
 21
-29916.0
 31
0.0
  0
LINE
  5
3AE
330
1F
100
AcDbEntity
  8
05-ダクト外線
100
AcDbLine
 10
-2163.755168914038
 20
-29907.5
 30
0.0
 11
-2162.955168914021
 21
-29907.5
 31
0.0
  0
LINE
  5
3AF
330
1F
100
AcDbEntity
  8
05-ダクト外線
100
AcDbLine
 10
-2151.255168914038
 20
-29913.5
 30
0.0
 11
-2161.455168914021
 21
-29913.5
 31
0.0
  0
LINE
  5
3B0
330
1F
100
AcDbEntity
  8
05-ダクト外線
100
AcDbLine
 10
-2151.255168914038
 20
-30286.5
 30
0.0
 11
-2161.455168914021
 21
-30286.5
 31
0.0
  0
LINE
  5
3B1
330
1F
100
AcDbEntity
  8
05-ダクト外線
100
AcDbLine
 10
-2163.755168914038
 20
-30292.5
 30
0.0
 11
-2162.955168914021
 21
-30292.5
 31
0.0
  0
INSERT
  5
3B5
330
1F
100
AcDbEntity
  8
寸法
100
AcDbBlockReference
  2
INS-D50FL
 10
-2216.556
 20
-30100.0
 30
0.0
  0
INSERT
  5
3BF
330
1F
100
AcDbEntity
  8
寸法
100
AcDbBlockReference
  2
INS-D3W0V
 10
-2156.256
 20
-29868.663
 30
0.0
  0
INSERT
  5
3C7
330
1F
100
AcDbEntity
  8
寸法
100
AcDbBlockReference
  2
INS-D3M2B
 10
-2106.4615
 20
-30100.0
 30
0.0
  0
LINE
  5
3CE
330
1F
100
AcDbEntity
  8
05-ダクト外線
100
AcDbLine
 10
-2163.755168914038
 20
-30292.5
 30
0.0
 11
-2163.755168914038
 21
-29907.5
 31
0.0
  0
LINE
  5
3CF
330
1F
100
AcDbEntity
  8
05-ダクト外線
100
AcDbLine
 10
-2162.955168914021
 20
-30292.5
 30
0.0
 11
-2162.955168914021
 21
-30288.0
 31
0.0
  0
LINE
  5
3D0
330
1F
100
AcDbEntity
  8
06-ダクト内線
  6
DASHED2
 62
    20
 48
0.2
100
AcDbLine
 10
-2151.255168914038
 20
-30285.7
 30
0.0
 11
-2161.455168914021
 21
-30285.7
 31
0.0
  0
LINE
  5
3D1
330
1F
100
AcDbEntity
  8
06-ダクト内線
  6
DASHED2
 62
    20
 48
0.2
100
AcDbLine
 10
-2149.555168914056
 20
-30284.0
 30
0.0
 11
-2149.555168914056
 21
-29916.0
 31
0.0
  0
LINE
  5
3D2
330
1F
100
AcDbEntity
  8
06-ダクト内線
  6
DASHED2
 62
    20
 48
0.2
100
AcDbLine
 10
-2151.255168914038
 20
-29914.3
 30
0.0
 11
-2161.455168914021
 21
-29914.3
 31
0.0
  0
ARC
  5
3D3
330
1F
100
AcDbEntity
  8
05-ダクト外線
100
AcDbCircle
 10
-2161.455168914021
 20
-30288.0
 30
0.0
 40
1.5
100
AcDbArc
 50
90.0
 51
180.0
  0
ARC
  5
3D4
330
1F
100
AcDbEntity
  8
06-ダクト内線
  6
DASHED2
 62
    20
 48
0.2
100
AcDbCircle
 10
-2161.455168914021
 20
-30288.0
 30
0.0
 40
2.3
100
AcDbArc
 50
90.0
 51
180.0
  0
ARC
  5
3D5
330
1F
100
AcDbEntity
  8
05-ダクト外線
100
AcDbCircle
 10
-2161.455168914021
 20
-29912.0
 30
0.0
 40
1.5
100
AcDbArc
 50
180.0
 51
270.0
  0
ARC
  5
3D6
330
1F
100
AcDbEntity
  8
06-ダクト内線
  6
DASHED2
 62
    20
 48
0.2
100
AcDbCircle
 10
-2161.455168914021
 20
-29912.0
 30
0.0
 40
2.3
100
AcDbArc
 50
180.0
 51
270.0
  0
LINE
  5
3D7
330
1F
100
AcDbEntity
  8
05-ダクト外線
100
AcDbLine
 10
-2162.955168914021
 20
-29912.0
 30
0.0
 11
-2162.955168914021
 21
-29907.5
 31
0.0
  0
ARC
  5
3D8
330
1F
100
AcDbEntity
  8
05-ダクト外線
100
AcDbCircle
 10
-2151.255168914038
 20
-29916.0
 30
0.0
 40
2.5
100
AcDbArc
 50
0.0
 51
90.0
  0
ARC
  5
3D9
330
1F
100
AcDbEntity
  8
05-ダクト外線
100
AcDbCircle
 10
-2151.255168914038
 20
-30284.0
 30
0.0
 40
2.5
100
AcDbArc
 50
270.0
 51
0.0
  0
ARC
  5
3DA
330
1F
100
AcDbEntity
  8
06-ダクト内線
  6
DASHED2
 62
    20
 48
0.2
100
AcDbCircle
 10
-2151.255168914038
 20
-30284.0
 30
0.0
 40
1.7
100
AcDbArc
 50
270.0
 51
0.0
  0
ARC
  5
3DB
330
1F
100
AcDbEntity
  8
06-ダクト内線
  6
DASHED2
 62
    20
 48
0.2
100
AcDbCircle
 10
-2151.255168914038
 20
-29916.0
 30
0.0
 40
1.7
100
AcDbArc
 50
0.0
 51
90.0
  0
LINE
  5
3DC
330
1F
100
AcDbEntity
  8
04-ダクトセンター
100
AcDbLine
 10
-178.7551689140382
 20
-20600.0
 30
0.0
 11
-133.7551689140382
 21
-20600.0
 31
0.0
  0
LINE
  5
3DD
330
1F
100
AcDbEntity
  8
05-ダクト外線
100
AcDbLine
 10
-133.7551689140382
 20
-20648.1
 30
0.0
 11
-133.7551689140382
 21
-20551.90000000001
 31
0.0
  0
LINE
  5
3DE
330
1F
100
AcDbEntity
  8
05-ダクト外線
100
AcDbLine
 10
-136.2551689140382
 20
-20549.40000000001
 30
0.0
 11
-178.7551689140382
 21
-20549.40000000001
 31
0.0
  0
LINE
  5
3DF
330
1F
100
AcDbEntity
  8
05-ダクト外線
100
AcDbLine
 10
-136.2551689140382
 20
-20650.6
 30
0.0
 11
-178.7551689140382
 21
-20650.6
 31
0.0
  0
INSERT
  5
3E3
330
1F
100
AcDbEntity
  8
寸法
100
AcDbBlockReference
  2
INS-D55T4
 10
-231.556
 20
-20600.0
 30
0.0
  0
INSERT
  5
3ED
330
1F
100
AcDbEntity
  8
寸法
100
AcDbBlockReference
  2
INS-DZ10E
 10
-156.256
 20
-20505.22
 30
0.0
  0
LINE
  5
3F4
330
1F
100
AcDbEntity
  8
06-ダクト内線
  6
DASHED2
 48
0.2
100
AcDbLine
 10
-136.2551689140382
 20
-20650.0
 30
0.0
 11
-178.7551689140382
 21
-20650.0
 31
0.0
  0
LINE
  5
3F5
330
1F
100
AcDbEntity
  8
06-ダクト内線
  6
DASHED2
 48
0.2
100
AcDbLine
 10
-134.355168914044
 20
-20648.1
 30
0.0
 11
-134.355168914044
 21
-20551.90000000001
 31
0.0
  0
LINE
  5
3F6
330
1F
100
AcDbEntity
  8
06-ダクト内線
  6
DASHED2
 48
0.2
100
AcDbLine
 10
-136.2551689140382
 20
-20550.0
 30
0.0
 11
-178.7551689140382
 21
-20550.0
 31
0.0
  0
ARC
  5
3F7
330
1F
100
AcDbEntity
  8
05-ダクト外線
100
AcDbCircle
 10
-136.2551689140382
 20
-20648.1
 30
0.0
 40
2.5
100
AcDbArc
 50
270.0
 51
0.0
  0
ARC
  5
3F8
330
1F
100
AcDbEntity
  8
05-ダクト外線
100
AcDbCircle
 10
-136.2551689140382
 20
-20551.90000000001
 30
0.0
 40
2.5
100
AcDbArc
 50
0.0
 51
90.0
  0
ARC
  5
3F9
330
1F
100
AcDbEntity
  8
06-ダクト内線
  6
DASHED2
 48
0.2
100
AcDbCircle
 10
-136.2551689140382
 20
-20551.90000000001
 30
0.0
 40
1.9
100
AcDbArc
 50
0.0
 51
90.0
  0
ARC
  5
3FA
330
1F
100
AcDbEntity
  8
06-ダクト内線
  6
DASHED2
 48
0.2
100
AcDbCircle
 10
-136.2551689140382
 20
-20648.1
 30
0.0
 40
1.9
100
AcDbArc
 50
270.0
 51
0.0
  0
LINE
  5
3FB
330
1F
100
AcDbEntity
  8
05-ダクト外線
100
AcDbLine
 10
-178.7551689140382
 20
-20650.6
 30
0.0
 11
-178.7551689140382
 21
-20549.40000000001
 31
0.0
  0
TEXT
  5
3FC
330
1F
100
AcDbEntity
  8
03-文字-2
100
AcDbText
 10
-554.93519165989
 20
-20785.66889336939
 30
0.0
 40
49.955
  1
継手用キャップφ100-0.6t
 41
0.9971071247761646
 72
     1
 11
-154.7476916598901
 21
-20760.69139336939
 31
0.0
100
AcDbText
 73
     2
  0
LINE
  5
3FD
330
1F
100
AcDbEntity
  8
04-ダクトセンター
100
AcDbLine
 10
-178.7551689140382
 20
-21400.0
 30
0.0
 11
-133.7551689140382
 21
-21400.0
 31
0.0
  0
LINE
  5
3FE
330
1F
100
AcDbEntity
  8
05-ダクト外線
100
AcDbLine
 10
-133.7551689140382
 20
-21460.6
 30
0.0
 11
-133.7551689140382
 21
-21339.40000000001
 31
0.0
  0
LINE
  5
3FF
330
1F
100
AcDbEntity
  8
05-ダクト外線
100
AcDbLine
 10
-136.2551689140382
 20
-21336.90000000001
 30
0.0
 11
-178.7551689140382
 21
-21336.90000000001
 31
0.0
  0
LINE
  5
400
330
1F
100
AcDbEntity
  8
05-ダクト外線
100
AcDbLine
 10
-136.2551689140382
 20
-21463.1
 30
0.0
 11
-178.7551689140382
 21
-21463.1
 31
0.0
  0
INSERT
  5
404
330
1F
100
AcDbEntity
  8
寸法
100
AcDbBlockReference
  2
INS-D7CD4
 10
-231.556
 20
-21400.0
 30
0.0
  0
INSERT
  5
40E
330
1F
100
AcDbEntity
  8
寸法
100
AcDbBlockReference
  2
INS-D8QXC
 10
-156.256
 20
-21292.72
 30
0.0
  0
LINE
  5
415
330
1F
100
AcDbEntity
  8
06-ダクト内線
  6
DASHED2
 48
0.2
100
AcDbLine
 10
-136.2551689140382
 20
-21462.5
 30
0.0
 11
-178.7551689140382
 21
-21462.5
 31
0.0
  0
LINE
  5
416
330
1F
100
AcDbEntity
  8
06-ダクト内線
  6
DASHED2
 48
0.2
100
AcDbLine
 10
-134.355168914044
 20
-21460.6
 30
0.0
 11
-134.355168914044
 21
-21339.40000000001
 31
0.0
  0
LINE
  5
417
330
1F
100
AcDbEntity
  8
06-ダクト内線
  6
DASHED2
 48
0.2
100
AcDbLine
 10
-136.2551689140382
 20
-21337.5
 30
0.0
 11
-178.7551689140382
 21
-21337.5
 31
0.0
  0
ARC
  5
418
330
1F
100
AcDbEntity
  8
05-ダクト外線
100
AcDbCircle
 10
-136.2551689140382
 20
-21460.6
 30
0.0
 40
2.5
100
AcDbArc
 50
270.0
 51
0.0
  0
ARC
  5
419
330
1F
100
AcDbEntity
  8
05-ダクト外線
100
AcDbCircle
 10
-136.2551689140382
 20
-21339.40000000001
 30
0.0
 40
2.5
100
AcDbArc
 50
0.0
 51
90.0
  0
ARC
  5
41A
330
1F
100
AcDbEntity
  8
06-ダクト内線
  6
DASHED2
 48
0.2
100
AcDbCircle
 10
-136.2551689140382
 20
-21339.40000000001
 30
0.0
 40
1.9
100
AcDbArc
 50
0.0
 51
90.0
  0
ARC
  5
41B
330
1F
100
AcDbEntity
  8
06-ダクト内線
  6
DASHED2
 48
0.2
100
AcDbCircle
 10
-136.2551689140382
 20
-21460.6
 30
0.0
 40
1.9
100
AcDbArc
 50
270.0
 51
0.0
  0
LINE
  5
41C
330
1F
100
AcDbEntity
  8
05-ダクト外線
100
AcDbLine
 10
-178.7551689140382
 20
-21463.1
 30
0.0
 11
-178.7551689140382
 21
-21336.90000000001
 31
0.0
  0
TEXT
  5
41D
330
1F
100
AcDbEntity
  8
03-文字-2
100
AcDbText
 10
-563.5445666599417
 20
-21598.1688933688
 30
0.0
 40
49.955
  1
継手用キャップφ125-0.6t
 41
0.9971071247761646
 72
     1
 11
-154.7476916599417
 21
-21573.1913933688
 31
0.0
100
AcDbText
 73
     2
  0
LINE
  5
41E
330
1F
100
AcDbEntity
  8
04-ダクトセンター
100
AcDbLine
 10
-178.7551689140382
 20
-22200.0
 30
0.0
 11
-133.7551689140382
 21
-22200.0
 31
0.0
  0
LINE
  5
41F
330
1F
100
AcDbEntity
  8
05-ダクト外線
100
AcDbLine
 10
-133.7551689140382
 20
-22273.1
 30
0.0
 11
-133.7551689140382
 21
-22126.90000000001
 31
0.0
  0
LINE
  5
420
330
1F
100
AcDbEntity
  8
05-ダクト外線
100
AcDbLine
 10
-136.2551689140382
 20
-22124.40000000001
 30
0.0
 11
-178.7551689140382
 21
-22124.40000000001
 31
0.0
  0
LINE
  5
421
330
1F
100
AcDbEntity
  8
05-ダクト外線
100
AcDbLine
 10
-136.2551689140382
 20
-22275.6
 30
0.0
 11
-178.7551689140382
 21
-22275.6
 31
0.0
  0
INSERT
  5
425
330
1F
100
AcDbEntity
  8
寸法
100
AcDbBlockReference
  2
INS-DKQNQ
 10
-231.556
 20
-22200.0
 30
0.0
  0
INSERT
  5
42F
330
1F
100
AcDbEntity
  8
寸法
100
AcDbBlockReference
  2
INS-D65EO
 10
-156.256
 20
-22080.22
 30
0.0
  0
LINE
  5
436
330
1F
100
AcDbEntity
  8
06-ダクト内線
  6
DASHED2
 48
0.2
100
AcDbLine
 10
-136.2551689140382
 20
-22275.0
 30
0.0
 11
-178.7551689140382
 21
-22275.0
 31
0.0
  0
LINE
  5
437
330
1F
100
AcDbEntity
  8
06-ダクト内線
  6
DASHED2
 48
0.2
100
AcDbLine
 10
-134.355168914044
 20
-22273.1
 30
0.0
 11
-134.355168914044
 21
-22126.90000000001
 31
0.0
  0
LINE
  5
438
330
1F
100
AcDbEntity
  8
06-ダクト内線
  6
DASHED2
 48
0.2
100
AcDbLine
 10
-136.2551689140382
 20
-22125.0
 30
0.0
 11
-178.7551689140382
 21
-22125.0
 31
0.0
  0
ARC
  5
439
330
1F
100
AcDbEntity
  8
05-ダクト外線
100
AcDbCircle
 10
-136.2551689140382
 20
-22273.1
 30
0.0
 40
2.5
100
AcDbArc
 50
270.0
 51
0.0
  0
ARC
  5
43A
330
1F
100
AcDbEntity
  8
05-ダクト外線
100
AcDbCircle
 10
-136.2551689140382
 20
-22126.90000000001
 30
0.0
 40
2.5
100
AcDbArc
 50
0.0
 51
90.0
  0
ARC
  5
43B
330
1F
100
AcDbEntity
  8
06-ダクト内線
  6
DASHED2
 48
0.2
100
AcDbCircle
 10
-136.2551689140382
 20
-22126.90000000001
 30
0.0
 40
1.9
100
AcDbArc
 50
0.0
 51
90.0
  0
ARC
  5
43C
330
1F
100
AcDbEntity
  8
06-ダクト内線
  6
DASHED2
 48
0.2
100
AcDbCircle
 10
-136.2551689140382
 20
-22273.1
 30
0.0
 40
1.9
100
AcDbArc
 50
270.0
 51
0.0
  0
LINE
  5
43D
330
1F
100
AcDbEntity
  8
05-ダクト外線
100
AcDbLine
 10
-178.7551689140382
 20
-22275.6
 30
0.0
 11
-178.7551689140382
 21
-22124.40000000001
 31
0.0
  0
TEXT
  5
43E
330
1F
100
AcDbEntity
  8
03-文字-2
100
AcDbText
 10
-559.2398791599414
 20
-22410.66889336998
 30
0.0
 40
49.955
  1
継手用キャップφ150-0.6t
 41
0.9971071247761646
 72
     1
 11
-154.7476916599414
 21
-22385.69139336998
 31
0.0
100
AcDbText
 73
     2
  0
LINE
  5
43F
330
1F
100
AcDbEntity
  8
04-ダクトセンター
100
AcDbLine
 10
-178.7551689140382
 20
-23000.0
 30
0.0
 11
-133.7551689140382
 21
-23000.0
 31
0.0
  0
LINE
  5
440
330
1F
100
AcDbEntity
  8
05-ダクト外線
100
AcDbLine
 10
-133.7551689140382
 20
-23085.6
 30
0.0
 11
-133.7551689140382
 21
-22914.40000000001
 31
0.0
  0
LINE
  5
441
330
1F
100
AcDbEntity
  8
05-ダクト外線
100
AcDbLine
 10
-136.2551689140382
 20
-22911.90000000001
 30
0.0
 11
-178.7551689140382
 21
-22911.90000000001
 31
0.0
  0
LINE
  5
442
330
1F
100
AcDbEntity
  8
05-ダクト外線
100
AcDbLine
 10
-136.2551689140382
 20
-23088.1
 30
0.0
 11
-178.7551689140382
 21
-23088.1
 31
0.0
  0
INSERT
  5
446
330
1F
100
AcDbEntity
  8
寸法
100
AcDbBlockReference
  2
INS-D92V6
 10
-231.556
 20
-23000.0
 30
0.0
  0
INSERT
  5
450
330
1F
100
AcDbEntity
  8
寸法
100
AcDbBlockReference
  2
INS-D46PK
 10
-156.256
 20
-22867.72
 30
0.0
  0
LINE
  5
457
330
1F
100
AcDbEntity
  8
06-ダクト内線
  6
DASHED2
 48
0.2
100
AcDbLine
 10
-136.2551689140382
 20
-23087.5
 30
0.0
 11
-178.7551689140382
 21
-23087.5
 31
0.0
  0
LINE
  5
458
330
1F
100
AcDbEntity
  8
06-ダクト内線
  6
DASHED2
 48
0.2
100
AcDbLine
 10
-134.355168914044
 20
-23085.6
 30
0.0
 11
-134.355168914044
 21
-22914.40000000001
 31
0.0
  0
LINE
  5
459
330
1F
100
AcDbEntity
  8
06-ダクト内線
  6
DASHED2
 48
0.2
100
AcDbLine
 10
-136.2551689140382
 20
-22912.5
 30
0.0
 11
-178.7551689140382
 21
-22912.5
 31
0.0
  0
ARC
  5
45A
330
1F
100
AcDbEntity
  8
05-ダクト外線
100
AcDbCircle
 10
-136.2551689140382
 20
-23085.6
 30
0.0
 40
2.5
100
AcDbArc
 50
270.0
 51
0.0
  0
ARC
  5
45B
330
1F
100
AcDbEntity
  8
05-ダクト外線
100
AcDbCircle
 10
-136.2551689140382
 20
-22914.40000000001
 30
0.0
 40
2.5
100
AcDbArc
 50
0.0
 51
90.0
  0
ARC
  5
45C
330
1F
100
AcDbEntity
  8
06-ダクト内線
  6
DASHED2
 48
0.2
100
AcDbCircle
 10
-136.2551689140382
 20
-22914.40000000001
 30
0.0
 40
1.9
100
AcDbArc
 50
0.0
 51
90.0
  0
ARC
  5
45D
330
1F
100
AcDbEntity
  8
06-ダクト内線
  6
DASHED2
 48
0.2
100
AcDbCircle
 10
-136.2551689140382
 20
-23085.6
 30
0.0
 40
1.9
100
AcDbArc
 50
270.0
 51
0.0
  0
LINE
  5
45E
330
1F
100
AcDbEntity
  8
05-ダクト外線
100
AcDbLine
 10
-178.7551689140382
 20
-23088.1
 30
0.0
 11
-178.7551689140382
 21
-22911.90000000001
 31
0.0
  0
TEXT
  5
45F
330
1F
100
AcDbEntity
  8
03-文字-2
100
AcDbText
 10
-563.5445666599417
 20
-23223.16889336993
 30
0.0
 40
49.955
  1
継手用キャップφ175-0.6t
 41
0.9971071247761646
 72
     1
 11
-154.7476916599417
 21
-23198.19139336993
 31
0.0
100
AcDbText
 73
     2
  0
LINE
  5
460
330
1F
100
AcDbEntity
  8
04-ダクトセンター
100
AcDbLine
 10
-178.7551689140382
 20
-23800.0
 30
0.0
 11
-133.7551689140382
 21
-23800.0
 31
0.0
  0
LINE
  5
461
330
1F
100
AcDbEntity
  8
05-ダクト外線
100
AcDbLine
 10
-133.7551689140382
 20
-23898.1
 30
0.0
 11
-133.7551689140382
 21
-23701.90000000001
 31
0.0
  0
LINE
  5
462
330
1F
100
AcDbEntity
  8
05-ダクト外線
100
AcDbLine
 10
-136.2551689140382
 20
-23699.40000000001
 30
0.0
 11
-178.7551689140382
 21
-23699.40000000001
 31
0.0
  0
LINE
  5
463
330
1F
100
AcDbEntity
  8
05-ダクト外線
100
AcDbLine
 10
-136.2551689140382
 20
-23900.6
 30
0.0
 11
-178.7551689140382
 21
-23900.6
 31
0.0
  0
INSERT
  5
467
330
1F
100
AcDbEntity
  8
寸法
100
AcDbBlockReference
  2
INS-D9MMC
 10
-231.556
 20
-23800.0
 30
0.0
  0
INSERT
  5
471
330
1F
100
AcDbEntity
  8
寸法
100
AcDbBlockReference
  2
INS-D70LU
 10
-156.256
 20
-23655.22
 30
0.0
  0
LINE
  5
478
330
1F
100
AcDbEntity
  8
06-ダクト内線
  6
DASHED2
 48
0.2
100
AcDbLine
 10
-136.2551689140382
 20
-23900.0
 30
0.0
 11
-178.7551689140382
 21
-23900.0
 31
0.0
  0
LINE
  5
479
330
1F
100
AcDbEntity
  8
06-ダクト内線
  6
DASHED2
 48
0.2
100
AcDbLine
 10
-134.355168914044
 20
-23898.1
 30
0.0
 11
-134.355168914044
 21
-23701.90000000001
 31
0.0
  0
LINE
  5
47A
330
1F
100
AcDbEntity
  8
06-ダクト内線
  6
DASHED2
 48
0.2
100
AcDbLine
 10
-136.2551689140382
 20
-23700.0
 30
0.0
 11
-178.7551689140382
 21
-23700.0
 31
0.0
  0
ARC
  5
47B
330
1F
100
AcDbEntity
  8
05-ダクト外線
100
AcDbCircle
 10
-136.2551689140382
 20
-23898.1
 30
0.0
 40
2.5
100
AcDbArc
 50
270.0
 51
0.0
  0
ARC
  5
47C
330
1F
100
AcDbEntity
  8
05-ダクト外線
100
AcDbCircle
 10
-136.2551689140382
 20
-23701.90000000001
 30
0.0
 40
2.5
100
AcDbArc
 50
0.0
 51
90.0
  0
ARC
  5
47D
330
1F
100
AcDbEntity
  8
06-ダクト内線
  6
DASHED2
 48
0.2
100
AcDbCircle
 10
-136.2551689140382
 20
-23701.90000000001
 30
0.0
 40
1.9
100
AcDbArc
 50
0.0
 51
90.0
  0
ARC
  5
47E
330
1F
100
AcDbEntity
  8
06-ダクト内線
  6
DASHED2
 48
0.2
100
AcDbCircle
 10
-136.2551689140382
 20
-23898.1
 30
0.0
 40
1.9
100
AcDbArc
 50
270.0
 51
0.0
  0
LINE
  5
47F
330
1F
100
AcDbEntity
  8
05-ダクト外線
100
AcDbLine
 10
-178.7551689140382
 20
-23900.6
 30
0.0
 11
-178.7551689140382
 21
-23699.40000000001
 31
0.0
  0
TEXT
  5
480
330
1F
100
AcDbEntity
  8
03-文字-2
100
AcDbText
 10
-563.2476916599844
 20
-24035.66889337125
 30
0.0
 40
49.955
  1
継手用キャップφ200-0.6t
 41
0.9971071247761646
 72
     1
 11
-154.7476916599844
 21
-24010.69139337125
 31
0.0
100
AcDbText
 73
     2
  0
LINE
  5
481
330
1F
100
AcDbEntity
  8
04-ダクトセンター
100
AcDbLine
 10
-183.7551689140382
 20
-24600.0
 30
0.0
 11
-128.7551689140382
 21
-24600.0
 31
0.0
  0
LINE
  5
482
330
1F
100
AcDbEntity
  8
05-ダクト外線
100
AcDbLine
 10
-128.7551689140382
 20
-24710.6
 30
0.0
 11
-128.7551689140382
 21
-24489.40000000001
 31
0.0
  0
LINE
  5
483
330
1F
100
AcDbEntity
  8
05-ダクト外線
100
AcDbLine
 10
-131.2551689140382
 20
-24486.90000000001
 30
0.0
 11
-183.7551689140382
 21
-24486.90000000001
 31
0.0
  0
LINE
  5
484
330
1F
100
AcDbEntity
  8
05-ダクト外線
100
AcDbLine
 10
-131.2551689140382
 20
-24713.1
 30
0.0
 11
-183.7551689140382
 21
-24713.1
 31
0.0
  0
INSERT
  5
488
330
1F
100
AcDbEntity
  8
寸法
100
AcDbBlockReference
  2
INS-D67NQ
 10
-236.556
 20
-24600.0
 30
0.0
  0
INSERT
  5
492
330
1F
100
AcDbEntity
  8
寸法
100
AcDbBlockReference
  2
INS-DWT09
 10
-156.256
 20
-24442.72
 30
0.0
  0
LINE
  5
499
330
1F
100
AcDbEntity
  8
06-ダクト内線
  6
DASHED2
 48
0.2
100
AcDbLine
 10
-131.2551689140382
 20
-24712.5
 30
0.0
 11
-183.7551689140382
 21
-24712.5
 31
0.0
  0
LINE
  5
49A
330
1F
100
AcDbEntity
  8
06-ダクト内線
  6
DASHED2
 48
0.2
100
AcDbLine
 10
-129.355168914044
 20
-24710.6
 30
0.0
 11
-129.355168914044
 21
-24489.40000000001
 31
0.0
  0
LINE
  5
49B
330
1F
100
AcDbEntity
  8
06-ダクト内線
  6
DASHED2
 48
0.2
100
AcDbLine
 10
-131.2551689140382
 20
-24487.5
 30
0.0
 11
-183.7551689140382
 21
-24487.5
 31
0.0
  0
ARC
  5
49C
330
1F
100
AcDbEntity
  8
05-ダクト外線
100
AcDbCircle
 10
-131.2551689140382
 20
-24710.6
 30
0.0
 40
2.5
100
AcDbArc
 50
270.0
 51
0.0
  0
ARC
  5
49D
330
1F
100
AcDbEntity
  8
05-ダクト外線
100
AcDbCircle
 10
-131.2551689140382
 20
-24489.40000000001
 30
0.0
 40
2.5
100
AcDbArc
 50
0.0
 51
90.0
  0
ARC
  5
49E
330
1F
100
AcDbEntity
  8
06-ダクト内線
  6
DASHED2
 48
0.2
100
AcDbCircle
 10
-131.2551689140382
 20
-24489.40000000001
 30
0.0
 40
1.9
100
AcDbArc
 50
0.0
 51
90.0
  0
ARC
  5
49F
330
1F
100
AcDbEntity
  8
06-ダクト内線
  6
DASHED2
 48
0.2
100
AcDbCircle
 10
-131.2551689140382
 20
-24710.6
 30
0.0
 40
1.9
100
AcDbArc
 50
270.0
 51
0.0
  0
LINE
  5
4A0
330
1F
100
AcDbEntity
  8
05-ダクト外線
100
AcDbLine
 10
-183.7551689140382
 20
-24713.1
 30
0.0
 11
-183.7551689140382
 21
-24486.90000000001
 31
0.0
  0
TEXT
  5
4A1
330
1F
100
AcDbEntity
  8
03-文字-2
100
AcDbText
 10
-571.8570666599262
 20
-24848.16889336753
 30
0.0
 40
49.955
  1
継手用キャップφ225-0.6t
 41
0.9971071247761646
 72
     1
 11
-154.7476916599262
 21
-24823.19139336752
 31
0.0
100
AcDbText
 73
     2
  0
LINE
  5
4A2
330
1F
100
AcDbEntity
  8
04-ダクトセンター
100
AcDbLine
 10
-183.7551689140382
 20
-25400.0
 30
0.0
 11
-128.7551689140382
 21
-25400.0
 31
0.0
  0
LINE
  5
4A3
330
1F
100
AcDbEntity
  8
05-ダクト外線
100
AcDbLine
 10
-128.7551689140382
 20
-25523.1
 30
0.0
 11
-128.7551689140382
 21
-25276.90000000001
 31
0.0
  0
LINE
  5
4A4
330
1F
100
AcDbEntity
  8
05-ダクト外線
100
AcDbLine
 10
-131.2551689140382
 20
-25274.40000000001
 30
0.0
 11
-183.7551689140382
 21
-25274.40000000001
 31
0.0
  0
LINE
  5
4A5
330
1F
100
AcDbEntity
  8
05-ダクト外線
100
AcDbLine
 10
-131.2551689140382
 20
-25525.6
 30
0.0
 11
-183.7551689140382
 21
-25525.6
 31
0.0
  0
INSERT
  5
4A9
330
1F
100
AcDbEntity
  8
寸法
100
AcDbBlockReference
  2
INS-D8F48
 10
-236.556
 20
-25400.0
 30
0.0
  0
INSERT
  5
4B3
330
1F
100
AcDbEntity
  8
寸法
100
AcDbBlockReference
  2
INS-D8EYJ
 10
-156.256
 20
-25230.22
 30
0.0
  0
LINE
  5
4BA
330
1F
100
AcDbEntity
  8
06-ダクト内線
  6
DASHED2
 48
0.2
100
AcDbLine
 10
-131.2551689140382
 20
-25525.0
 30
0.0
 11
-183.7551689140382
 21
-25525.0
 31
0.0
  0
LINE
  5
4BB
330
1F
100
AcDbEntity
  8
06-ダクト内線
  6
DASHED2
 48
0.2
100
AcDbLine
 10
-129.355168914044
 20
-25523.1
 30
0.0
 11
-129.355168914044
 21
-25276.90000000001
 31
0.0
  0
LINE
  5
4BC
330
1F
100
AcDbEntity
  8
06-ダクト内線
  6
DASHED2
 48
0.2
100
AcDbLine
 10
-131.2551689140382
 20
-25275.0
 30
0.0
 11
-183.7551689140382
 21
-25275.0
 31
0.0
  0
ARC
  5
4BD
330
1F
100
AcDbEntity
  8
05-ダクト外線
100
AcDbCircle
 10
-131.2551689140382
 20
-25523.1
 30
0.0
 40
2.5
100
AcDbArc
 50
270.0
 51
0.0
  0
ARC
  5
4BE
330
1F
100
AcDbEntity
  8
05-ダクト外線
100
AcDbCircle
 10
-131.2551689140382
 20
-25276.90000000001
 30
0.0
 40
2.5
100
AcDbArc
 50
0.0
 51
90.0
  0
ARC
  5
4BF
330
1F
100
AcDbEntity
  8
06-ダクト内線
  6
DASHED2
 48
0.2
100
AcDbCircle
 10
-131.2551689140382
 20
-25276.90000000001
 30
0.0
 40
1.9
100
AcDbArc
 50
0.0
 51
90.0
  0
ARC
  5
4C0
330
1F
100
AcDbEntity
  8
06-ダクト内線
  6
DASHED2
 48
0.2
100
AcDbCircle
 10
-131.2551689140382
 20
-25523.1
 30
0.0
 40
1.9
100
AcDbArc
 50
270.0
 51
0.0
  0
LINE
  5
4C1
330
1F
100
AcDbEntity
  8
05-ダクト外線
100
AcDbLine
 10
-183.7551689140382
 20
-25525.6
 30
0.0
 11
-183.7551689140382
 21
-25274.40000000001
 31
0.0
  0
TEXT
  5
4C2
330
1F
100
AcDbEntity
  8
03-文字-2
100
AcDbText
 10
-567.5523791599262
 20
-25660.66889337125
 30
0.0
 40
49.955
  1
継手用キャップφ250-0.6t
 41
0.9971071247761646
 72
     1
 11
-154.7476916599262
 21
-25635.69139337125
 31
0.0
100
AcDbText
 73
     2
  0
LINE
  5
4C3
330
1F
100
AcDbEntity
  8
04-ダクトセンター
100
AcDbLine
 10
-183.7551689140382
 20
-26200.0
 30
0.0
 11
-128.7551689140382
 21
-26200.0
 31
0.0
  0
LINE
  5
4C4
330
1F
100
AcDbEntity
  8
05-ダクト外線
100
AcDbLine
 10
-128.7551689140382
 20
-26335.6
 30
0.0
 11
-128.7551689140382
 21
-26064.40000000001
 31
0.0
  0
LINE
  5
4C5
330
1F
100
AcDbEntity
  8
05-ダクト外線
100
AcDbLine
 10
-131.2551689140382
 20
-26061.90000000001
 30
0.0
 11
-183.7551689140382
 21
-26061.90000000001
 31
0.0
  0
LINE
  5
4C6
330
1F
100
AcDbEntity
  8
05-ダクト外線
100
AcDbLine
 10
-131.2551689140382
 20
-26338.1
 30
0.0
 11
-183.7551689140382
 21
-26338.1
 31
0.0
  0
INSERT
  5
4CA
330
1F
100
AcDbEntity
  8
寸法
100
AcDbBlockReference
  2
INS-D8HGO
 10
-236.556
 20
-26200.0
 30
0.0
  0
INSERT
  5
4D4
330
1F
100
AcDbEntity
  8
寸法
100
AcDbBlockReference
  2
INS-D3TO9
 10
-156.256
 20
-26017.72
 30
0.0
  0
LINE
  5
4DB
330
1F
100
AcDbEntity
  8
06-ダクト内線
  6
DASHED2
 48
0.2
100
AcDbLine
 10
-131.2551689140382
 20
-26337.5
 30
0.0
 11
-183.7551689140382
 21
-26337.5
 31
0.0
  0
LINE
  5
4DC
330
1F
100
AcDbEntity
  8
06-ダクト内線
  6
DASHED2
 48
0.2
100
AcDbLine
 10
-129.355168914044
 20
-26335.6
 30
0.0
 11
-129.355168914044
 21
-26064.40000000001
 31
0.0
  0
LINE
  5
4DD
330
1F
100
AcDbEntity
  8
06-ダクト内線
  6
DASHED2
 48
0.2
100
AcDbLine
 10
-131.2551689140382
 20
-26062.5
 30
0.0
 11
-183.7551689140382
 21
-26062.5
 31
0.0
  0
ARC
  5
4DE
330
1F
100
AcDbEntity
  8
05-ダクト外線
100
AcDbCircle
 10
-131.2551689140382
 20
-26335.6
 30
0.0
 40
2.5
100
AcDbArc
 50
270.0
 51
0.0
  0
ARC
  5
4DF
330
1F
100
AcDbEntity
  8
05-ダクト外線
100
AcDbCircle
 10
-131.2551689140382
 20
-26064.40000000001
 30
0.0
 40
2.5
100
AcDbArc
 50
0.0
 51
90.0
  0
ARC
  5
4E0
330
1F
100
AcDbEntity
  8
06-ダクト内線
  6
DASHED2
 48
0.2
100
AcDbCircle
 10
-131.2551689140382
 20
-26064.40000000001
 30
0.0
 40
1.9
100
AcDbArc
 50
0.0
 51
90.0
  0
ARC
  5
4E1
330
1F
100
AcDbEntity
  8
06-ダクト内線
  6
DASHED2
 48
0.2
100
AcDbCircle
 10
-131.2551689140382
 20
-26335.6
 30
0.0
 40
1.9
100
AcDbArc
 50
270.0
 51
0.0
  0
LINE
  5
4E2
330
1F
100
AcDbEntity
  8
05-ダクト外線
100
AcDbLine
 10
-183.7551689140382
 20
-26338.1
 30
0.0
 11
-183.7551689140382
 21
-26061.90000000001
 31
0.0
  0
TEXT
  5
4E3
330
1F
100
AcDbEntity
  8
03-文字-2
100
AcDbText
 10
-571.857066659868
 20
-26473.16889336753
 30
0.0
 40
49.955
  1
継手用キャップφ275-0.6t
 41
0.9971071247761646
 72
     1
 11
-154.747691659868
 21
-26448.19139336752
 31
0.0
100
AcDbText
 73
     2
  0
LINE
  5
4E4
330
1F
100
AcDbEntity
  8
04-ダクトセンター
100
AcDbLine
 10
-183.7551689140382
 20
-27100.0
 30
0.0
 11
-128.7551689140382
 21
-27100.0
 31
0.0
  0
LINE
  5
4E5
330
1F
100
AcDbEntity
  8
05-ダクト外線
100
AcDbLine
 10
-128.7551689140382
 20
-27248.1
 30
0.0
 11
-128.7551689140382
 21
-26951.90000000001
 31
0.0
  0
LINE
  5
4E6
330
1F
100
AcDbEntity
  8
05-ダクト外線
100
AcDbLine
 10
-131.2551689140382
 20
-26949.40000000001
 30
0.0
 11
-183.7551689140382
 21
-26949.40000000001
 31
0.0
  0
LINE
  5
4E7
330
1F
100
AcDbEntity
  8
05-ダクト外線
100
AcDbLine
 10
-131.2551689140382
 20
-27250.6
 30
0.0
 11
-183.7551689140382
 21
-27250.6
 31
0.0
  0
INSERT
  5
4EB
330
1F
100
AcDbEntity
  8
寸法
100
AcDbBlockReference
  2
INS-DA5NJ
 10
-236.556
 20
-27100.0
 30
0.0
  0
INSERT
  5
4F5
330
1F
100
AcDbEntity
  8
寸法
100
AcDbBlockReference
  2
INS-D5AO9
 10
-156.256
 20
-26905.22
 30
0.0
  0
LINE
  5
4FC
330
1F
100
AcDbEntity
  8
06-ダクト内線
  6
DASHED2
 48
0.2
100
AcDbLine
 10
-131.2551689140382
 20
-27250.0
 30
0.0
 11
-183.7551689140382
 21
-27250.0
 31
0.0
  0
LINE
  5
4FD
330
1F
100
AcDbEntity
  8
06-ダクト内線
  6
DASHED2
 48
0.2
100
AcDbLine
 10
-129.355168914044
 20
-27248.1
 30
0.0
 11
-129.355168914044
 21
-26951.90000000001
 31
0.0
  0
LINE
  5
4FE
330
1F
100
AcDbEntity
  8
06-ダクト内線
  6
DASHED2
 48
0.2
100
AcDbLine
 10
-131.2551689140382
 20
-26950.0
 30
0.0
 11
-183.7551689140382
 21
-26950.0
 31
0.0
  0
ARC
  5
4FF
330
1F
100
AcDbEntity
  8
05-ダクト外線
100
AcDbCircle
 10
-131.2551689140382
 20
-27248.1
 30
0.0
 40
2.5
100
AcDbArc
 50
270.0
 51
0.0
  0
ARC
  5
500
330
1F
100
AcDbEntity
  8
05-ダクト外線
100
AcDbCircle
 10
-131.2551689140382
 20
-26951.90000000001
 30
0.0
 40
2.5
100
AcDbArc
 50
0.0
 51
90.0
  0
ARC
  5
501
330
1F
100
AcDbEntity
  8
06-ダクト内線
  6
DASHED2
 48
0.2
100
AcDbCircle
 10
-131.2551689140382
 20
-26951.90000000001
 30
0.0
 40
1.9
100
AcDbArc
 50
0.0
 51
90.0
  0
ARC
  5
502
330
1F
100
AcDbEntity
  8
06-ダクト内線
  6
DASHED2
 48
0.2
100
AcDbCircle
 10
-131.2551689140382
 20
-27248.1
 30
0.0
 40
1.9
100
AcDbArc
 50
270.0
 51
0.0
  0
LINE
  5
503
330
1F
100
AcDbEntity
  8
05-ダクト外線
100
AcDbLine
 10
-183.7551689140382
 20
-27250.6
 30
0.0
 11
-183.7551689140382
 21
-26949.40000000001
 31
0.0
  0
TEXT
  5
504
330
1F
100
AcDbEntity
  8
03-文字-2
100
AcDbText
 10
-563.2476916599262
 20
-27385.66889336939
 30
0.0
 40
49.955
  1
継手用キャップφ300-0.6t
 41
0.9971071247761646
 72
     1
 11
-154.7476916599262
 21
-27360.69139336939
 31
0.0
100
AcDbText
 73
     2
  0
TEXT
  5
505
330
1F
100
AcDbEntity
  8
03-文字-2
100
AcDbText
 10
-571.857066659971
 20
-28398.16889336616
 30
0.0
 40
49.955
  1
継手用キャップφ325-0.8t
 41
0.9971071247761646
 72
     1
 11
-154.747691659971
 21
-28373.19139336616
 31
0.0
100
AcDbText
 73
     2
  0
LINE
  5
506
330
1F
100
AcDbEntity
  8
04-ダクトセンター
100
AcDbLine
 10
-188.7551689140382
 20
-28100.0
 30
0.0
 11
-123.7551689140382
 21
-28100.0
 31
0.0
  0
LINE
  5
507
330
1F
100
AcDbEntity
  8
05-ダクト外線
100
AcDbLine
 10
-123.7551689140382
 20
-28260.8
 30
0.0
 11
-123.7551689140382
 21
-27939.2
 31
0.0
  0
LINE
  5
508
330
1F
100
AcDbEntity
  8
05-ダクト外線
100
AcDbLine
 10
-126.2551689140382
 20
-27936.7
 30
0.0
 11
-188.7551689140382
 21
-27936.7
 31
0.0
  0
LINE
  5
509
330
1F
100
AcDbEntity
  8
05-ダクト外線
100
AcDbLine
 10
-126.2551689140382
 20
-28263.3
 30
0.0
 11
-188.7551689140382
 21
-28263.3
 31
0.0
  0
INSERT
  5
50D
330
1F
100
AcDbEntity
  8
寸法
100
AcDbBlockReference
  2
INS-DC94Y
 10
-241.556
 20
-28100.0
 30
0.0
  0
INSERT
  5
517
330
1F
100
AcDbEntity
  8
寸法
100
AcDbBlockReference
  2
INS-D81PW
 10
-156.256
 20
-27891.72
 30
0.0
  0
LINE
  5
51E
330
1F
100
AcDbEntity
  8
05-ダクト外線
100
AcDbLine
 10
-188.7551689140382
 20
-28263.3
 30
0.0
 11
-188.7551689140382
 21
-27936.7
 31
0.0
  0
LINE
  5
51F
330
1F
100
AcDbEntity
  8
06-ダクト内線
  6
DASHED2
 62
    20
 48
0.2
100
AcDbLine
 10
-126.2551689140382
 20
-28262.5
 30
0.0
 11
-188.7551689140382
 21
-28262.5
 31
0.0
  0
LINE
  5
520
330
1F
100
AcDbEntity
  8
06-ダクト内線
  6
DASHED2
 62
    20
 48
0.2
100
AcDbLine
 10
-124.5551689140557
 20
-28260.8
 30
0.0
 11
-124.5551689140557
 21
-27939.2
 31
0.0
  0
LINE
  5
521
330
1F
100
AcDbEntity
  8
06-ダクト内線
  6
DASHED2
 62
    20
 48
0.2
100
AcDbLine
 10
-126.2551689140382
 20
-27937.5
 30
0.0
 11
-188.7551689140382
 21
-27937.5
 31
0.0
  0
ARC
  5
522
330
1F
100
AcDbEntity
  8
05-ダクト外線
100
AcDbCircle
 10
-126.2551689140382
 20
-27939.2
 30
0.0
 40
2.5
100
AcDbArc
 50
0.0
 51
90.0
  0
ARC
  5
523
330
1F
100
AcDbEntity
  8
05-ダクト外線
100
AcDbCircle
 10
-126.2551689140382
 20
-28260.8
 30
0.0
 40
2.5
100
AcDbArc
 50
270.0
 51
0.0
  0
ARC
  5
524
330
1F
100
AcDbEntity
  8
06-ダクト内線
  6
DASHED2
 62
    20
 48
0.2
100
AcDbCircle
 10
-126.2551689140382
 20
-28260.8
 30
0.0
 40
1.7
100
AcDbArc
 50
270.0
 51
0.0
  0
ARC
  5
525
330
1F
100
AcDbEntity
  8
06-ダクト内線
  6
DASHED2
 62
    20
 48
0.2
100
AcDbCircle
 10
-126.2551689140382
 20
-27939.2
 30
0.0
 40
1.7
100
AcDbArc
 50
0.0
 51
90.0
  0
TEXT
  5
526
330
1F
100
AcDbEntity
  8
03-文字-2
100
AcDbText
 10
-567.5523791599262
 20
-29410.66889336567
 30
0.0
 40
49.955
  1
継手用キャップφ350-0.8t
 41
0.9971071247761646
 72
     1
 11
-154.7476916599262
 21
-29385.69139336567
 31
0.0
100
AcDbText
 73
     2
  0
LINE
  5
527
330
1F
100
AcDbEntity
  8
04-ダクトセンター
100
AcDbLine
 10
-188.7551689140382
 20
-29100.00000000001
 30
0.0
 11
-123.7551689140382
 21
-29100.00000000001
 31
0.0
  0
LINE
  5
528
330
1F
100
AcDbEntity
  8
05-ダクト外線
100
AcDbLine
 10
-123.7551689140382
 20
-29273.30000000001
 30
0.0
 11
-123.7551689140382
 21
-28926.70000000001
 31
0.0
  0
LINE
  5
529
330
1F
100
AcDbEntity
  8
05-ダクト外線
100
AcDbLine
 10
-126.2551689140382
 20
-28924.20000000001
 30
0.0
 11
-188.7551689140382
 21
-28924.20000000001
 31
0.0
  0
LINE
  5
52A
330
1F
100
AcDbEntity
  8
05-ダクト外線
100
AcDbLine
 10
-126.2551689140382
 20
-29275.80000000001
 30
0.0
 11
-188.7551689140382
 21
-29275.80000000001
 31
0.0
  0
INSERT
  5
52E
330
1F
100
AcDbEntity
  8
寸法
100
AcDbBlockReference
  2
INS-DE90K
 10
-241.556
 20
-29100.0
 30
0.0
  0
INSERT
  5
538
330
1F
100
AcDbEntity
  8
寸法
100
AcDbBlockReference
  2
INS-D6RK2
 10
-156.256
 20
-28879.22
 30
0.0
  0
LINE
  5
53F
330
1F
100
AcDbEntity
  8
05-ダクト外線
100
AcDbLine
 10
-188.7551689140382
 20
-29275.80000000001
 30
0.0
 11
-188.7551689140382
 21
-28924.20000000001
 31
0.0
  0
LINE
  5
540
330
1F
100
AcDbEntity
  8
06-ダクト内線
  6
DASHED2
 62
    20
 48
0.2
100
AcDbLine
 10
-126.2551689140382
 20
-29275.00000000001
 30
0.0
 11
-188.7551689140382
 21
-29275.00000000001
 31
0.0
  0
LINE
  5
541
330
1F
100
AcDbEntity
  8
06-ダクト内線
  6
DASHED2
 62
    20
 48
0.2
100
AcDbLine
 10
-124.5551689140557
 20
-29273.30000000001
 30
0.0
 11
-124.5551689140557
 21
-28926.70000000001
 31
0.0
  0
LINE
  5
542
330
1F
100
AcDbEntity
  8
06-ダクト内線
  6
DASHED2
 62
    20
 48
0.2
100
AcDbLine
 10
-126.2551689140382
 20
-28925.00000000001
 30
0.0
 11
-188.7551689140382
 21
-28925.00000000001
 31
0.0
  0
ARC
  5
543
330
1F
100
AcDbEntity
  8
05-ダクト外線
100
AcDbCircle
 10
-126.2551689140382
 20
-28926.70000000001
 30
0.0
 40
2.5
100
AcDbArc
 50
0.0
 51
90.0
  0
ARC
  5
544
330
1F
100
AcDbEntity
  8
05-ダクト外線
100
AcDbCircle
 10
-126.2551689140382
 20
-29273.30000000001
 30
0.0
 40
2.5
100
AcDbArc
 50
270.0
 51
0.0
  0
ARC
  5
545
330
1F
100
AcDbEntity
  8
06-ダクト内線
  6
DASHED2
 62
    20
 48
0.2
100
AcDbCircle
 10
-126.2551689140382
 20
-29273.30000000001
 30
0.0
 40
1.7
100
AcDbArc
 50
270.0
 51
0.0
  0
ARC
  5
546
330
1F
100
AcDbEntity
  8
06-ダクト内線
  6
DASHED2
 62
    20
 48
0.2
100
AcDbCircle
 10
-126.2551689140382
 20
-28926.70000000001
 30
0.0
 40
1.7
100
AcDbArc
 50
0.0
 51
90.0
  0
TEXT
  5
547
330
1F
100
AcDbEntity
  8
03-文字-2
100
AcDbText
 10
-571.8570666599844
 20
-30423.16889336939
 30
0.0
 40
49.955
  1
継手用キャップφ375-0.8t
 41
0.9971071247761646
 72
     1
 11
-154.7476916599844
 21
-30398.19139336939
 31
0.0
100
AcDbText
 73
     2
  0
LINE
  5
548
330
1F
100
AcDbEntity
  8
04-ダクトセンター
100
AcDbLine
 10
-188.7551689140382
 20
-30100.00000000001
 30
0.0
 11
-123.7551689140382
 21
-30100.00000000001
 31
0.0
  0
LINE
  5
549
330
1F
100
AcDbEntity
  8
05-ダクト外線
100
AcDbLine
 10
-123.7551689140382
 20
-30285.80000000001
 30
0.0
 11
-123.7551689140382
 21
-29914.20000000001
 31
0.0
  0
LINE
  5
54A
330
1F
100
AcDbEntity
  8
05-ダクト外線
100
AcDbLine
 10
-126.2551689140382
 20
-29911.70000000001
 30
0.0
 11
-188.7551689140382
 21
-29911.70000000001
 31
0.0
  0
LINE
  5
54B
330
1F
100
AcDbEntity
  8
05-ダクト外線
100
AcDbLine
 10
-126.2551689140382
 20
-30288.30000000001
 30
0.0
 11
-188.7551689140382
 21
-30288.30000000001
 31
0.0
  0
INSERT
  5
54F
330
1F
100
AcDbEntity
  8
寸法
100
AcDbBlockReference
  2
INS-D7CC2
 10
-241.556
 20
-30100.0
 30
0.0
  0
INSERT
  5
559
330
1F
100
AcDbEntity
  8
寸法
100
AcDbBlockReference
  2
INS-D7K5C
 10
-156.256
 20
-29866.72
 30
0.0
  0
LINE
  5
560
330
1F
100
AcDbEntity
  8
05-ダクト外線
100
AcDbLine
 10
-188.7551689140382
 20
-30288.30000000001
 30
0.0
 11
-188.7551689140382
 21
-29911.70000000001
 31
0.0
  0
LINE
  5
561
330
1F
100
AcDbEntity
  8
06-ダクト内線
  6
DASHED2
 62
    20
 48
0.2
100
AcDbLine
 10
-126.2551689140382
 20
-30287.50000000001
 30
0.0
 11
-188.7551689140382
 21
-30287.50000000001
 31
0.0
  0
LINE
  5
562
330
1F
100
AcDbEntity
  8
06-ダクト内線
  6
DASHED2
 62
    20
 48
0.2
100
AcDbLine
 10
-124.5551689140557
 20
-30285.80000000001
 30
0.0
 11
-124.5551689140557
 21
-29914.20000000001
 31
0.0
  0
LINE
  5
563
330
1F
100
AcDbEntity
  8
06-ダクト内線
  6
DASHED2
 62
    20
 48
0.2
100
AcDbLine
 10
-126.2551689140382
 20
-29912.50000000001
 30
0.0
 11
-188.7551689140382
 21
-29912.50000000001
 31
0.0
  0
ARC
  5
564
330
1F
100
AcDbEntity
  8
05-ダクト外線
100
AcDbCircle
 10
-126.2551689140382
 20
-29914.20000000001
 30
0.0
 40
2.5
100
AcDbArc
 50
0.0
 51
90.0
  0
ARC
  5
565
330
1F
100
AcDbEntity
  8
05-ダクト外線
100
AcDbCircle
 10
-126.2551689140382
 20
-30285.80000000001
 30
0.0
 40
2.5
100
AcDbArc
 50
270.0
 51
0.0
  0
ARC
  5
566
330
1F
100
AcDbEntity
  8
06-ダクト内線
  6
DASHED2
 62
    20
 48
0.2
100
AcDbCircle
 10
-126.2551689140382
 20
-30285.80000000001
 30
0.0
 40
1.7
100
AcDbArc
 50
270.0
 51
0.0
  0
ARC
  5
567
330
1F
100
AcDbEntity
  8
06-ダクト内線
  6
DASHED2
 62
    20
 48
0.2
100
AcDbCircle
 10
-126.2551689140382
 20
-29914.20000000001
 30
0.0
 40
1.7
100
AcDbArc
 50
0.0
 51
90.0
  0
ENDSEC
  0
SECTION
  2
OBJECTS
  0
DICTIONARY
  5
C
330
0
100
AcDbDictionary
281
     1
  3
ACAD_GROUP
350
D
  3
ACAD_LAYOUT
350
1A
  3
ACAD_MATERIAL
350
43
  3
ACAD_MLEADERSTYLE
350
6B
  3
ACAD_MLINESTYLE
350
17
  3
ACAD_PLOTSETTINGS
350
19
  3
ACAD_PLOTSTYLENAME
350
E
  3
ACAD_SCALELIST
350
47
  3
ACAD_TABLESTYLE
350
69
  3
ACAD_VISUALSTYLE
350
2A
  3
AcDbVariableDictionary
350
568
  3
DWGPROPS
350
570
  0
DICTIONARY
  5
571
330
8
100
AcDbDictionary
280
     1
281
     1
  3
ACAD_XREC_ROUNDTRIP
360
572
  0
DICTIONARY
  5
D
102
{ACAD_REACTORS
330
C
102
}
330
C
100
AcDbDictionary
281
     1
  0
DICTIONARY
  5
1A
102
{ACAD_REACTORS
330
C
102
}
330
C
100
AcDbDictionary
281
     1
  3
Layout1
350
1E
  3
Model
350
22
  0
DICTIONARY
  5
43
102
{ACAD_REACTORS
330
C
102
}
330
C
100
AcDbDictionary
281
     1
  3
ByBlock
350
45
  3
ByLayer
350
44
  3
Global
350
46
  0
DICTIONARY
  5
6B
102
{ACAD_REACTORS
330
C
102
}
330
C
100
AcDbDictionary
281
     1
  3
Standard
350
6C
  0
DICTIONARY
  5
17
102
{ACAD_REACTORS
330
C
102
}
330
C
100
AcDbDictionary
281
     1
  3
Standard
350
18
  0
DICTIONARY
  5
19
102
{ACAD_REACTORS
330
C
102
}
330
C
100
AcDbDictionary
281
     1
  0
ACDBDICTIONARYWDFLT
  5
E
102
{ACAD_REACTORS
330
C
102
}
330
C
100
AcDbDictionary
281
     1
  3
Normal
350
F
100
AcDbDictionaryWithDefault
340
F
  0
DICTIONARY
  5
47
102
{ACAD_REACTORS
330
C
102
}
330
C
100
AcDbDictionary
281
     1
  3
A0
350
48
  3
A1
350
49
  3
A2
350
4A
  3
A3
350
4B
  3
A4
350
4C
  3
A5
350
4D
  3
A6
350
4E
  3
A7
350
4F
  3
A8
350
50
  3
A9
350
51
  3
B0
350
52
  3
B1
350
53
  3
B2
350
54
  3
B3
350
55
  3
B4
350
56
  3
B5
350
57
  3
B6
350
58
  3
B7
350
59
  3
B8
350
5A
  3
B9
350
5B
  3
C0
350
5C
  3
C1
350
5D
  3
C2
350
5E
  3
C3
350
5F
  3
C4
350
60
  3
C5
350
61
  3
C6
350
62
  3
C7
350
63
  3
C8
350
64
  3
C9
350
65
  3
D0
350
66
  3
D1
350
67
  3
D2
350
68
  0
DICTIONARY
  5
69
102
{ACAD_REACTORS
330
C
102
}
330
C
100
AcDbDictionary
281
     1
  3
Standard
350
6A
  0
DICTIONARY
  5
2A
102
{ACAD_REACTORS
330
C
102
}
330
C
100
AcDbDictionary
281
     1
  3
2dWireframe
350
2F
  3
Basic
350
32
  3
Brighten
350
36
  3
ColorChange
350
3A
  3
Conceptual
350
34
  3
Dim
350
35
  3
EdgeColorOff
350
3D
  3
Facepattern
350
39
  3
Flat
350
2B
  3
FlatWithEdges
350
2C
  3
Gouraud
350
2D
  3
GouraudWithEdges
350
2E
  3
Hidden
350
31
  3
JitterOff
350
3B
  3
Linepattern
350
38
  3
OverhangOff
350
3C
  3
Realistic
350
33
  3
Shaded
350
42
  3
Shaded with edges
350
41
  3
Shades of Gray
350
3E
  3
Sketchy
350
3F
  3
Thicken
350
37
  3
Wireframe
350
30
  3
X-Ray
350
40
  0
DICTIONARY
  5
568
102
{ACAD_REACTORS
330
C
102
}
330
C
100
AcDbDictionary
281
     1
  3
CANNOSCALE
350
573
  3
CMLEADERSTYLE
350
56A
  3
CTABLESTYLE
350
569
  3
DIMASSOC
350
56E
  3
HIDETEXT
350
56F
  3
MSLTSCALE
350
574
  3
XCLIPFRAME
350
56B
  0
XRECORD
  5
570
102
{ACAD_REACTORS
330
C
102
}
330
C
100
AcDbXrecord
280
     1
  1
DWGPROPS COOKIE
  2

  3

  4

  6

  7

  8
kakz194
  9

300
=
301
=
302
=
303
=
304
=
305
=
306
=
307
=
308
=
309
=
 40
0.0
 41
2460341.725486111
 42
2460341.350490984
  1

 90
        0
  0
XRECORD
  5
572
102
{ACAD_REACTORS
330
571
102
}
330
571
100
AcDbXrecord
280
     1
102
VTR_0.000_0.000_1.000_1.000_VISUALSTYLE
340
2F
102
VTR_0.000_0.000_1.000_1.000_GRIDDISPLAY
 70
     3
102
VTR_0.000_0.000_1.000_1.000_GRIDMAJOR
 70
     5
102
VTR_0.000_0.000_1.000_1.000_DEFAULTLIGHTING
280
     1
102
VTR_0.000_0.000_1.000_1.000_DEFAULTLIGHTINGTYPE
 70
     1
102
VTR_0.000_0.000_1.000_1.000_BRIGHTNESS
141
0.0
102
VTR_0.000_0.000_1.000_1.000_CONTRAST
142
0.0
  0
LAYOUT
  5
1E
102
{ACAD_REACTORS
330
1A
102
}
330
1A
100
AcDbPlotSettings
  1

  2
none_device
  4

  6

 40
0.0
 41
0.0
 42
0.0
 43
0.0
 44
0.0
 45
0.0
 46
0.0
 47
0.0
 48
0.0
 49
0.0
140
0.0
141
0.0
142
1.0
143
1.0
 70
   688
 72
     0
 73
     0
 74
     5
  7

 75
    16
147
1.0
148
0.0
149
0.0
100
AcDbLayout
  1
Layout1
 70
     1
 71
     1
 10
0.0
 20
0.0
 11
12.0
 21
9.0
 12
0.0
 22
0.0
 32
0.0
 14
0.0
 24
0.0
 34
0.0
 15
12.0
 25
9.0
 35
0.0
146
0.0
 13
0.0
 23
0.0
 33
0.0
 16
1.0
 26
0.0
 36
0.0
 17
0.0
 27
1.0
 37
0.0
 76
     0
330
1B
  0
LAYOUT
  5
22
102
{ACAD_REACTORS
330
1A
102
}
330
1A
100
AcDbPlotSettings
  1

  2
none_device
  4
ISO_A1_(594.00_x_841.00_MM)
  6

 40
0.0
 41
0.0
 42
0.0
 43
0.0
 44
594.0
 45
841.0
 46
0.0
 47
0.0
 48
0.0
 49
0.0
140
0.0
141
0.0
142
1.0
143
1.0
 70
  1712
 72
     1
 73
     1
 74
     0
  7

 75
    16
147
1.0
148
0.0
149
0.0
100
AcDbLayout
  1
Model
 70
     1
 71
     0
 10
0.0
 20
0.0
 11
20184.0
 21
14256.0
 12
0.0
 22
0.0
 32
0.0
 14
0.0
 24
0.0
 34
0.0
 15
16820.0
 25
11880.0
 35
0.0
146
0.0
 13
0.0
 23
0.0
 33
0.0
 16
1.0
 26
0.0
 36
0.0
 17
0.0
 27
1.0
 37
0.0
 76
     0
330
1F
331
29
  0
MATERIAL
  5
45
102
{ACAD_REACTORS
330
43
102
}
102
{ACAD_XDICTIONARY
360
5A7
102
}
330
43
100
AcDbMaterial
  1
ByBlock
  0
MATERIAL
  5
44
102
{ACAD_REACTORS
330
43
102
}
102
{ACAD_XDICTIONARY
360
5A5
102
}
330
43
100
AcDbMaterial
  1
ByLayer
  0
MATERIAL
  5
46
102
{ACAD_REACTORS
330
43
102
}
102
{ACAD_XDICTIONARY
360
5A9
102
}
330
43
100
AcDbMaterial
  1
Global
  0
MLEADERSTYLE
  5
6C
102
{ACAD_REACTORS
330
6B
102
}
102
{ACAD_XDICTIONARY
360
5AC
102
}
330
6B
100
AcDbMLeaderStyle
170
     2
171
     1
172
     0
 90
        2
 40
0.0
 41
0.0
173
     1
 91
-1056964608
340
14
 92
       -2
290
     1
 42
0.09
291
     1
 43
0.36
  3
Standard
341
0
 44
0.18
300

342
11
174
     1
178
     6
175
     1
176
     0
 93
-1056964608
 45
0.18
292
     0
297
     0
 46
0.18
343
0
 94
-1056964608
 47
1.0
 49
1.0
140
1.0
293
     1
141
0.0
294
     1
177
     0
142
1.0
295
     0
296
     0
143
0.125
1001
ACAD_MLEADERVER
1070
     2
  0
MLINESTYLE
  5
18
102
{ACAD_REACTORS
330
17
102
}
330
17
100
AcDbMlineStyle
  2
Standard
 70
     0
  3

 62
   256
 51
90.0
 52
90.0
 71
     2
 49
0.5
 62
   256
  6
BYLAYER
 49
-0.5
 62
   256
  6
BYLAYER
  0
ACDBPLACEHOLDER
  5
F
102
{ACAD_REACTORS
330
E
102
}
330
E
  0
SCALE
  5
48
102
{ACAD_REACTORS
330
47
102
}
330
47
100
AcDbScale
 70
     0
300
1:1
140
1.0
141
1.0
290
     1
  0
SCALE
  5
49
102
{ACAD_REACTORS
330
47
102
}
330
47
100
AcDbScale
 70
     0
300
1:2
140
1.0
141
2.0
290
     0
  0
SCALE
  5
4A
102
{ACAD_REACTORS
330
47
102
}
330
47
100
AcDbScale
 70
     0
300
1:4
140
1.0
141
4.0
290
     0
  0
SCALE
  5
4B
102
{ACAD_REACTORS
330
47
102
}
330
47
100
AcDbScale
 70
     0
300
1:5
140
1.0
141
5.0
290
     0
  0
SCALE
  5
4C
102
{ACAD_REACTORS
330
47
102
}
330
47
100
AcDbScale
 70
     0
300
1:8
140
1.0
141
8.0
290
     0
  0
SCALE
  5
4D
102
{ACAD_REACTORS
330
47
102
}
330
47
100
AcDbScale
 70
     0
300
1:10
140
1.0
141
10.0
290
     0
  0
SCALE
  5
4E
102
{ACAD_REACTORS
330
47
102
}
330
47
100
AcDbScale
 70
     0
300
1:16
140
1.0
141
16.0
290
     0
  0
SCALE
  5
4F
102
{ACAD_REACTORS
330
47
102
}
330
47
100
AcDbScale
 70
     0
300
1:20
140
1.0
141
20.0
290
     0
  0
SCALE
  5
50
102
{ACAD_REACTORS
330
47
102
}
330
47
100
AcDbScale
 70
     0
300
1:30
140
1.0
141
30.0
290
     0
  0
SCALE
  5
51
102
{ACAD_REACTORS
330
47
102
}
330
47
100
AcDbScale
 70
     0
300
1:40
140
1.0
141
40.0
290
     0
  0
SCALE
  5
52
102
{ACAD_REACTORS
330
47
102
}
330
47
100
AcDbScale
 70
     0
300
1:50
140
1.0
141
50.0
290
     0
  0
SCALE
  5
53
102
{ACAD_REACTORS
330
47
102
}
330
47
100
AcDbScale
 70
     0
300
1:100
140
1.0
141
100.0
290
     0
  0
SCALE
  5
54
102
{ACAD_REACTORS
330
47
102
}
330
47
100
AcDbScale
 70
     0
300
2:1
140
2.0
141
1.0
290
     0
  0
SCALE
  5
55
102
{ACAD_REACTORS
330
47
102
}
330
47
100
AcDbScale
 70
     0
300
4:1
140
4.0
141
1.0
290
     0
  0
SCALE
  5
56
102
{ACAD_REACTORS
330
47
102
}
330
47
100
AcDbScale
 70
     0
300
8:1
140
8.0
141
1.0
290
     0
  0
SCALE
  5
57
102
{ACAD_REACTORS
330
47
102
}
330
47
100
AcDbScale
 70
     0
300
10:1
140
10.0
141
1.0
290
     0
  0
SCALE
  5
58
102
{ACAD_REACTORS
330
47
102
}
330
47
100
AcDbScale
 70
     0
300
100:1
140
100.0
141
1.0
290
     0
  0
SCALE
  5
59
102
{ACAD_REACTORS
330
47
102
}
330
47
100
AcDbScale
 70
     0
300
1/128" = 1'-0"
140
0.0078125
141
12.0
290
     0
  0
SCALE
  5
5A
102
{ACAD_REACTORS
330
47
102
}
330
47
100
AcDbScale
 70
     0
300
1/64" = 1'-0"
140
0.015625
141
12.0
290
     0
  0
SCALE
  5
5B
102
{ACAD_REACTORS
330
47
102
}
330
47
100
AcDbScale
 70
     0
300
1/32" = 1'-0"
140
0.03125
141
12.0
290
     0
  0
SCALE
  5
5C
102
{ACAD_REACTORS
330
47
102
}
330
47
100
AcDbScale
 70
     0
300
1/16" = 1'-0"
140
0.0625
141
12.0
290
     0
  0
SCALE
  5
5D
102
{ACAD_REACTORS
330
47
102
}
330
47
100
AcDbScale
 70
     0
300
3/32" = 1'-0"
140
0.09375
141
12.0
290
     0
  0
SCALE
  5
5E
102
{ACAD_REACTORS
330
47
102
}
330
47
100
AcDbScale
 70
     0
300
1/8" = 1'-0"
140
0.125
141
12.0
290
     0
  0
SCALE
  5
5F
102
{ACAD_REACTORS
330
47
102
}
330
47
100
AcDbScale
 70
     0
300
3/16" = 1'-0"
140
0.1875
141
12.0
290
     0
  0
SCALE
  5
60
102
{ACAD_REACTORS
330
47
102
}
330
47
100
AcDbScale
 70
     0
300
1/4" = 1'-0"
140
0.25
141
12.0
290
     0
  0
SCALE
  5
61
102
{ACAD_REACTORS
330
47
102
}
330
47
100
AcDbScale
 70
     0
300
3/8" = 1'-0"
140
0.375
141
12.0
290
     0
  0
SCALE
  5
62
102
{ACAD_REACTORS
330
47
102
}
330
47
100
AcDbScale
 70
     0
300
1/2" = 1'-0"
140
0.5
141
12.0
290
     0
  0
SCALE
  5
63
102
{ACAD_REACTORS
330
47
102
}
330
47
100
AcDbScale
 70
     0
300
3/4" = 1'-0"
140
0.75
141
12.0
290
     0
  0
SCALE
  5
64
102
{ACAD_REACTORS
330
47
102
}
330
47
100
AcDbScale
 70
     0
300
1" = 1'-0"
140
1.0
141
12.0
290
     0
  0
SCALE
  5
65
102
{ACAD_REACTORS
330
47
102
}
330
47
100
AcDbScale
 70
     0
300
1-1/2" = 1'-0"
140
1.5
141
12.0
290
     0
  0
SCALE
  5
66
102
{ACAD_REACTORS
330
47
102
}
330
47
100
AcDbScale
 70
     0
300
3" = 1'-0"
140
3.0
141
12.0
290
     0
  0
SCALE
  5
67
102
{ACAD_REACTORS
330
47
102
}
330
47
100
AcDbScale
 70
     0
300
6" = 1'-0"
140
6.0
141
12.0
290
     0
  0
SCALE
  5
68
102
{ACAD_REACTORS
330
47
102
}
330
47
100
AcDbScale
 70
     0
300
1'-0" = 1'-0"
140
12.0
141
12.0
290
     0
  0
TABLESTYLE
  5
6A
102
{ACAD_REACTORS
330
69
102
}
330
69
100
AcDbTableStyle
  3
Standard
 70
     0
 71
     0
 40
0.06
 41
0.06
280
     0
281
     0
  7
Standard
140
0.18
170
     2
 62
     0
 63
   257
283
     0
274
    -2
284
     1
 64
     0
275
    -2
285
     1
 65
     0
276
    -2
286
     1
 66
     0
277
    -2
287
     1
 67
     0
278
    -2
288
     1
 68
     0
279
    -2
289
     1
 69
     0
  7
Standard
140
0.25
170
     5
 62
     0
 63
   257
283
     0
274
    -2
284
     1
 64
     0
275
    -2
285
     1
 65
     0
276
    -2
286
     1
 66
     0
277
    -2
287
     1
 67
     0
278
    -2
288
     1
 68
     0
279
    -2
289
     1
 69
     0
  7
Standard
140
0.18
170
     5
 62
     0
 63
   257
283
     0
274
    -2
284
     1
 64
     0
275
    -2
285
     1
 65
     0
276
    -2
286
     1
 66
     0
277
    -2
287
     1
 67
     0
278
    -2
288
     1
 68
     0
279
    -2
289
     1
 69
     0
  0
VISUALSTYLE
  5
2F
102
{ACAD_REACTORS
330
2A
102
}
102
{ACAD_XDICTIONARY
360
57D
102
}
330
2A
100
AcDbVisualStyle
  2
2dWireframe
 70
     4
 71
     0
 72
     2
 73
     0
 90
        0
 40
0.6
 41
30.0
 62
     5
 63
     7
 74
     1
 91
        4
 64
     7
 65
   257
 75
     1
175
     1
 42
1.0
 92
        0
 66
   257
 43
1.0
 76
     1
 77
     6
 78
     2
 67
     7
 79
     5
170
     0
171
     0
290
     0
174
     0
 93
        1
 44
0.0
173
     0
291
     0
 45
0.0
1001
ACAD
1000
AcDbSavedByObjectVersion
1070
     0
  0
VISUALSTYLE
  5
32
102
{ACAD_REACTORS
330
2A
102
}
102
{ACAD_XDICTIONARY
360
583
102
}
330
2A
100
AcDbVisualStyle
  2
Basic
 70
     7
 71
     1
 72
     0
 73
     1
 90
        0
 40
0.6
 41
30.0
 62
     5
 63
     7
 74
     0
 91
        4
 64
     7
 65
   257
 75
     1
175
     1
 42
1.0
 92
        8
 66
     7
 43
1.0
 76
     1
 77
     6
 78
     2
 67
     7
 79
     5
170
     0
171
     0
290
     0
174
     0
 93
        1
 44
0.0
173
     0
291
     1
 45
0.0
1001
ACAD
1000
AcDbSavedByObjectVersion
1070
     0
  0
VISUALSTYLE
  5
36
102
{ACAD_REACTORS
330
2A
102
}
102
{ACAD_XDICTIONARY
360
58B
102
}
330
2A
100
AcDbVisualStyle
  2
Brighten
 70
    12
 71
     2
 72
     2
 73
     0
 90
        0
 40
0.6
 41
30.0
 62
     5
 63
     7
 74
     1
 91
        4
 64
     7
 65
   257
 75
     1
175
     1
 42
1.0
 92
        8
 66
     7
 43
1.0
 76
     1
 77
     6
 78
     2
 67
     7
 79
     5
170
     0
171
     0
290
     0
174
     0
 93
        1
 44
50.0
173
     0
291
     1
 45
0.0
1001
ACAD
1000
AcDbSavedByObjectVersion
1070
     0
  0
VISUALSTYLE
  5
3A
102
{ACAD_REACTORS
330
2A
102
}
102
{ACAD_XDICTIONARY
360
593
102
}
330
2A
100
AcDbVisualStyle
  2
ColorChange
 70
    16
 71
     2
 72
     2
 73
     3
 90
        0
 40
0.6
 41
30.0
 62
     5
 63
     8
 74
     1
 91
        4
 64
     7
 65
   257
 75
     1
175
     1
 42
1.0
 92
        8
 66
     8
 43
1.0
 76
     1
 77
     6
 78
     2
 67
     7
 79
     5
170
     0
171
     0
290
     0
174
     0
 93
        1
 44
0.0
173
     0
291
     1
 45
0.0
1001
ACAD
1000
AcDbSavedByObjectVersion
1070
     0
  0
VISUALSTYLE
  5
34
102
{ACAD_REACTORS
330
2A
102
}
102
{ACAD_XDICTIONARY
360
587
102
}
330
2A
100
AcDbVisualStyle
  2
Conceptual
 70
     9
 71
     3
 72
     2
 73
     0
 90
        0
 40
0.6
 41
30.0
 62
     5
 63
     7
 74
     2
 91
        2
 64
     7
 65
   257
 75
     1
175
     1
 42
179.0
 92
        8
 66
     7
 43
1.0
 76
     1
 77
     6
 78
     2
 67
     7
 79
     3
170
     0
171
     0
290
     0
174
     0
 93
        1
 44
0.0
173
     0
291
     0
 45
0.0
1001
ACAD
1000
AcDbSavedByObjectVersion
1070
     0
  0
VISUALSTYLE
  5
35
102
{ACAD_REACTORS
330
2A
102
}
102
{ACAD_XDICTIONARY
360
589
102
}
330
2A
100
AcDbVisualStyle
  2
Dim
 70
    11
 71
     2
 72
     2
 73
     0
 90
        0
 40
0.6
 41
30.0
 62
     5
 63
     7
 74
     1
 91
        4
 64
     7
 65
   257
 75
     1
175
     1
 42
1.0
 92
        8
 66
     7
 43
1.0
 76
     1
 77
     6
 78
     2
 67
     7
 79
     5
170
     0
171
     0
290
     0
174
     0
 93
        1
 44
-50.0
173
     0
291
     1
 45
0.0
1001
ACAD
1000
AcDbSavedByObjectVersion
1070
     0
  0
VISUALSTYLE
  5
3D
102
{ACAD_REACTORS
330
2A
102
}
102
{ACAD_XDICTIONARY
360
599
102
}
330
2A
100
AcDbVisualStyle
  2
EdgeColorOff
 70
    22
 71
     2
 72
     2
 73
     0
 90
        0
 40
0.6
 41
30.0
 62
     5
 63
     7
 74
     1
 91
        4
 64
     7
 65
   257
 75
     1
175
     1
 42
1.0
 92
        8
 66
     7
 43
1.0
 76
     1
 77
     6
 78
     2
 67
     7
 79
     5
170
     0
171
     0
290
     0
174
     0
 93
        1
 44
0.0
173
     0
291
     1
 45
0.0
1001
ACAD
1000
AcDbSavedByObjectVersion
1070
     0
  0
VISUALSTYLE
  5
39
102
{ACAD_REACTORS
330
2A
102
}
102
{ACAD_XDICTIONARY
360
591
102
}
330
2A
100
AcDbVisualStyle
  2
Facepattern
 70
    15
 71
     2
 72
     2
 73
     0
 90
        0
 40
0.6
 41
30.0
 62
     5
 63
     7
 74
     1
 91
        4
 64
     7
 65
   257
 75
     1
175
     1
 42
1.0
 92
        8
 66
     7
 43
1.0
 76
     1
 77
     6
 78
     2
 67
     7
 79
     5
170
     0
171
     0
290
     0
174
     0
 93
        1
 44
0.0
173
     0
291
     1
 45
0.0
1001
ACAD
1000
AcDbSavedByObjectVersion
1070
     0
  0
VISUALSTYLE
  5
2B
102
{ACAD_REACTORS
330
2A
102
}
102
{ACAD_XDICTIONARY
360
575
102
}
330
2A
100
AcDbVisualStyle
  2
Flat
 70
     0
 71
     2
 72
     1
 73
     1
 90
        2
 40
0.6
 41
30.0
 62
     5
 63
     7
 74
     0
 91
        0
 64
     7
 65
   257
 75
     1
175
     1
 42
1.0
 92
        8
 66
     7
 43
1.0
 76
     1
 77
     6
 78
     2
 67
     7
 79
     5
170
     0
171
     0
290
     0
174
     0
 93
       13
 44
0.0
173
     0
291
     1
 45
0.0
1001
ACAD
1000
AcDbSavedByObjectVersion
1070
     0
  0
VISUALSTYLE
  5
2C
102
{ACAD_REACTORS
330
2A
102
}
102
{ACAD_XDICTIONARY
360
577
102
}
330
2A
100
AcDbVisualStyle
  2
FlatWithEdges
 70
     1
 71
     2
 72
     1
 73
     1
 90
        2
 40
0.6
 41
30.0
 62
     5
 63
     7
 74
     1
 91
        0
 64
     7
 65
   257
 75
     1
175
     1
 42
1.0
 92
        0
 66
   257
 43
1.0
 76
     1
 77
     6
 78
     2
 67
     7
 79
     5
170
     0
171
     0
290
     0
174
     0
 93
       13
 44
0.0
173
     0
291
     1
 45
0.0
1001
ACAD
1000
AcDbSavedByObjectVersion
1070
     0
  0
VISUALSTYLE
  5
2D
102
{ACAD_REACTORS
330
2A
102
}
102
{ACAD_XDICTIONARY
360
579
102
}
330
2A
100
AcDbVisualStyle
  2
Gouraud
 70
     2
 71
     2
 72
     2
 73
     1
 90
        2
 40
0.6
 41
30.0
 62
     5
 63
     7
 74
     0
 91
        0
 64
     7
 65
   257
 75
     1
175
     1
 42
1.0
 92
        0
 66
     7
 43
1.0
 76
     1
 77
     6
 78
     2
 67
     7
 79
     5
170
     0
171
     0
290
     0
174
     0
 93
       13
 44
0.0
173
     0
291
     1
 45
0.0
1001
ACAD
1000
AcDbSavedByObjectVersion
1070
     0
  0
VISUALSTYLE
  5
2E
102
{ACAD_REACTORS
330
2A
102
}
102
{ACAD_XDICTIONARY
360
57B
102
}
330
2A
100
AcDbVisualStyle
  2
GouraudWithEdges
 70
     3
 71
     2
 72
     2
 73
     1
 90
        2
 40
0.6
 41
30.0
 62
     5
 63
     7
 74
     1
 91
        0
 64
     7
 65
   257
 75
     1
175
     1
 42
1.0
 92
        0
 66
   257
 43
1.0
 76
     1
 77
     6
 78
     2
 67
     7
 79
     5
170
     0
171
     0
290
     0
174
     0
 93
       13
 44
0.0
173
     0
291
     1
 45
0.0
1001
ACAD
1000
AcDbSavedByObjectVersion
1070
     0
  0
VISUALSTYLE
  5
31
102
{ACAD_REACTORS
330
2A
102
}
102
{ACAD_XDICTIONARY
360
581
102
}
330
2A
100
AcDbVisualStyle
  2
Hidden
 70
     6
 71
     1
 72
     2
 73
     2
 90
        0
 40
0.6
 41
30.0
 62
     5
 63
     7
 74
     2
 91
        2
 64
     7
 65
   257
 75
     2
175
     1
 42
40.0
 92
        0
 66
   257
 43
1.0
 76
     1
 77
     6
 78
     2
 67
     7
 79
     3
170
     0
171
     0
290
     0
174
     0
 93
        1
 44
0.0
173
     0
291
     0
 45
0.0
1001
ACAD
1000
AcDbSavedByObjectVersion
1070
     0
  0
VISUALSTYLE
  5
3B
102
{ACAD_REACTORS
330
2A
102
}
102
{ACAD_XDICTIONARY
360
595
102
}
330
2A
100
AcDbVisualStyle
  2
JitterOff
 70
    20
 71
     2
 72
     2
 73
     0
 90
        0
 40
0.6
 41
30.0
 62
     5
 63
     7
 74
     1
 91
        4
 64
     7
 65
   257
 75
     1
175
     1
 42
1.0
 92
       10
 66
     7
 43
1.0
 76
     1
 77
     6
 78
     2
 67
     7
 79
     5
170
     0
171
     0
290
     0
174
     0
 93
        1
 44
0.0
173
     0
291
     1
 45
0.0
1001
ACAD
1000
AcDbSavedByObjectVersion
1070
     0
  0
VISUALSTYLE
  5
38
102
{ACAD_REACTORS
330
2A
102
}
102
{ACAD_XDICTIONARY
360
58F
102
}
330
2A
100
AcDbVisualStyle
  2
Linepattern
 70
    14
 71
     2
 72
     2
 73
     0
 90
        0
 40
0.6
 41
30.0
 62
     5
 63
     7
 74
     1
 91
        4
 64
     7
 65
   257
 75
     7
175
     7
 42
1.0
 92
        8
 66
     7
 43
1.0
 76
     1
 77
     6
 78
     2
 67
     7
 79
     5
170
     0
171
     0
290
     0
174
     0
 93
        1
 44
0.0
173
     0
291
     1
 45
0.0
1001
ACAD
1000
AcDbSavedByObjectVersion
1070
     0
  0
VISUALSTYLE
  5
3C
102
{ACAD_REACTORS
330
2A
102
}
102
{ACAD_XDICTIONARY
360
597
102
}
330
2A
100
AcDbVisualStyle
  2
OverhangOff
 70
    21
 71
     2
 72
     2
 73
     0
 90
        0
 40
0.6
 41
30.0
 62
     5
 63
     7
 74
     1
 91
        4
 64
     7
 65
   257
 75
     1
175
     1
 42
1.0
 92
        9
 66
     7
 43
1.0
 76
     1
 77
     6
 78
     2
 67
     7
 79
     5
170
     0
171
     0
290
     0
174
     0
 93
        1
 44
0.0
173
     0
291
     1
 45
0.0
1001
ACAD
1000
AcDbSavedByObjectVersion
1070
     0
  0
VISUALSTYLE
  5
33
102
{ACAD_REACTORS
330
2A
102
}
102
{ACAD_XDICTIONARY
360
585
102
}
330
2A
100
AcDbVisualStyle
  2
Realistic
 70
     8
 71
     2
 72
     3
 73
     0
 90
        2
 40
0.6
 41
30.0
 62
     5
 63
     7
 74
     0
 91
        0
 64
     7
 65
   257
 75
     1
175
     1
 42
1.0
 92
        8
 66
   257
 43
1.0
 76
     1
 77
     6
 78
     2
 67
     7
 79
     3
170
     0
171
     0
290
     0
174
     0
 93
       13
 44
0.0
173
     0
291
     0
 45
0.0
1001
ACAD
1000
AcDbSavedByObjectVersion
1070
     0
  0
VISUALSTYLE
  5
42
102
{ACAD_REACTORS
330
2A
102
}
102
{ACAD_XDICTIONARY
360
5A3
102
}
330
2A
100
AcDbVisualStyle
  2
Shaded
 70
    27
 71
     2
 72
     2
 73
     1
 90
        2
 40
0.6
 41
30.0
 62
     5
 63
     7
 74
     0
 91
        4
 64
     7
 65
   257
 75
     1
175
     1
 42
1.0
 92
        8
 66
   257
 43
1.0
 76
     1
 77
     6
 78
     2
 67
     8
 79
     3
170
     0
171
     0
290
     0
174
     0
 93
        5
 44
0.0
173
     0
291
     0
 45
0.0
1001
ACAD
1000
AcDbSavedByObjectVersion
1070
     0
  0
VISUALSTYLE
  5
41
102
{ACAD_REACTORS
330
2A
102
}
102
{ACAD_XDICTIONARY
360
5A1
102
}
330
2A
100
AcDbVisualStyle
  2
Shaded with edges
 70
    26
 71
     2
 72
     2
 73
     1
 90
        2
 40
0.6
 41
30.0
 62
     5
 63
     7
 74
     1
 91
       10
 64
     7
 65
   257
 75
     2
175
     1
 42
1.0
 92
        8
 66
   257
 43
1.0
 76
     1
 77
     6
 78
     2
 67
     7
 79
     3
170
     0
171
     0
290
     0
174
     0
 93
        5
 44
0.0
173
     0
291
     0
 45
0.0
1001
ACAD
1000
AcDbSavedByObjectVersion
1070
     0
  0
VISUALSTYLE
  5
3E
102
{ACAD_REACTORS
330
2A
102
}
102
{ACAD_XDICTIONARY
360
59B
102
}
330
2A
100
AcDbVisualStyle
  2
Shades of Gray
 70
    23
 71
     2
 72
     2
 73
     3
 90
        0
 40
0.6
 41
30.0
 62
     5
 63
     7
 74
     2
 91
        2
 64
     7
 65
     7
 75
     1
175
     1
 42
40.0
 92
        8
 66
     7
 43
1.0
 76
     1
 77
     6
 78
     2
 67
     7
 79
     3
170
     0
171
     0
290
     0
174
     0
 93
        1
 44
0.0
173
     0
291
     0
 45
0.0
1001
ACAD
1000
AcDbSavedByObjectVersion
1070
     0
  0
VISUALSTYLE
  5
3F
102
{ACAD_REACTORS
330
2A
102
}
102
{ACAD_XDICTIONARY
360
59D
102
}
330
2A
100
AcDbVisualStyle
  2
Sketchy
 70
    24
 71
     1
 72
     2
 73
     2
 90
        0
 40
0.6
 41
30.0
 62
     5
 63
     7
 74
     2
 91
        2
 64
     7
 65
     7
 75
     1
175
     1
 42
40.0
 92
       11
 66
     7
 43
1.0
 76
     1
 77
     6
 78
     2
 67
     7
 79
     6
170
     0
171
     0
290
     0
174
     0
 93
        1
 44
0.0
173
     0
291
     0
 45
0.0
1001
ACAD
1000
AcDbSavedByObjectVersion
1070
     0
  0
VISUALSTYLE
  5
37
102
{ACAD_REACTORS
330
2A
102
}
102
{ACAD_XDICTIONARY
360
58D
102
}
330
2A
100
AcDbVisualStyle
  2
Thicken
 70
    13
 71
     2
 72
     2
 73
     0
 90
        0
 40
0.6
 41
30.0
 62
     5
 63
     7
 74
     1
 91
        4
 64
     7
 65
   257
 75
     1
175
     1
 42
1.0
 92
       12
 66
     7
 43
1.0
 76
     1
 77
     6
 78
     2
 67
     7
 79
     5
170
     0
171
     0
290
     0
174
     0
 93
        1
 44
0.0
173
     0
291
     1
 45
0.0
1001
ACAD
1000
AcDbSavedByObjectVersion
1070
     0
  0
VISUALSTYLE
  5
30
102
{ACAD_REACTORS
330
2A
102
}
102
{ACAD_XDICTIONARY
360
57F
102
}
330
2A
100
AcDbVisualStyle
  2
Wireframe
 70
     5
 71
     0
 72
     2
 73
     0
 90
        0
 40
0.6
 41
30.0
 62
     5
 63
     7
 74
     1
 91
        4
 64
     7
 65
   257
 75
     1
175
     1
 42
1.0
 92
        0
 66
   257
 43
1.0
 76
     1
 77
     6
 78
     2
 67
     7
 79
     3
170
     0
171
     0
290
     0
174
     0
 93
        1
 44
0.0
173
     0
291
     0
 45
0.0
1001
ACAD
1000
AcDbSavedByObjectVersion
1070
     0
  0
VISUALSTYLE
  5
40
102
{ACAD_REACTORS
330
2A
102
}
102
{ACAD_XDICTIONARY
360
59F
102
}
330
2A
100
AcDbVisualStyle
  2
X-Ray
 70
    25
 71
     2
 72
     2
 73
     1
 90
        1
 40
0.5
 41
30.0
 62
     5
 63
     7
 74
     1
 91
        0
 64
     7
 65
   257
 75
     1
175
     1
 42
1.0
 92
        8
 66
     7
 43
1.0
 76
     1
 77
     6
 78
     2
 67
     7
 79
     3
170
     0
171
     0
290
     0
174
     0
 93
       13
 44
0.0
173
     0
291
     0
 45
0.0
1001
ACAD
1000
AcDbSavedByObjectVersion
1070
     0
  0
DICTIONARYVAR
  5
573
102
{ACAD_REACTORS
330
568
102
}
330
568
100
DictionaryVariables
280
     0
  1
1:1
  0
DICTIONARYVAR
  5
56A
102
{ACAD_REACTORS
330
568
102
}
330
568
100
DictionaryVariables
280
     0
  1
Standard
  0
DICTIONARYVAR
  5
569
102
{ACAD_REACTORS
330
568
102
}
330
568
100
DictionaryVariables
280
     0
  1
Standard
  0
DICTIONARYVAR
  5
56E
102
{ACAD_REACTORS
330
568
102
}
330
568
100
DictionaryVariables
280
     0
  1
2
  0
DICTIONARYVAR
  5
56F
102
{ACAD_REACTORS
330
568
102
}
330
568
100
DictionaryVariables
280
     0
  1
1
  0
DICTIONARYVAR
  5
574
102
{ACAD_REACTORS
330
568
102
}
330
568
100
DictionaryVariables
280
     0
  1
1
  0
DICTIONARYVAR
  5
56B
102
{ACAD_REACTORS
330
568
102
}
330
568
100
DictionaryVariables
280
     0
  1
0
  0
DICTIONARY
  5
5A7
330
45
100
AcDbDictionary
280
     1
281
     1
  3
ACAD_XREC_ROUNDTRIP
360
5A8
  0
DICTIONARY
  5
5A5
330
44
100
AcDbDictionary
280
     1
281
     1
  3
ACAD_XREC_ROUNDTRIP
360
5A6
  0
DICTIONARY
  5
5A9
330
46
100
AcDbDictionary
280
     1
281
     1
  3
ACAD_XREC_ROUNDTRIP
360
5AA
  0
DICTIONARY
  5
5AC
330
6C
100
AcDbDictionary
280
     1
281
     1
  3
ACAD_XREC_ROUNDTRIP
360
5AD
  0
DICTIONARY
  5
57D
330
2F
100
AcDbDictionary
280
     1
281
     1
  3
ACAD_XREC_ROUNDTRIP
360
57E
  0
DICTIONARY
  5
583
330
32
100
AcDbDictionary
280
     1
281
     1
  3
ACAD_XREC_ROUNDTRIP
360
584
  0
DICTIONARY
  5
58B
330
36
100
AcDbDictionary
280
     1
281
     1
  3
ACAD_XREC_ROUNDTRIP
360
58C
  0
DICTIONARY
  5
593
330
3A
100
AcDbDictionary
280
     1
281
     1
  3
ACAD_XREC_ROUNDTRIP
360
594
  0
DICTIONARY
  5
587
330
34
100
AcDbDictionary
280
     1
281
     1
  3
ACAD_XREC_ROUNDTRIP
360
588
  0
DICTIONARY
  5
589
330
35
100
AcDbDictionary
280
     1
281
     1
  3
ACAD_XREC_ROUNDTRIP
360
58A
  0
DICTIONARY
  5
599
330
3D
100
AcDbDictionary
280
     1
281
     1
  3
ACAD_XREC_ROUNDTRIP
360
59A
  0
DICTIONARY
  5
591
330
39
100
AcDbDictionary
280
     1
281
     1
  3
ACAD_XREC_ROUNDTRIP
360
592
  0
DICTIONARY
  5
575
330
2B
100
AcDbDictionary
280
     1
281
     1
  3
ACAD_XREC_ROUNDTRIP
360
576
  0
DICTIONARY
  5
577
330
2C
100
AcDbDictionary
280
     1
281
     1
  3
ACAD_XREC_ROUNDTRIP
360
578
  0
DICTIONARY
  5
579
330
2D
100
AcDbDictionary
280
     1
281
     1
  3
ACAD_XREC_ROUNDTRIP
360
57A
  0
DICTIONARY
  5
57B
330
2E
100
AcDbDictionary
280
     1
281
     1
  3
ACAD_XREC_ROUNDTRIP
360
57C
  0
DICTIONARY
  5
581
330
31
100
AcDbDictionary
280
     1
281
     1
  3
ACAD_XREC_ROUNDTRIP
360
582
  0
DICTIONARY
  5
595
330
3B
100
AcDbDictionary
280
     1
281
     1
  3
ACAD_XREC_ROUNDTRIP
360
596
  0
DICTIONARY
  5
58F
330
38
100
AcDbDictionary
280
     1
281
     1
  3
ACAD_XREC_ROUNDTRIP
360
590
  0
DICTIONARY
  5
597
330
3C
100
AcDbDictionary
280
     1
281
     1
  3
ACAD_XREC_ROUNDTRIP
360
598
  0
DICTIONARY
  5
585
330
33
100
AcDbDictionary
280
     1
281
     1
  3
ACAD_XREC_ROUNDTRIP
360
586
  0
DICTIONARY
  5
5A3
330
42
100
AcDbDictionary
280
     1
281
     1
  3
ACAD_XREC_ROUNDTRIP
360
5A4
  0
DICTIONARY
  5
5A1
330
41
100
AcDbDictionary
280
     1
281
     1
  3
ACAD_XREC_ROUNDTRIP
360
5A2
  0
DICTIONARY
  5
59B
330
3E
100
AcDbDictionary
280
     1
281
     1
  3
ACAD_XREC_ROUNDTRIP
360
59C
  0
DICTIONARY
  5
59D
330
3F
100
AcDbDictionary
280
     1
281
     1
  3
ACAD_XREC_ROUNDTRIP
360
59E
  0
DICTIONARY
  5
58D
330
37
100
AcDbDictionary
280
     1
281
     1
  3
ACAD_XREC_ROUNDTRIP
360
58E
  0
DICTIONARY
  5
57F
330
30
100
AcDbDictionary
280
     1
281
     1
  3
ACAD_XREC_ROUNDTRIP
360
580
  0
DICTIONARY
  5
59F
330
40
100
AcDbDictionary
280
     1
281
     1
  3
ACAD_XREC_ROUNDTRIP
360
5A0
  0
XRECORD
  5
5A8
102
{ACAD_REACTORS
330
5A7
102
}
330
5A7
100
AcDbXrecord
280
     1
102
MATERIAL
148
0.0
149
0.0
149
0.0
 93
        0
 94
      127
282
     0
 72
     1
 77
     1
171
     1
175
     1
179
     1
273
     0
  0
XRECORD
  5
5A6
102
{ACAD_REACTORS
330
5A5
102
}
330
5A5
100
AcDbXrecord
280
     1
102
MATERIAL
148
0.0
149
0.0
149
0.0
 93
        0
 94
      127
282
     0
 72
     1
 77
     1
171
     1
175
     1
179
     1
273
     0
  0
XRECORD
  5
5AA
102
{ACAD_REACTORS
330
5A9
102
}
330
5A9
100
AcDbXrecord
280
     1
102
MATERIAL
148
0.0
149
0.0
149
0.0
 93
        0
 94
      127
282
     0
 72
     1
 77
     1
171
     1
175
     1
179
     1
273
     0
  0
XRECORD
  5
5AD
102
{ACAD_REACTORS
330
5AC
102
}
330
5AC
100
AcDbXrecord
280
     1
102
ACAD_ROUNDTRIP_2010_MLEADER_STYLE
  0
XRECORD
  5
57E
102
{ACAD_REACTORS
330
57D
102
}
330
57D
100
AcDbXrecord
280
     1
102
RTVSPropertyOp0
 70
     1
102
RTVSPropertyOp1
 70
     1
102
RTVSPropertyOp2
 70
     1
102
RTVSPropertyOp3
 70
     1
102
RTVSPropertyOp4
 70
     1
102
RTVSPropertyOp5
 70
     1
102
RTVSPropertyOp6
 70
     1
102
RTVSPropertyOp7
 70
     1
102
RTVSPropertyOp8
 70
     1
102
RTVSPropertyOp9
 70
     1
102
RTVSPropertyOp10
 70
     1
102
RTVSPropertyOp11
 70
     1
102
RTVSPropertyOp12
 70
     1
102
RTVSPropertyOp13
 70
     1
102
RTVSPropertyOp14
 70
     1
102
RTVSPropertyOp15
 70
     1
102
RTVSPropertyOp16
 70
     1
102
RTVSPropertyOp17
 70
     1
102
RTVSPropertyOp18
 70
     1
102
RTVSPropertyOp19
 70
     1
102
RTVSPropertyOp20
 70
     1
102
RTVSPropertyOp21
 70
     1
102
RTVSPropertyOp22
 70
     1
102
RTVSPropertyOp23
 70
     1
102
RTVSPropertyOp24
 70
     1
102
RTVSPropertyOp25
 70
     1
102
RTVSPropertyOp26
 70
     1
102
RTVSPropertyOp27
 70
     1
102
RTVSPropertyOp28
 70
     1
102
RTVSPropertyOp29
 70
     1
102
RTVSPropertyOp30
 70
     1
102
RTVSPropertyOp31
 70
     1
102
RTVSPropertyOp32
 70
     1
102
RTVSPropertyOp33
 70
     1
102
RTVSPropertyOp34
 70
     1
102
RTVSPropertyOp35
 70
     1
102
RTVSPropertyOp36
 70
     1
102
RTVSPropertyOp37
 70
     1
102
RTVSPropertyOp38
 70
     1
102
RTVSPropertyOp39
 70
     1
102
RTVSPropertyOp40
 70
     1
102
RTVSPropertyOp41
 70
     1
102
RTVSPropertyOp42
 70
     1
102
RTVSPropertyOp43
 70
     1
102
RTVSPropertyOp44
 70
     1
102
RTVSPropertyOp45
 70
     1
102
RTVSPropertyOp46
 70
     1
102
RTVSPropertyOp47
 70
     1
102
RTVSPropertyOp48
 70
     1
102
RTVSPropertyOp49
 70
     1
102
RTVSPropertyOp50
 70
     1
102
RTVSPropertyOp51
 70
     0
102
RTVSPropertyOp52
 70
     0
102
RTVSPropertyOp53
 70
     1
102
RTVSPropertyOp54
 70
     1
102
RTVSPropertyOp55
 70
     1
102
RTVSPropertyOp56
 70
     1
102
RTVSPropertyOp57
 70
     1
102
RTVSPost2010Prop28
280
     1
102
RTVSPost2010PropOp28
 70
     1
102
RTVSPost2010Prop29
280
     1
102
RTVSPost2010PropOp29
 70
     1
102
RTVSPost2010Prop30
280
     0
102
RTVSPost2010PropOp30
 70
     1
102
RTVSPost2010Prop31
280
     0
102
RTVSPost2010PropOp31
 70
     1
102
RTVSPost2010Prop32
280
     0
102
RTVSPost2010PropOp32
 70
     1
102
RTVSPost2010Prop33
280
     0
102
RTVSPost2010PropOp33
 70
     1
102
RTVSPost2010Prop34
280
     0
102
RTVSPost2010PropOp34
 70
     1
102
RTVSPost2010Prop35
280
     0
102
RTVSPost2010PropOp35
 70
     1
102
RTVSPost2010Prop36
280
     0
102
RTVSPost2010PropOp36
 70
     1
102
RTVSPost2010Prop37
 90
       50
102
RTVSPost2010PropOp37
 70
     1
102
RTVSPost2010Prop38
140
0.0
102
RTVSPost2010PropOp38
 70
     1
102
RTVSPost2010Prop39
140
1.0
102
RTVSPost2010PropOp39
 70
     1
102
RTVSPost2010Prop40
 90
        0
102
RTVSPost2010PropOp40
 70
     1
102
RTVSPost2010Prop41ColorIndex
 90
       18
102
RTVSPost2010Prop41ColorRGB
 90
        0
102
RTVSPost2010PropOp41
 70
     1
102
RTVSPost2010Prop42
 90
       50
102
RTVSPost2010PropOp42
 70
     1
102
RTVSPost2010Prop43
 90
        3
102
RTVSPost2010PropOp43
 70
     1
102
RTVSPost2010Prop44ColorIndex
 90
        5
102
RTVSPost2010Prop44ColorRGB
 90
      255
102
RTVSPost2010PropOp44
 70
     1
102
RTVSPost2010Prop45
280
     0
102
RTVSPost2010PropOp45
 70
     1
102
RTVSPost2010Prop46
 90
       50
102
RTVSPost2010PropOp46
 70
     1
102
RTVSPost2010Prop47
 90
       50
102
RTVSPost2010PropOp47
 70
     1
102
RTVSPost2010Prop48
 90
       50
102
RTVSPost2010PropOp48
 70
     1
102
RTVSPost2010Prop49
280
     0
102
RTVSPost2010PropOp49
 70
     1
102
RTVSPost2010Prop50
 90
       50
102
RTVSPost2010PropOp50
 70
     1
102
RTVSPost2010Prop51ColorIndex
 90
      256
102
RTVSPost2010Prop51ColorRGB
 90
-16777216
102
RTVSPost2010PropOp51
 70
     0
102
RTVSPost2010Prop52
140
1.0
102
RTVSPost2010PropOp52
 70
     0
102
RTVSPost2010Prop53
 90
        2
102
RTVSPost2010PropOp53
 70
     1
102
RTVSPost2010Prop54
  1
strokes_ogs.tif
102
RTVSPost2010PropOp54
 70
     1
102
RTVSPost2010Prop55
280
     0
102
RTVSPost2010PropOp55
 70
     1
102
RTVSPost2010Prop56
140
1.0
102
RTVSPost2010PropOp56
 70
     1
102
RTVSPost2010Prop57
140
1.0
102
RTVSPost2010PropOp57
 70
     1
  0
XRECORD
  5
584
102
{ACAD_REACTORS
330
583
102
}
330
583
100
AcDbXrecord
280
     1
102
RTVSPropertyOp0
 70
     1
102
RTVSPropertyOp1
 70
     1
102
RTVSPropertyOp2
 70
     1
102
RTVSPropertyOp3
 70
     1
102
RTVSPropertyOp4
 70
     1
102
RTVSPropertyOp5
 70
     1
102
RTVSPropertyOp6
 70
     1
102
RTVSPropertyOp7
 70
     1
102
RTVSPropertyOp8
 70
     1
102
RTVSPropertyOp9
 70
     1
102
RTVSPropertyOp10
 70
     1
102
RTVSPropertyOp11
 70
     1
102
RTVSPropertyOp12
 70
     1
102
RTVSPropertyOp13
 70
     1
102
RTVSPropertyOp14
 70
     1
102
RTVSPropertyOp15
 70
     1
102
RTVSPropertyOp16
 70
     1
102
RTVSPropertyOp17
 70
     1
102
RTVSPropertyOp18
 70
     1
102
RTVSPropertyOp19
 70
     1
102
RTVSPropertyOp20
 70
     1
102
RTVSPropertyOp21
 70
     1
102
RTVSPropertyOp22
 70
     1
102
RTVSPropertyOp23
 70
     1
102
RTVSPropertyOp24
 70
     1
102
RTVSPropertyOp25
 70
     1
102
RTVSPropertyOp26
 70
     1
102
RTVSPropertyOp27
 70
     1
102
RTVSPropertyOp28
 70
     1
102
RTVSPropertyOp29
 70
     1
102
RTVSPropertyOp30
 70
     1
102
RTVSPropertyOp31
 70
     1
102
RTVSPropertyOp32
 70
     1
102
RTVSPropertyOp33
 70
     1
102
RTVSPropertyOp34
 70
     1
102
RTVSPropertyOp35
 70
     1
102
RTVSPropertyOp36
 70
     1
102
RTVSPropertyOp37
 70
     1
102
RTVSPropertyOp38
 70
     1
102
RTVSPropertyOp39
 70
     1
102
RTVSPropertyOp40
 70
     1
102
RTVSPropertyOp41
 70
     1
102
RTVSPropertyOp42
 70
     1
102
RTVSPropertyOp43
 70
     1
102
RTVSPropertyOp44
 70
     1
102
RTVSPropertyOp45
 70
     1
102
RTVSPropertyOp46
 70
     1
102
RTVSPropertyOp47
 70
     1
102
RTVSPropertyOp48
 70
     1
102
RTVSPropertyOp49
 70
     1
102
RTVSPropertyOp50
 70
     1
102
RTVSPropertyOp51
 70
     0
102
RTVSPropertyOp52
 70
     0
102
RTVSPropertyOp53
 70
     1
102
RTVSPropertyOp54
 70
     1
102
RTVSPropertyOp55
 70
     1
102
RTVSPropertyOp56
 70
     1
102
RTVSPropertyOp57
 70
     1
102
RTVSPost2010Prop28
280
     0
102
RTVSPost2010PropOp28
 70
     1
102
RTVSPost2010Prop29
280
     1
102
RTVSPost2010PropOp29
 70
     1
102
RTVSPost2010Prop30
280
     1
102
RTVSPost2010PropOp30
 70
     1
102
RTVSPost2010Prop31
280
     0
102
RTVSPost2010PropOp31
 70
     1
102
RTVSPost2010Prop32
280
     0
102
RTVSPost2010PropOp32
 70
     1
102
RTVSPost2010Prop33
280
     0
102
RTVSPost2010PropOp33
 70
     1
102
RTVSPost2010Prop34
280
     0
102
RTVSPost2010PropOp34
 70
     1
102
RTVSPost2010Prop35
280
     0
102
RTVSPost2010PropOp35
 70
     1
102
RTVSPost2010Prop36
280
     0
102
RTVSPost2010PropOp36
 70
     1
102
RTVSPost2010Prop37
 90
       50
102
RTVSPost2010PropOp37
 70
     1
102
RTVSPost2010Prop38
140
0.0
102
RTVSPost2010PropOp38
 70
     1
102
RTVSPost2010Prop39
140
1.0
102
RTVSPost2010PropOp39
 70
     1
102
RTVSPost2010Prop40
 90
        0
102
RTVSPost2010PropOp40
 70
     1
102
RTVSPost2010Prop41ColorIndex
 90
       18
102
RTVSPost2010Prop41ColorRGB
 90
        0
102
RTVSPost2010PropOp41
 70
     1
102
RTVSPost2010Prop42
 90
       50
102
RTVSPost2010PropOp42
 70
     1
102
RTVSPost2010Prop43
 90
        3
102
RTVSPost2010PropOp43
 70
     1
102
RTVSPost2010Prop44ColorIndex
 90
        5
102
RTVSPost2010Prop44ColorRGB
 90
      255
102
RTVSPost2010PropOp44
 70
     1
102
RTVSPost2010Prop45
280
     0
102
RTVSPost2010PropOp45
 70
     1
102
RTVSPost2010Prop46
 90
       50
102
RTVSPost2010PropOp46
 70
     1
102
RTVSPost2010Prop47
 90
       50
102
RTVSPost2010PropOp47
 70
     1
102
RTVSPost2010Prop48
 90
       50
102
RTVSPost2010PropOp48
 70
     1
102
RTVSPost2010Prop49
280
     0
102
RTVSPost2010PropOp49
 70
     1
102
RTVSPost2010Prop50
 90
       50
102
RTVSPost2010PropOp50
 70
     1
102
RTVSPost2010Prop51ColorIndex
 90
      256
102
RTVSPost2010Prop51ColorRGB
 90
-16777216
102
RTVSPost2010PropOp51
 70
     0
102
RTVSPost2010Prop52
140
1.0
102
RTVSPost2010PropOp52
 70
     0
102
RTVSPost2010Prop53
 90
        2
102
RTVSPost2010PropOp53
 70
     1
102
RTVSPost2010Prop54
  1
strokes_ogs.tif
102
RTVSPost2010PropOp54
 70
     1
102
RTVSPost2010Prop55
280
     0
102
RTVSPost2010PropOp55
 70
     1
102
RTVSPost2010Prop56
140
1.0
102
RTVSPost2010PropOp56
 70
     1
102
RTVSPost2010Prop57
140
1.0
102
RTVSPost2010PropOp57
 70
     1
  0
XRECORD
  5
58C
102
{ACAD_REACTORS
330
58B
102
}
330
58B
100
AcDbXrecord
280
     1
102
RTVSPropertyOp0
 70
     1
102
RTVSPropertyOp1
 70
     1
102
RTVSPropertyOp2
 70
     1
102
RTVSPropertyOp3
 70
     1
102
RTVSPropertyOp4
 70
     1
102
RTVSPropertyOp5
 70
     1
102
RTVSPropertyOp6
 70
     1
102
RTVSPropertyOp7
 70
     1
102
RTVSPropertyOp8
 70
     1
102
RTVSPropertyOp9
 70
     1
102
RTVSPropertyOp10
 70
     1
102
RTVSPropertyOp11
 70
     1
102
RTVSPropertyOp12
 70
     1
102
RTVSPropertyOp13
 70
     1
102
RTVSPropertyOp14
 70
     1
102
RTVSPropertyOp15
 70
     1
102
RTVSPropertyOp16
 70
     1
102
RTVSPropertyOp17
 70
     1
102
RTVSPropertyOp18
 70
     1
102
RTVSPropertyOp19
 70
     1
102
RTVSPropertyOp20
 70
     1
102
RTVSPropertyOp21
 70
     1
102
RTVSPropertyOp22
 70
     1
102
RTVSPropertyOp23
 70
     1
102
RTVSPropertyOp24
 70
     1
102
RTVSPropertyOp25
 70
     1
102
RTVSPropertyOp26
 70
     1
102
RTVSPropertyOp27
 70
     1
102
RTVSPropertyOp28
 70
     1
102
RTVSPropertyOp29
 70
     1
102
RTVSPropertyOp30
 70
     1
102
RTVSPropertyOp31
 70
     1
102
RTVSPropertyOp32
 70
     1
102
RTVSPropertyOp33
 70
     1
102
RTVSPropertyOp34
 70
     1
102
RTVSPropertyOp35
 70
     1
102
RTVSPropertyOp36
 70
     1
102
RTVSPropertyOp37
 70
     1
102
RTVSPropertyOp38
 70
     1
102
RTVSPropertyOp39
 70
     1
102
RTVSPropertyOp40
 70
     1
102
RTVSPropertyOp41
 70
     1
102
RTVSPropertyOp42
 70
     1
102
RTVSPropertyOp43
 70
     1
102
RTVSPropertyOp44
 70
     1
102
RTVSPropertyOp45
 70
     1
102
RTVSPropertyOp46
 70
     1
102
RTVSPropertyOp47
 70
     1
102
RTVSPropertyOp48
 70
     1
102
RTVSPropertyOp49
 70
     1
102
RTVSPropertyOp50
 70
     1
102
RTVSPropertyOp51
 70
     0
102
RTVSPropertyOp52
 70
     0
102
RTVSPropertyOp53
 70
     1
102
RTVSPropertyOp54
 70
     1
102
RTVSPropertyOp55
 70
     1
102
RTVSPropertyOp56
 70
     1
102
RTVSPropertyOp57
 70
     1
102
RTVSPost2010Prop28
280
     0
102
RTVSPost2010PropOp28
 70
     1
102
RTVSPost2010Prop29
280
     1
102
RTVSPost2010PropOp29
 70
     1
102
RTVSPost2010Prop30
280
     1
102
RTVSPost2010PropOp30
 70
     1
102
RTVSPost2010Prop31
280
     0
102
RTVSPost2010PropOp31
 70
     1
102
RTVSPost2010Prop32
280
     0
102
RTVSPost2010PropOp32
 70
     1
102
RTVSPost2010Prop33
280
     0
102
RTVSPost2010PropOp33
 70
     1
102
RTVSPost2010Prop34
280
     0
102
RTVSPost2010PropOp34
 70
     1
102
RTVSPost2010Prop35
280
     0
102
RTVSPost2010PropOp35
 70
     1
102
RTVSPost2010Prop36
280
     0
102
RTVSPost2010PropOp36
 70
     1
102
RTVSPost2010Prop37
 90
       50
102
RTVSPost2010PropOp37
 70
     1
102
RTVSPost2010Prop38
140
0.0
102
RTVSPost2010PropOp38
 70
     1
102
RTVSPost2010Prop39
140
1.0
102
RTVSPost2010PropOp39
 70
     1
102
RTVSPost2010Prop40
 90
        0
102
RTVSPost2010PropOp40
 70
     1
102
RTVSPost2010Prop41ColorIndex
 90
       18
102
RTVSPost2010Prop41ColorRGB
 90
        0
102
RTVSPost2010PropOp41
 70
     1
102
RTVSPost2010Prop42
 90
       50
102
RTVSPost2010PropOp42
 70
     1
102
RTVSPost2010Prop43
 90
        3
102
RTVSPost2010PropOp43
 70
     1
102
RTVSPost2010Prop44ColorIndex
 90
        5
102
RTVSPost2010Prop44ColorRGB
 90
      255
102
RTVSPost2010PropOp44
 70
     1
102
RTVSPost2010Prop45
280
     0
102
RTVSPost2010PropOp45
 70
     1
102
RTVSPost2010Prop46
 90
       50
102
RTVSPost2010PropOp46
 70
     1
102
RTVSPost2010Prop47
 90
       50
102
RTVSPost2010PropOp47
 70
     1
102
RTVSPost2010Prop48
 90
       50
102
RTVSPost2010PropOp48
 70
     1
102
RTVSPost2010Prop49
280
     0
102
RTVSPost2010PropOp49
 70
     1
102
RTVSPost2010Prop50
 90
       50
102
RTVSPost2010PropOp50
 70
     1
102
RTVSPost2010Prop51ColorIndex
 90
      256
102
RTVSPost2010Prop51ColorRGB
 90
-16777216
102
RTVSPost2010PropOp51
 70
     0
102
RTVSPost2010Prop52
140
1.0
102
RTVSPost2010PropOp52
 70
     0
102
RTVSPost2010Prop53
 90
        2
102
RTVSPost2010PropOp53
 70
     1
102
RTVSPost2010Prop54
  1
strokes_ogs.tif
102
RTVSPost2010PropOp54
 70
     1
102
RTVSPost2010Prop55
280
     0
102
RTVSPost2010PropOp55
 70
     1
102
RTVSPost2010Prop56
140
1.0
102
RTVSPost2010PropOp56
 70
     1
102
RTVSPost2010Prop57
140
1.0
102
RTVSPost2010PropOp57
 70
     1
  0
XRECORD
  5
594
102
{ACAD_REACTORS
330
593
102
}
330
593
100
AcDbXrecord
280
     1
102
RTVSPropertyOp0
 70
     1
102
RTVSPropertyOp1
 70
     1
102
RTVSPropertyOp2
 70
     1
102
RTVSPropertyOp3
 70
     1
102
RTVSPropertyOp4
 70
     1
102
RTVSPropertyOp5
 70
     1
102
RTVSPropertyOp6
 70
     1
102
RTVSPropertyOp7
 70
     1
102
RTVSPropertyOp8
 70
     1
102
RTVSPropertyOp9
 70
     1
102
RTVSPropertyOp10
 70
     1
102
RTVSPropertyOp11
 70
     1
102
RTVSPropertyOp12
 70
     1
102
RTVSPropertyOp13
 70
     1
102
RTVSPropertyOp14
 70
     1
102
RTVSPropertyOp15
 70
     1
102
RTVSPropertyOp16
 70
     1
102
RTVSPropertyOp17
 70
     1
102
RTVSPropertyOp18
 70
     1
102
RTVSPropertyOp19
 70
     1
102
RTVSPropertyOp20
 70
     1
102
RTVSPropertyOp21
 70
     1
102
RTVSPropertyOp22
 70
     1
102
RTVSPropertyOp23
 70
     1
102
RTVSPropertyOp24
 70
     1
102
RTVSPropertyOp25
 70
     1
102
RTVSPropertyOp26
 70
     1
102
RTVSPropertyOp27
 70
     1
102
RTVSPropertyOp28
 70
     1
102
RTVSPropertyOp29
 70
     1
102
RTVSPropertyOp30
 70
     1
102
RTVSPropertyOp31
 70
     1
102
RTVSPropertyOp32
 70
     1
102
RTVSPropertyOp33
 70
     1
102
RTVSPropertyOp34
 70
     1
102
RTVSPropertyOp35
 70
     1
102
RTVSPropertyOp36
 70
     1
102
RTVSPropertyOp37
 70
     1
102
RTVSPropertyOp38
 70
     1
102
RTVSPropertyOp39
 70
     1
102
RTVSPropertyOp40
 70
     1
102
RTVSPropertyOp41
 70
     1
102
RTVSPropertyOp42
 70
     1
102
RTVSPropertyOp43
 70
     1
102
RTVSPropertyOp44
 70
     1
102
RTVSPropertyOp45
 70
     1
102
RTVSPropertyOp46
 70
     1
102
RTVSPropertyOp47
 70
     1
102
RTVSPropertyOp48
 70
     1
102
RTVSPropertyOp49
 70
     1
102
RTVSPropertyOp50
 70
     1
102
RTVSPropertyOp51
 70
     0
102
RTVSPropertyOp52
 70
     0
102
RTVSPropertyOp53
 70
     1
102
RTVSPropertyOp54
 70
     1
102
RTVSPropertyOp55
 70
     1
102
RTVSPropertyOp56
 70
     1
102
RTVSPropertyOp57
 70
     1
102
RTVSPost2010Prop28
280
     0
102
RTVSPost2010PropOp28
 70
     1
102
RTVSPost2010Prop29
280
     1
102
RTVSPost2010PropOp29
 70
     1
102
RTVSPost2010Prop30
280
     1
102
RTVSPost2010PropOp30
 70
     1
102
RTVSPost2010Prop31
280
     0
102
RTVSPost2010PropOp31
 70
     1
102
RTVSPost2010Prop32
280
     0
102
RTVSPost2010PropOp32
 70
     1
102
RTVSPost2010Prop33
280
     0
102
RTVSPost2010PropOp33
 70
     1
102
RTVSPost2010Prop34
280
     0
102
RTVSPost2010PropOp34
 70
     1
102
RTVSPost2010Prop35
280
     0
102
RTVSPost2010PropOp35
 70
     1
102
RTVSPost2010Prop36
280
     0
102
RTVSPost2010PropOp36
 70
     1
102
RTVSPost2010Prop37
 90
       50
102
RTVSPost2010PropOp37
 70
     1
102
RTVSPost2010Prop38
140
0.0
102
RTVSPost2010PropOp38
 70
     1
102
RTVSPost2010Prop39
140
1.0
102
RTVSPost2010PropOp39
 70
     1
102
RTVSPost2010Prop40
 90
        0
102
RTVSPost2010PropOp40
 70
     1
102
RTVSPost2010Prop41ColorIndex
 90
       18
102
RTVSPost2010Prop41ColorRGB
 90
        0
102
RTVSPost2010PropOp41
 70
     1
102
RTVSPost2010Prop42
 90
       50
102
RTVSPost2010PropOp42
 70
     1
102
RTVSPost2010Prop43
 90
        3
102
RTVSPost2010PropOp43
 70
     1
102
RTVSPost2010Prop44ColorIndex
 90
        5
102
RTVSPost2010Prop44ColorRGB
 90
      255
102
RTVSPost2010PropOp44
 70
     1
102
RTVSPost2010Prop45
280
     0
102
RTVSPost2010PropOp45
 70
     1
102
RTVSPost2010Prop46
 90
       50
102
RTVSPost2010PropOp46
 70
     1
102
RTVSPost2010Prop47
 90
       50
102
RTVSPost2010PropOp47
 70
     1
102
RTVSPost2010Prop48
 90
       50
102
RTVSPost2010PropOp48
 70
     1
102
RTVSPost2010Prop49
280
     0
102
RTVSPost2010PropOp49
 70
     1
102
RTVSPost2010Prop50
 90
       50
102
RTVSPost2010PropOp50
 70
     1
102
RTVSPost2010Prop51ColorIndex
 90
      256
102
RTVSPost2010Prop51ColorRGB
 90
-16777216
102
RTVSPost2010PropOp51
 70
     0
102
RTVSPost2010Prop52
140
1.0
102
RTVSPost2010PropOp52
 70
     0
102
RTVSPost2010Prop53
 90
        2
102
RTVSPost2010PropOp53
 70
     1
102
RTVSPost2010Prop54
  1
strokes_ogs.tif
102
RTVSPost2010PropOp54
 70
     1
102
RTVSPost2010Prop55
280
     0
102
RTVSPost2010PropOp55
 70
     1
102
RTVSPost2010Prop56
140
1.0
102
RTVSPost2010PropOp56
 70
     1
102
RTVSPost2010Prop57
140
1.0
102
RTVSPost2010PropOp57
 70
     1
  0
XRECORD
  5
588
102
{ACAD_REACTORS
330
587
102
}
330
587
100
AcDbXrecord
280
     1
102
RTVSPropertyOp0
 70
     1
102
RTVSPropertyOp1
 70
     1
102
RTVSPropertyOp2
 70
     1
102
RTVSPropertyOp3
 70
     1
102
RTVSPropertyOp4
 70
     1
102
RTVSPropertyOp5
 70
     1
102
RTVSPropertyOp6
 70
     1
102
RTVSPropertyOp7
 70
     1
102
RTVSPropertyOp8
 70
     1
102
RTVSPropertyOp9
 70
     1
102
RTVSPropertyOp10
 70
     1
102
RTVSPropertyOp11
 70
     1
102
RTVSPropertyOp12
 70
     1
102
RTVSPropertyOp13
 70
     1
102
RTVSPropertyOp14
 70
     1
102
RTVSPropertyOp15
 70
     1
102
RTVSPropertyOp16
 70
     1
102
RTVSPropertyOp17
 70
     1
102
RTVSPropertyOp18
 70
     1
102
RTVSPropertyOp19
 70
     1
102
RTVSPropertyOp20
 70
     1
102
RTVSPropertyOp21
 70
     1
102
RTVSPropertyOp22
 70
     1
102
RTVSPropertyOp23
 70
     1
102
RTVSPropertyOp24
 70
     1
102
RTVSPropertyOp25
 70
     1
102
RTVSPropertyOp26
 70
     1
102
RTVSPropertyOp27
 70
     1
102
RTVSPropertyOp28
 70
     1
102
RTVSPropertyOp29
 70
     1
102
RTVSPropertyOp30
 70
     1
102
RTVSPropertyOp31
 70
     1
102
RTVSPropertyOp32
 70
     1
102
RTVSPropertyOp33
 70
     1
102
RTVSPropertyOp34
 70
     1
102
RTVSPropertyOp35
 70
     1
102
RTVSPropertyOp36
 70
     1
102
RTVSPropertyOp37
 70
     1
102
RTVSPropertyOp38
 70
     1
102
RTVSPropertyOp39
 70
     1
102
RTVSPropertyOp40
 70
     1
102
RTVSPropertyOp41
 70
     1
102
RTVSPropertyOp42
 70
     1
102
RTVSPropertyOp43
 70
     1
102
RTVSPropertyOp44
 70
     1
102
RTVSPropertyOp45
 70
     1
102
RTVSPropertyOp46
 70
     1
102
RTVSPropertyOp47
 70
     1
102
RTVSPropertyOp48
 70
     1
102
RTVSPropertyOp49
 70
     1
102
RTVSPropertyOp50
 70
     1
102
RTVSPropertyOp51
 70
     0
102
RTVSPropertyOp52
 70
     0
102
RTVSPropertyOp53
 70
     1
102
RTVSPropertyOp54
 70
     1
102
RTVSPropertyOp55
 70
     1
102
RTVSPropertyOp56
 70
     1
102
RTVSPropertyOp57
 70
     1
102
RTVSPost2010Prop28
280
     0
102
RTVSPost2010PropOp28
 70
     1
102
RTVSPost2010Prop29
280
     1
102
RTVSPost2010PropOp29
 70
     1
102
RTVSPost2010Prop30
280
     1
102
RTVSPost2010PropOp30
 70
     1
102
RTVSPost2010Prop31
280
     0
102
RTVSPost2010PropOp31
 70
     1
102
RTVSPost2010Prop32
280
     0
102
RTVSPost2010PropOp32
 70
     1
102
RTVSPost2010Prop33
280
     0
102
RTVSPost2010PropOp33
 70
     1
102
RTVSPost2010Prop34
280
     0
102
RTVSPost2010PropOp34
 70
     1
102
RTVSPost2010Prop35
280
     0
102
RTVSPost2010PropOp35
 70
     1
102
RTVSPost2010Prop36
280
     0
102
RTVSPost2010PropOp36
 70
     1
102
RTVSPost2010Prop37
 90
       50
102
RTVSPost2010PropOp37
 70
     1
102
RTVSPost2010Prop38
140
0.0
102
RTVSPost2010PropOp38
 70
     1
102
RTVSPost2010Prop39
140
1.0
102
RTVSPost2010PropOp39
 70
     1
102
RTVSPost2010Prop40
 90
        0
102
RTVSPost2010PropOp40
 70
     1
102
RTVSPost2010Prop41ColorIndex
 90
       18
102
RTVSPost2010Prop41ColorRGB
 90
        0
102
RTVSPost2010PropOp41
 70
     1
102
RTVSPost2010Prop42
 90
       50
102
RTVSPost2010PropOp42
 70
     1
102
RTVSPost2010Prop43
 90
        3
102
RTVSPost2010PropOp43
 70
     1
102
RTVSPost2010Prop44ColorIndex
 90
        5
102
RTVSPost2010Prop44ColorRGB
 90
      255
102
RTVSPost2010PropOp44
 70
     1
102
RTVSPost2010Prop45
280
     0
102
RTVSPost2010PropOp45
 70
     1
102
RTVSPost2010Prop46
 90
       50
102
RTVSPost2010PropOp46
 70
     1
102
RTVSPost2010Prop47
 90
       50
102
RTVSPost2010PropOp47
 70
     1
102
RTVSPost2010Prop48
 90
       50
102
RTVSPost2010PropOp48
 70
     1
102
RTVSPost2010Prop49
280
     0
102
RTVSPost2010PropOp49
 70
     1
102
RTVSPost2010Prop50
 90
       50
102
RTVSPost2010PropOp50
 70
     1
102
RTVSPost2010Prop51ColorIndex
 90
      256
102
RTVSPost2010Prop51ColorRGB
 90
-16777216
102
RTVSPost2010PropOp51
 70
     0
102
RTVSPost2010Prop52
140
1.0
102
RTVSPost2010PropOp52
 70
     0
102
RTVSPost2010Prop53
 90
        2
102
RTVSPost2010PropOp53
 70
     1
102
RTVSPost2010Prop54
  1
strokes_ogs.tif
102
RTVSPost2010PropOp54
 70
     1
102
RTVSPost2010Prop55
280
     0
102
RTVSPost2010PropOp55
 70
     1
102
RTVSPost2010Prop56
140
1.0
102
RTVSPost2010PropOp56
 70
     1
102
RTVSPost2010Prop57
140
1.0
102
RTVSPost2010PropOp57
 70
     1
  0
XRECORD
  5
58A
102
{ACAD_REACTORS
330
589
102
}
330
589
100
AcDbXrecord
280
     1
102
RTVSPropertyOp0
 70
     1
102
RTVSPropertyOp1
 70
     1
102
RTVSPropertyOp2
 70
     1
102
RTVSPropertyOp3
 70
     1
102
RTVSPropertyOp4
 70
     1
102
RTVSPropertyOp5
 70
     1
102
RTVSPropertyOp6
 70
     1
102
RTVSPropertyOp7
 70
     1
102
RTVSPropertyOp8
 70
     1
102
RTVSPropertyOp9
 70
     1
102
RTVSPropertyOp10
 70
     1
102
RTVSPropertyOp11
 70
     1
102
RTVSPropertyOp12
 70
     1
102
RTVSPropertyOp13
 70
     1
102
RTVSPropertyOp14
 70
     1
102
RTVSPropertyOp15
 70
     1
102
RTVSPropertyOp16
 70
     1
102
RTVSPropertyOp17
 70
     1
102
RTVSPropertyOp18
 70
     1
102
RTVSPropertyOp19
 70
     1
102
RTVSPropertyOp20
 70
     1
102
RTVSPropertyOp21
 70
     1
102
RTVSPropertyOp22
 70
     1
102
RTVSPropertyOp23
 70
     1
102
RTVSPropertyOp24
 70
     1
102
RTVSPropertyOp25
 70
     1
102
RTVSPropertyOp26
 70
     1
102
RTVSPropertyOp27
 70
     1
102
RTVSPropertyOp28
 70
     1
102
RTVSPropertyOp29
 70
     1
102
RTVSPropertyOp30
 70
     1
102
RTVSPropertyOp31
 70
     1
102
RTVSPropertyOp32
 70
     1
102
RTVSPropertyOp33
 70
     1
102
RTVSPropertyOp34
 70
     1
102
RTVSPropertyOp35
 70
     1
102
RTVSPropertyOp36
 70
     1
102
RTVSPropertyOp37
 70
     1
102
RTVSPropertyOp38
 70
     1
102
RTVSPropertyOp39
 70
     1
102
RTVSPropertyOp40
 70
     1
102
RTVSPropertyOp41
 70
     1
102
RTVSPropertyOp42
 70
     1
102
RTVSPropertyOp43
 70
     1
102
RTVSPropertyOp44
 70
     1
102
RTVSPropertyOp45
 70
     1
102
RTVSPropertyOp46
 70
     1
102
RTVSPropertyOp47
 70
     1
102
RTVSPropertyOp48
 70
     1
102
RTVSPropertyOp49
 70
     1
102
RTVSPropertyOp50
 70
     1
102
RTVSPropertyOp51
 70
     0
102
RTVSPropertyOp52
 70
     0
102
RTVSPropertyOp53
 70
     1
102
RTVSPropertyOp54
 70
     1
102
RTVSPropertyOp55
 70
     1
102
RTVSPropertyOp56
 70
     1
102
RTVSPropertyOp57
 70
     1
102
RTVSPost2010Prop28
280
     0
102
RTVSPost2010PropOp28
 70
     1
102
RTVSPost2010Prop29
280
     1
102
RTVSPost2010PropOp29
 70
     1
102
RTVSPost2010Prop30
280
     1
102
RTVSPost2010PropOp30
 70
     1
102
RTVSPost2010Prop31
280
     0
102
RTVSPost2010PropOp31
 70
     1
102
RTVSPost2010Prop32
280
     0
102
RTVSPost2010PropOp32
 70
     1
102
RTVSPost2010Prop33
280
     0
102
RTVSPost2010PropOp33
 70
     1
102
RTVSPost2010Prop34
280
     0
102
RTVSPost2010PropOp34
 70
     1
102
RTVSPost2010Prop35
280
     0
102
RTVSPost2010PropOp35
 70
     1
102
RTVSPost2010Prop36
280
     0
102
RTVSPost2010PropOp36
 70
     1
102
RTVSPost2010Prop37
 90
       50
102
RTVSPost2010PropOp37
 70
     1
102
RTVSPost2010Prop38
140
0.0
102
RTVSPost2010PropOp38
 70
     1
102
RTVSPost2010Prop39
140
1.0
102
RTVSPost2010PropOp39
 70
     1
102
RTVSPost2010Prop40
 90
        0
102
RTVSPost2010PropOp40
 70
     1
102
RTVSPost2010Prop41ColorIndex
 90
       18
102
RTVSPost2010Prop41ColorRGB
 90
        0
102
RTVSPost2010PropOp41
 70
     1
102
RTVSPost2010Prop42
 90
       50
102
RTVSPost2010PropOp42
 70
     1
102
RTVSPost2010Prop43
 90
        3
102
RTVSPost2010PropOp43
 70
     1
102
RTVSPost2010Prop44ColorIndex
 90
        5
102
RTVSPost2010Prop44ColorRGB
 90
      255
102
RTVSPost2010PropOp44
 70
     1
102
RTVSPost2010Prop45
280
     0
102
RTVSPost2010PropOp45
 70
     1
102
RTVSPost2010Prop46
 90
       50
102
RTVSPost2010PropOp46
 70
     1
102
RTVSPost2010Prop47
 90
       50
102
RTVSPost2010PropOp47
 70
     1
102
RTVSPost2010Prop48
 90
       50
102
RTVSPost2010PropOp48
 70
     1
102
RTVSPost2010Prop49
280
     0
102
RTVSPost2010PropOp49
 70
     1
102
RTVSPost2010Prop50
 90
       50
102
RTVSPost2010PropOp50
 70
     1
102
RTVSPost2010Prop51ColorIndex
 90
      256
102
RTVSPost2010Prop51ColorRGB
 90
-16777216
102
RTVSPost2010PropOp51
 70
     0
102
RTVSPost2010Prop52
140
1.0
102
RTVSPost2010PropOp52
 70
     0
102
RTVSPost2010Prop53
 90
        2
102
RTVSPost2010PropOp53
 70
     1
102
RTVSPost2010Prop54
  1
strokes_ogs.tif
102
RTVSPost2010PropOp54
 70
     1
102
RTVSPost2010Prop55
280
     0
102
RTVSPost2010PropOp55
 70
     1
102
RTVSPost2010Prop56
140
1.0
102
RTVSPost2010PropOp56
 70
     1
102
RTVSPost2010Prop57
140
1.0
102
RTVSPost2010PropOp57
 70
     1
  0
XRECORD
  5
59A
102
{ACAD_REACTORS
330
599
102
}
330
599
100
AcDbXrecord
280
     1
102
RTVSPropertyOp0
 70
     0
102
RTVSPropertyOp1
 70
     0
102
RTVSPropertyOp2
 70
     0
102
RTVSPropertyOp3
 70
     0
102
RTVSPropertyOp4
 70
     0
102
RTVSPropertyOp5
 70
     0
102
RTVSPropertyOp6
 70
     0
102
RTVSPropertyOp7
 70
     0
102
RTVSPropertyOp8
 70
     0
102
RTVSPropertyOp9
 70
     0
102
RTVSPropertyOp10
 70
     0
102
RTVSPropertyOp11
 70
     0
102
RTVSPropertyOp12
 70
     0
102
RTVSPropertyOp13
 70
     0
102
RTVSPropertyOp14
 70
     2
102
RTVSPropertyOp15
 70
     0
102
RTVSPropertyOp16
 70
     0
102
RTVSPropertyOp17
 70
     0
102
RTVSPropertyOp18
 70
     0
102
RTVSPropertyOp19
 70
     0
102
RTVSPropertyOp20
 70
     0
102
RTVSPropertyOp21
 70
     0
102
RTVSPropertyOp22
 70
     0
102
RTVSPropertyOp23
 70
     0
102
RTVSPropertyOp24
 70
     0
102
RTVSPropertyOp25
 70
     0
102
RTVSPropertyOp26
 70
     0
102
RTVSPropertyOp27
 70
     0
102
RTVSPropertyOp28
 70
     0
102
RTVSPropertyOp29
 70
     0
102
RTVSPropertyOp30
 70
     0
102
RTVSPropertyOp31
 70
     0
102
RTVSPropertyOp32
 70
     0
102
RTVSPropertyOp33
 70
     0
102
RTVSPropertyOp34
 70
     0
102
RTVSPropertyOp35
 70
     0
102
RTVSPropertyOp36
 70
     0
102
RTVSPropertyOp37
 70
     0
102
RTVSPropertyOp38
 70
     0
102
RTVSPropertyOp39
 70
     0
102
RTVSPropertyOp40
 70
     0
102
RTVSPropertyOp41
 70
     0
102
RTVSPropertyOp42
 70
     0
102
RTVSPropertyOp43
 70
     0
102
RTVSPropertyOp44
 70
     0
102
RTVSPropertyOp45
 70
     0
102
RTVSPropertyOp46
 70
     0
102
RTVSPropertyOp47
 70
     0
102
RTVSPropertyOp48
 70
     0
102
RTVSPropertyOp49
 70
     0
102
RTVSPropertyOp50
 70
     0
102
RTVSPropertyOp51
 70
     0
102
RTVSPropertyOp52
 70
     0
102
RTVSPropertyOp53
 70
     0
102
RTVSPropertyOp54
 70
     0
102
RTVSPropertyOp55
 70
     0
102
RTVSPropertyOp56
 70
     0
102
RTVSPropertyOp57
 70
     0
102
RTVSPost2010Prop28
280
     0
102
RTVSPost2010PropOp28
 70
     0
102
RTVSPost2010Prop29
280
     1
102
RTVSPost2010PropOp29
 70
     0
102
RTVSPost2010Prop30
280
     1
102
RTVSPost2010PropOp30
 70
     0
102
RTVSPost2010Prop31
280
     0
102
RTVSPost2010PropOp31
 70
     0
102
RTVSPost2010Prop32
280
     0
102
RTVSPost2010PropOp32
 70
     0
102
RTVSPost2010Prop33
280
     0
102
RTVSPost2010PropOp33
 70
     0
102
RTVSPost2010Prop34
280
     0
102
RTVSPost2010PropOp34
 70
     0
102
RTVSPost2010Prop35
280
     0
102
RTVSPost2010PropOp35
 70
     0
102
RTVSPost2010Prop36
280
     0
102
RTVSPost2010PropOp36
 70
     0
102
RTVSPost2010Prop37
 90
       50
102
RTVSPost2010PropOp37
 70
     0
102
RTVSPost2010Prop38
140
0.0
102
RTVSPost2010PropOp38
 70
     0
102
RTVSPost2010Prop39
140
1.0
102
RTVSPost2010PropOp39
 70
     0
102
RTVSPost2010Prop40
 90
        0
102
RTVSPost2010PropOp40
 70
     0
102
RTVSPost2010Prop41ColorIndex
 90
       18
102
RTVSPost2010Prop41ColorRGB
 90
        0
102
RTVSPost2010PropOp41
 70
     0
102
RTVSPost2010Prop42
 90
       50
102
RTVSPost2010PropOp42
 70
     0
102
RTVSPost2010Prop43
 90
        3
102
RTVSPost2010PropOp43
 70
     0
102
RTVSPost2010Prop44ColorIndex
 90
        5
102
RTVSPost2010Prop44ColorRGB
 90
      255
102
RTVSPost2010PropOp44
 70
     0
102
RTVSPost2010Prop45
280
     0
102
RTVSPost2010PropOp45
 70
     0
102
RTVSPost2010Prop46
 90
       50
102
RTVSPost2010PropOp46
 70
     0
102
RTVSPost2010Prop47
 90
       50
102
RTVSPost2010PropOp47
 70
     0
102
RTVSPost2010Prop48
 90
       50
102
RTVSPost2010PropOp48
 70
     0
102
RTVSPost2010Prop49
280
     0
102
RTVSPost2010PropOp49
 70
     0
102
RTVSPost2010Prop50
 90
       50
102
RTVSPost2010PropOp50
 70
     0
102
RTVSPost2010Prop51ColorIndex
 90
      256
102
RTVSPost2010Prop51ColorRGB
 90
-16777216
102
RTVSPost2010PropOp51
 70
     0
102
RTVSPost2010Prop52
140
1.0
102
RTVSPost2010PropOp52
 70
     0
102
RTVSPost2010Prop53
 90
        2
102
RTVSPost2010PropOp53
 70
     0
102
RTVSPost2010Prop54
  1
strokes_ogs.tif
102
RTVSPost2010PropOp54
 70
     0
102
RTVSPost2010Prop55
280
     0
102
RTVSPost2010PropOp55
 70
     0
102
RTVSPost2010Prop56
140
1.0
102
RTVSPost2010PropOp56
 70
     0
102
RTVSPost2010Prop57
140
1.0
102
RTVSPost2010PropOp57
 70
     0
  0
XRECORD
  5
592
102
{ACAD_REACTORS
330
591
102
}
330
591
100
AcDbXrecord
280
     1
102
RTVSPropertyOp0
 70
     1
102
RTVSPropertyOp1
 70
     1
102
RTVSPropertyOp2
 70
     1
102
RTVSPropertyOp3
 70
     1
102
RTVSPropertyOp4
 70
     1
102
RTVSPropertyOp5
 70
     1
102
RTVSPropertyOp6
 70
     1
102
RTVSPropertyOp7
 70
     1
102
RTVSPropertyOp8
 70
     1
102
RTVSPropertyOp9
 70
     1
102
RTVSPropertyOp10
 70
     1
102
RTVSPropertyOp11
 70
     1
102
RTVSPropertyOp12
 70
     1
102
RTVSPropertyOp13
 70
     1
102
RTVSPropertyOp14
 70
     1
102
RTVSPropertyOp15
 70
     1
102
RTVSPropertyOp16
 70
     1
102
RTVSPropertyOp17
 70
     1
102
RTVSPropertyOp18
 70
     1
102
RTVSPropertyOp19
 70
     1
102
RTVSPropertyOp20
 70
     1
102
RTVSPropertyOp21
 70
     1
102
RTVSPropertyOp22
 70
     1
102
RTVSPropertyOp23
 70
     1
102
RTVSPropertyOp24
 70
     1
102
RTVSPropertyOp25
 70
     1
102
RTVSPropertyOp26
 70
     1
102
RTVSPropertyOp27
 70
     1
102
RTVSPropertyOp28
 70
     1
102
RTVSPropertyOp29
 70
     1
102
RTVSPropertyOp30
 70
     1
102
RTVSPropertyOp31
 70
     1
102
RTVSPropertyOp32
 70
     1
102
RTVSPropertyOp33
 70
     1
102
RTVSPropertyOp34
 70
     1
102
RTVSPropertyOp35
 70
     1
102
RTVSPropertyOp36
 70
     1
102
RTVSPropertyOp37
 70
     1
102
RTVSPropertyOp38
 70
     1
102
RTVSPropertyOp39
 70
     1
102
RTVSPropertyOp40
 70
     1
102
RTVSPropertyOp41
 70
     1
102
RTVSPropertyOp42
 70
     1
102
RTVSPropertyOp43
 70
     1
102
RTVSPropertyOp44
 70
     1
102
RTVSPropertyOp45
 70
     1
102
RTVSPropertyOp46
 70
     1
102
RTVSPropertyOp47
 70
     1
102
RTVSPropertyOp48
 70
     1
102
RTVSPropertyOp49
 70
     1
102
RTVSPropertyOp50
 70
     1
102
RTVSPropertyOp51
 70
     0
102
RTVSPropertyOp52
 70
     0
102
RTVSPropertyOp53
 70
     1
102
RTVSPropertyOp54
 70
     1
102
RTVSPropertyOp55
 70
     1
102
RTVSPropertyOp56
 70
     1
102
RTVSPropertyOp57
 70
     1
102
RTVSPost2010Prop28
280
     0
102
RTVSPost2010PropOp28
 70
     1
102
RTVSPost2010Prop29
280
     1
102
RTVSPost2010PropOp29
 70
     1
102
RTVSPost2010Prop30
280
     1
102
RTVSPost2010PropOp30
 70
     1
102
RTVSPost2010Prop31
280
     0
102
RTVSPost2010PropOp31
 70
     1
102
RTVSPost2010Prop32
280
     0
102
RTVSPost2010PropOp32
 70
     1
102
RTVSPost2010Prop33
280
     0
102
RTVSPost2010PropOp33
 70
     1
102
RTVSPost2010Prop34
280
     0
102
RTVSPost2010PropOp34
 70
     1
102
RTVSPost2010Prop35
280
     0
102
RTVSPost2010PropOp35
 70
     1
102
RTVSPost2010Prop36
280
     0
102
RTVSPost2010PropOp36
 70
     1
102
RTVSPost2010Prop37
 90
       50
102
RTVSPost2010PropOp37
 70
     1
102
RTVSPost2010Prop38
140
0.0
102
RTVSPost2010PropOp38
 70
     1
102
RTVSPost2010Prop39
140
1.0
102
RTVSPost2010PropOp39
 70
     1
102
RTVSPost2010Prop40
 90
        0
102
RTVSPost2010PropOp40
 70
     1
102
RTVSPost2010Prop41ColorIndex
 90
       18
102
RTVSPost2010Prop41ColorRGB
 90
        0
102
RTVSPost2010PropOp41
 70
     1
102
RTVSPost2010Prop42
 90
       50
102
RTVSPost2010PropOp42
 70
     1
102
RTVSPost2010Prop43
 90
        3
102
RTVSPost2010PropOp43
 70
     1
102
RTVSPost2010Prop44ColorIndex
 90
        5
102
RTVSPost2010Prop44ColorRGB
 90
      255
102
RTVSPost2010PropOp44
 70
     1
102
RTVSPost2010Prop45
280
     0
102
RTVSPost2010PropOp45
 70
     1
102
RTVSPost2010Prop46
 90
       50
102
RTVSPost2010PropOp46
 70
     1
102
RTVSPost2010Prop47
 90
       50
102
RTVSPost2010PropOp47
 70
     1
102
RTVSPost2010Prop48
 90
       50
102
RTVSPost2010PropOp48
 70
     1
102
RTVSPost2010Prop49
280
     0
102
RTVSPost2010PropOp49
 70
     1
102
RTVSPost2010Prop50
 90
       50
102
RTVSPost2010PropOp50
 70
     1
102
RTVSPost2010Prop51ColorIndex
 90
      256
102
RTVSPost2010Prop51ColorRGB
 90
-16777216
102
RTVSPost2010PropOp51
 70
     0
102
RTVSPost2010Prop52
140
1.0
102
RTVSPost2010PropOp52
 70
     0
102
RTVSPost2010Prop53
 90
        2
102
RTVSPost2010PropOp53
 70
     1
102
RTVSPost2010Prop54
  1
strokes_ogs.tif
102
RTVSPost2010PropOp54
 70
     1
102
RTVSPost2010Prop55
280
     0
102
RTVSPost2010PropOp55
 70
     1
102
RTVSPost2010Prop56
140
1.0
102
RTVSPost2010PropOp56
 70
     1
102
RTVSPost2010Prop57
140
1.0
102
RTVSPost2010PropOp57
 70
     1
  0
XRECORD
  5
576
102
{ACAD_REACTORS
330
575
102
}
330
575
100
AcDbXrecord
280
     1
102
RTVSPropertyOp0
 70
     1
102
RTVSPropertyOp1
 70
     1
102
RTVSPropertyOp2
 70
     1
102
RTVSPropertyOp3
 70
     1
102
RTVSPropertyOp4
 70
     1
102
RTVSPropertyOp5
 70
     1
102
RTVSPropertyOp6
 70
     1
102
RTVSPropertyOp7
 70
     1
102
RTVSPropertyOp8
 70
     1
102
RTVSPropertyOp9
 70
     1
102
RTVSPropertyOp10
 70
     1
102
RTVSPropertyOp11
 70
     1
102
RTVSPropertyOp12
 70
     1
102
RTVSPropertyOp13
 70
     1
102
RTVSPropertyOp14
 70
     1
102
RTVSPropertyOp15
 70
     1
102
RTVSPropertyOp16
 70
     1
102
RTVSPropertyOp17
 70
     1
102
RTVSPropertyOp18
 70
     1
102
RTVSPropertyOp19
 70
     1
102
RTVSPropertyOp20
 70
     1
102
RTVSPropertyOp21
 70
     1
102
RTVSPropertyOp22
 70
     1
102
RTVSPropertyOp23
 70
     1
102
RTVSPropertyOp24
 70
     1
102
RTVSPropertyOp25
 70
     1
102
RTVSPropertyOp26
 70
     1
102
RTVSPropertyOp27
 70
     1
102
RTVSPropertyOp28
 70
     1
102
RTVSPropertyOp29
 70
     1
102
RTVSPropertyOp30
 70
     1
102
RTVSPropertyOp31
 70
     1
102
RTVSPropertyOp32
 70
     1
102
RTVSPropertyOp33
 70
     1
102
RTVSPropertyOp34
 70
     1
102
RTVSPropertyOp35
 70
     1
102
RTVSPropertyOp36
 70
     1
102
RTVSPropertyOp37
 70
     1
102
RTVSPropertyOp38
 70
     1
102
RTVSPropertyOp39
 70
     1
102
RTVSPropertyOp40
 70
     1
102
RTVSPropertyOp41
 70
     1
102
RTVSPropertyOp42
 70
     1
102
RTVSPropertyOp43
 70
     1
102
RTVSPropertyOp44
 70
     1
102
RTVSPropertyOp45
 70
     1
102
RTVSPropertyOp46
 70
     1
102
RTVSPropertyOp47
 70
     1
102
RTVSPropertyOp48
 70
     1
102
RTVSPropertyOp49
 70
     1
102
RTVSPropertyOp50
 70
     1
102
RTVSPropertyOp51
 70
     0
102
RTVSPropertyOp52
 70
     0
102
RTVSPropertyOp53
 70
     1
102
RTVSPropertyOp54
 70
     1
102
RTVSPropertyOp55
 70
     1
102
RTVSPropertyOp56
 70
     1
102
RTVSPropertyOp57
 70
     1
102
RTVSPost2010Prop28
280
     0
102
RTVSPost2010PropOp28
 70
     1
102
RTVSPost2010Prop29
280
     1
102
RTVSPost2010PropOp29
 70
     1
102
RTVSPost2010Prop30
280
     1
102
RTVSPost2010PropOp30
 70
     1
102
RTVSPost2010Prop31
280
     0
102
RTVSPost2010PropOp31
 70
     1
102
RTVSPost2010Prop32
280
     0
102
RTVSPost2010PropOp32
 70
     1
102
RTVSPost2010Prop33
280
     0
102
RTVSPost2010PropOp33
 70
     1
102
RTVSPost2010Prop34
280
     0
102
RTVSPost2010PropOp34
 70
     1
102
RTVSPost2010Prop35
280
     0
102
RTVSPost2010PropOp35
 70
     1
102
RTVSPost2010Prop36
280
     0
102
RTVSPost2010PropOp36
 70
     1
102
RTVSPost2010Prop37
 90
       50
102
RTVSPost2010PropOp37
 70
     1
102
RTVSPost2010Prop38
140
0.0
102
RTVSPost2010PropOp38
 70
     1
102
RTVSPost2010Prop39
140
1.0
102
RTVSPost2010PropOp39
 70
     1
102
RTVSPost2010Prop40
 90
        0
102
RTVSPost2010PropOp40
 70
     1
102
RTVSPost2010Prop41ColorIndex
 90
       18
102
RTVSPost2010Prop41ColorRGB
 90
        0
102
RTVSPost2010PropOp41
 70
     1
102
RTVSPost2010Prop42
 90
       50
102
RTVSPost2010PropOp42
 70
     1
102
RTVSPost2010Prop43
 90
        3
102
RTVSPost2010PropOp43
 70
     1
102
RTVSPost2010Prop44ColorIndex
 90
        5
102
RTVSPost2010Prop44ColorRGB
 90
      255
102
RTVSPost2010PropOp44
 70
     1
102
RTVSPost2010Prop45
280
     0
102
RTVSPost2010PropOp45
 70
     1
102
RTVSPost2010Prop46
 90
       50
102
RTVSPost2010PropOp46
 70
     1
102
RTVSPost2010Prop47
 90
       50
102
RTVSPost2010PropOp47
 70
     1
102
RTVSPost2010Prop48
 90
       50
102
RTVSPost2010PropOp48
 70
     1
102
RTVSPost2010Prop49
280
     0
102
RTVSPost2010PropOp49
 70
     1
102
RTVSPost2010Prop50
 90
       50
102
RTVSPost2010PropOp50
 70
     1
102
RTVSPost2010Prop51ColorIndex
 90
      256
102
RTVSPost2010Prop51ColorRGB
 90
-16777216
102
RTVSPost2010PropOp51
 70
     0
102
RTVSPost2010Prop52
140
1.0
102
RTVSPost2010PropOp52
 70
     0
102
RTVSPost2010Prop53
 90
        2
102
RTVSPost2010PropOp53
 70
     1
102
RTVSPost2010Prop54
  1
strokes_ogs.tif
102
RTVSPost2010PropOp54
 70
     1
102
RTVSPost2010Prop55
280
     0
102
RTVSPost2010PropOp55
 70
     1
102
RTVSPost2010Prop56
140
1.0
102
RTVSPost2010PropOp56
 70
     1
102
RTVSPost2010Prop57
140
1.0
102
RTVSPost2010PropOp57
 70
     1
  0
XRECORD
  5
578
102
{ACAD_REACTORS
330
577
102
}
330
577
100
AcDbXrecord
280
     1
102
RTVSPropertyOp0
 70
     1
102
RTVSPropertyOp1
 70
     1
102
RTVSPropertyOp2
 70
     1
102
RTVSPropertyOp3
 70
     1
102
RTVSPropertyOp4
 70
     1
102
RTVSPropertyOp5
 70
     1
102
RTVSPropertyOp6
 70
     1
102
RTVSPropertyOp7
 70
     1
102
RTVSPropertyOp8
 70
     1
102
RTVSPropertyOp9
 70
     1
102
RTVSPropertyOp10
 70
     1
102
RTVSPropertyOp11
 70
     1
102
RTVSPropertyOp12
 70
     1
102
RTVSPropertyOp13
 70
     1
102
RTVSPropertyOp14
 70
     1
102
RTVSPropertyOp15
 70
     1
102
RTVSPropertyOp16
 70
     1
102
RTVSPropertyOp17
 70
     1
102
RTVSPropertyOp18
 70
     1
102
RTVSPropertyOp19
 70
     1
102
RTVSPropertyOp20
 70
     1
102
RTVSPropertyOp21
 70
     1
102
RTVSPropertyOp22
 70
     1
102
RTVSPropertyOp23
 70
     1
102
RTVSPropertyOp24
 70
     1
102
RTVSPropertyOp25
 70
     1
102
RTVSPropertyOp26
 70
     1
102
RTVSPropertyOp27
 70
     1
102
RTVSPropertyOp28
 70
     1
102
RTVSPropertyOp29
 70
     1
102
RTVSPropertyOp30
 70
     1
102
RTVSPropertyOp31
 70
     1
102
RTVSPropertyOp32
 70
     1
102
RTVSPropertyOp33
 70
     1
102
RTVSPropertyOp34
 70
     1
102
RTVSPropertyOp35
 70
     1
102
RTVSPropertyOp36
 70
     1
102
RTVSPropertyOp37
 70
     1
102
RTVSPropertyOp38
 70
     1
102
RTVSPropertyOp39
 70
     1
102
RTVSPropertyOp40
 70
     1
102
RTVSPropertyOp41
 70
     1
102
RTVSPropertyOp42
 70
     1
102
RTVSPropertyOp43
 70
     1
102
RTVSPropertyOp44
 70
     1
102
RTVSPropertyOp45
 70
     1
102
RTVSPropertyOp46
 70
     1
102
RTVSPropertyOp47
 70
     1
102
RTVSPropertyOp48
 70
     1
102
RTVSPropertyOp49
 70
     1
102
RTVSPropertyOp50
 70
     1
102
RTVSPropertyOp51
 70
     0
102
RTVSPropertyOp52
 70
     0
102
RTVSPropertyOp53
 70
     1
102
RTVSPropertyOp54
 70
     1
102
RTVSPropertyOp55
 70
     1
102
RTVSPropertyOp56
 70
     1
102
RTVSPropertyOp57
 70
     1
102
RTVSPost2010Prop28
280
     0
102
RTVSPost2010PropOp28
 70
     1
102
RTVSPost2010Prop29
280
     1
102
RTVSPost2010PropOp29
 70
     1
102
RTVSPost2010Prop30
280
     1
102
RTVSPost2010PropOp30
 70
     1
102
RTVSPost2010Prop31
280
     0
102
RTVSPost2010PropOp31
 70
     1
102
RTVSPost2010Prop32
280
     0
102
RTVSPost2010PropOp32
 70
     1
102
RTVSPost2010Prop33
280
     0
102
RTVSPost2010PropOp33
 70
     1
102
RTVSPost2010Prop34
280
     0
102
RTVSPost2010PropOp34
 70
     1
102
RTVSPost2010Prop35
280
     0
102
RTVSPost2010PropOp35
 70
     1
102
RTVSPost2010Prop36
280
     0
102
RTVSPost2010PropOp36
 70
     1
102
RTVSPost2010Prop37
 90
       50
102
RTVSPost2010PropOp37
 70
     1
102
RTVSPost2010Prop38
140
0.0
102
RTVSPost2010PropOp38
 70
     1
102
RTVSPost2010Prop39
140
1.0
102
RTVSPost2010PropOp39
 70
     1
102
RTVSPost2010Prop40
 90
        0
102
RTVSPost2010PropOp40
 70
     1
102
RTVSPost2010Prop41ColorIndex
 90
       18
102
RTVSPost2010Prop41ColorRGB
 90
        0
102
RTVSPost2010PropOp41
 70
     1
102
RTVSPost2010Prop42
 90
       50
102
RTVSPost2010PropOp42
 70
     1
102
RTVSPost2010Prop43
 90
        3
102
RTVSPost2010PropOp43
 70
     1
102
RTVSPost2010Prop44ColorIndex
 90
        5
102
RTVSPost2010Prop44ColorRGB
 90
      255
102
RTVSPost2010PropOp44
 70
     1
102
RTVSPost2010Prop45
280
     0
102
RTVSPost2010PropOp45
 70
     1
102
RTVSPost2010Prop46
 90
       50
102
RTVSPost2010PropOp46
 70
     1
102
RTVSPost2010Prop47
 90
       50
102
RTVSPost2010PropOp47
 70
     1
102
RTVSPost2010Prop48
 90
       50
102
RTVSPost2010PropOp48
 70
     1
102
RTVSPost2010Prop49
280
     0
102
RTVSPost2010PropOp49
 70
     1
102
RTVSPost2010Prop50
 90
       50
102
RTVSPost2010PropOp50
 70
     1
102
RTVSPost2010Prop51ColorIndex
 90
      256
102
RTVSPost2010Prop51ColorRGB
 90
-16777216
102
RTVSPost2010PropOp51
 70
     0
102
RTVSPost2010Prop52
140
1.0
102
RTVSPost2010PropOp52
 70
     0
102
RTVSPost2010Prop53
 90
        2
102
RTVSPost2010PropOp53
 70
     1
102
RTVSPost2010Prop54
  1
strokes_ogs.tif
102
RTVSPost2010PropOp54
 70
     1
102
RTVSPost2010Prop55
280
     0
102
RTVSPost2010PropOp55
 70
     1
102
RTVSPost2010Prop56
140
1.0
102
RTVSPost2010PropOp56
 70
     1
102
RTVSPost2010Prop57
140
1.0
102
RTVSPost2010PropOp57
 70
     1
  0
XRECORD
  5
57A
102
{ACAD_REACTORS
330
579
102
}
330
579
100
AcDbXrecord
280
     1
102
RTVSPropertyOp0
 70
     1
102
RTVSPropertyOp1
 70
     1
102
RTVSPropertyOp2
 70
     1
102
RTVSPropertyOp3
 70
     1
102
RTVSPropertyOp4
 70
     1
102
RTVSPropertyOp5
 70
     1
102
RTVSPropertyOp6
 70
     1
102
RTVSPropertyOp7
 70
     1
102
RTVSPropertyOp8
 70
     1
102
RTVSPropertyOp9
 70
     1
102
RTVSPropertyOp10
 70
     1
102
RTVSPropertyOp11
 70
     1
102
RTVSPropertyOp12
 70
     1
102
RTVSPropertyOp13
 70
     1
102
RTVSPropertyOp14
 70
     1
102
RTVSPropertyOp15
 70
     1
102
RTVSPropertyOp16
 70
     1
102
RTVSPropertyOp17
 70
     1
102
RTVSPropertyOp18
 70
     1
102
RTVSPropertyOp19
 70
     1
102
RTVSPropertyOp20
 70
     1
102
RTVSPropertyOp21
 70
     1
102
RTVSPropertyOp22
 70
     1
102
RTVSPropertyOp23
 70
     1
102
RTVSPropertyOp24
 70
     1
102
RTVSPropertyOp25
 70
     1
102
RTVSPropertyOp26
 70
     1
102
RTVSPropertyOp27
 70
     1
102
RTVSPropertyOp28
 70
     1
102
RTVSPropertyOp29
 70
     1
102
RTVSPropertyOp30
 70
     1
102
RTVSPropertyOp31
 70
     1
102
RTVSPropertyOp32
 70
     1
102
RTVSPropertyOp33
 70
     1
102
RTVSPropertyOp34
 70
     1
102
RTVSPropertyOp35
 70
     1
102
RTVSPropertyOp36
 70
     1
102
RTVSPropertyOp37
 70
     1
102
RTVSPropertyOp38
 70
     1
102
RTVSPropertyOp39
 70
     1
102
RTVSPropertyOp40
 70
     1
102
RTVSPropertyOp41
 70
     1
102
RTVSPropertyOp42
 70
     1
102
RTVSPropertyOp43
 70
     1
102
RTVSPropertyOp44
 70
     1
102
RTVSPropertyOp45
 70
     1
102
RTVSPropertyOp46
 70
     1
102
RTVSPropertyOp47
 70
     1
102
RTVSPropertyOp48
 70
     1
102
RTVSPropertyOp49
 70
     1
102
RTVSPropertyOp50
 70
     1
102
RTVSPropertyOp51
 70
     0
102
RTVSPropertyOp52
 70
     0
102
RTVSPropertyOp53
 70
     1
102
RTVSPropertyOp54
 70
     1
102
RTVSPropertyOp55
 70
     1
102
RTVSPropertyOp56
 70
     1
102
RTVSPropertyOp57
 70
     1
102
RTVSPost2010Prop28
280
     0
102
RTVSPost2010PropOp28
 70
     1
102
RTVSPost2010Prop29
280
     1
102
RTVSPost2010PropOp29
 70
     1
102
RTVSPost2010Prop30
280
     1
102
RTVSPost2010PropOp30
 70
     1
102
RTVSPost2010Prop31
280
     0
102
RTVSPost2010PropOp31
 70
     1
102
RTVSPost2010Prop32
280
     0
102
RTVSPost2010PropOp32
 70
     1
102
RTVSPost2010Prop33
280
     0
102
RTVSPost2010PropOp33
 70
     1
102
RTVSPost2010Prop34
280
     0
102
RTVSPost2010PropOp34
 70
     1
102
RTVSPost2010Prop35
280
     0
102
RTVSPost2010PropOp35
 70
     1
102
RTVSPost2010Prop36
280
     0
102
RTVSPost2010PropOp36
 70
     1
102
RTVSPost2010Prop37
 90
       50
102
RTVSPost2010PropOp37
 70
     1
102
RTVSPost2010Prop38
140
0.0
102
RTVSPost2010PropOp38
 70
     1
102
RTVSPost2010Prop39
140
1.0
102
RTVSPost2010PropOp39
 70
     1
102
RTVSPost2010Prop40
 90
        0
102
RTVSPost2010PropOp40
 70
     1
102
RTVSPost2010Prop41ColorIndex
 90
       18
102
RTVSPost2010Prop41ColorRGB
 90
        0
102
RTVSPost2010PropOp41
 70
     1
102
RTVSPost2010Prop42
 90
       50
102
RTVSPost2010PropOp42
 70
     1
102
RTVSPost2010Prop43
 90
        3
102
RTVSPost2010PropOp43
 70
     1
102
RTVSPost2010Prop44ColorIndex
 90
        5
102
RTVSPost2010Prop44ColorRGB
 90
      255
102
RTVSPost2010PropOp44
 70
     1
102
RTVSPost2010Prop45
280
     0
102
RTVSPost2010PropOp45
 70
     1
102
RTVSPost2010Prop46
 90
       50
102
RTVSPost2010PropOp46
 70
     1
102
RTVSPost2010Prop47
 90
       50
102
RTVSPost2010PropOp47
 70
     1
102
RTVSPost2010Prop48
 90
       50
102
RTVSPost2010PropOp48
 70
     1
102
RTVSPost2010Prop49
280
     0
102
RTVSPost2010PropOp49
 70
     1
102
RTVSPost2010Prop50
 90
       50
102
RTVSPost2010PropOp50
 70
     1
102
RTVSPost2010Prop51ColorIndex
 90
      256
102
RTVSPost2010Prop51ColorRGB
 90
-16777216
102
RTVSPost2010PropOp51
 70
     0
102
RTVSPost2010Prop52
140
1.0
102
RTVSPost2010PropOp52
 70
     0
102
RTVSPost2010Prop53
 90
        2
102
RTVSPost2010PropOp53
 70
     1
102
RTVSPost2010Prop54
  1
strokes_ogs.tif
102
RTVSPost2010PropOp54
 70
     1
102
RTVSPost2010Prop55
280
     0
102
RTVSPost2010PropOp55
 70
     1
102
RTVSPost2010Prop56
140
1.0
102
RTVSPost2010PropOp56
 70
     1
102
RTVSPost2010Prop57
140
1.0
102
RTVSPost2010PropOp57
 70
     1
  0
XRECORD
  5
57C
102
{ACAD_REACTORS
330
57B
102
}
330
57B
100
AcDbXrecord
280
     1
102
RTVSPropertyOp0
 70
     1
102
RTVSPropertyOp1
 70
     1
102
RTVSPropertyOp2
 70
     1
102
RTVSPropertyOp3
 70
     1
102
RTVSPropertyOp4
 70
     1
102
RTVSPropertyOp5
 70
     1
102
RTVSPropertyOp6
 70
     1
102
RTVSPropertyOp7
 70
     1
102
RTVSPropertyOp8
 70
     1
102
RTVSPropertyOp9
 70
     1
102
RTVSPropertyOp10
 70
     1
102
RTVSPropertyOp11
 70
     1
102
RTVSPropertyOp12
 70
     1
102
RTVSPropertyOp13
 70
     1
102
RTVSPropertyOp14
 70
     1
102
RTVSPropertyOp15
 70
     1
102
RTVSPropertyOp16
 70
     1
102
RTVSPropertyOp17
 70
     1
102
RTVSPropertyOp18
 70
     1
102
RTVSPropertyOp19
 70
     1
102
RTVSPropertyOp20
 70
     1
102
RTVSPropertyOp21
 70
     1
102
RTVSPropertyOp22
 70
     1
102
RTVSPropertyOp23
 70
     1
102
RTVSPropertyOp24
 70
     1
102
RTVSPropertyOp25
 70
     1
102
RTVSPropertyOp26
 70
     1
102
RTVSPropertyOp27
 70
     1
102
RTVSPropertyOp28
 70
     1
102
RTVSPropertyOp29
 70
     1
102
RTVSPropertyOp30
 70
     1
102
RTVSPropertyOp31
 70
     1
102
RTVSPropertyOp32
 70
     1
102
RTVSPropertyOp33
 70
     1
102
RTVSPropertyOp34
 70
     1
102
RTVSPropertyOp35
 70
     1
102
RTVSPropertyOp36
 70
     1
102
RTVSPropertyOp37
 70
     1
102
RTVSPropertyOp38
 70
     1
102
RTVSPropertyOp39
 70
     1
102
RTVSPropertyOp40
 70
     1
102
RTVSPropertyOp41
 70
     1
102
RTVSPropertyOp42
 70
     1
102
RTVSPropertyOp43
 70
     1
102
RTVSPropertyOp44
 70
     1
102
RTVSPropertyOp45
 70
     1
102
RTVSPropertyOp46
 70
     1
102
RTVSPropertyOp47
 70
     1
102
RTVSPropertyOp48
 70
     1
102
RTVSPropertyOp49
 70
     1
102
RTVSPropertyOp50
 70
     1
102
RTVSPropertyOp51
 70
     0
102
RTVSPropertyOp52
 70
     0
102
RTVSPropertyOp53
 70
     1
102
RTVSPropertyOp54
 70
     1
102
RTVSPropertyOp55
 70
     1
102
RTVSPropertyOp56
 70
     1
102
RTVSPropertyOp57
 70
     1
102
RTVSPost2010Prop28
280
     0
102
RTVSPost2010PropOp28
 70
     1
102
RTVSPost2010Prop29
280
     1
102
RTVSPost2010PropOp29
 70
     1
102
RTVSPost2010Prop30
280
     1
102
RTVSPost2010PropOp30
 70
     1
102
RTVSPost2010Prop31
280
     0
102
RTVSPost2010PropOp31
 70
     1
102
RTVSPost2010Prop32
280
     0
102
RTVSPost2010PropOp32
 70
     1
102
RTVSPost2010Prop33
280
     0
102
RTVSPost2010PropOp33
 70
     1
102
RTVSPost2010Prop34
280
     0
102
RTVSPost2010PropOp34
 70
     1
102
RTVSPost2010Prop35
280
     0
102
RTVSPost2010PropOp35
 70
     1
102
RTVSPost2010Prop36
280
     0
102
RTVSPost2010PropOp36
 70
     1
102
RTVSPost2010Prop37
 90
       50
102
RTVSPost2010PropOp37
 70
     1
102
RTVSPost2010Prop38
140
0.0
102
RTVSPost2010PropOp38
 70
     1
102
RTVSPost2010Prop39
140
1.0
102
RTVSPost2010PropOp39
 70
     1
102
RTVSPost2010Prop40
 90
        0
102
RTVSPost2010PropOp40
 70
     1
102
RTVSPost2010Prop41ColorIndex
 90
       18
102
RTVSPost2010Prop41ColorRGB
 90
        0
102
RTVSPost2010PropOp41
 70
     1
102
RTVSPost2010Prop42
 90
       50
102
RTVSPost2010PropOp42
 70
     1
102
RTVSPost2010Prop43
 90
        3
102
RTVSPost2010PropOp43
 70
     1
102
RTVSPost2010Prop44ColorIndex
 90
        5
102
RTVSPost2010Prop44ColorRGB
 90
      255
102
RTVSPost2010PropOp44
 70
     1
102
RTVSPost2010Prop45
280
     0
102
RTVSPost2010PropOp45
 70
     1
102
RTVSPost2010Prop46
 90
       50
102
RTVSPost2010PropOp46
 70
     1
102
RTVSPost2010Prop47
 90
       50
102
RTVSPost2010PropOp47
 70
     1
102
RTVSPost2010Prop48
 90
       50
102
RTVSPost2010PropOp48
 70
     1
102
RTVSPost2010Prop49
280
     0
102
RTVSPost2010PropOp49
 70
     1
102
RTVSPost2010Prop50
 90
       50
102
RTVSPost2010PropOp50
 70
     1
102
RTVSPost2010Prop51ColorIndex
 90
      256
102
RTVSPost2010Prop51ColorRGB
 90
-16777216
102
RTVSPost2010PropOp51
 70
     0
102
RTVSPost2010Prop52
140
1.0
102
RTVSPost2010PropOp52
 70
     0
102
RTVSPost2010Prop53
 90
        2
102
RTVSPost2010PropOp53
 70
     1
102
RTVSPost2010Prop54
  1
strokes_ogs.tif
102
RTVSPost2010PropOp54
 70
     1
102
RTVSPost2010Prop55
280
     0
102
RTVSPost2010PropOp55
 70
     1
102
RTVSPost2010Prop56
140
1.0
102
RTVSPost2010PropOp56
 70
     1
102
RTVSPost2010Prop57
140
1.0
102
RTVSPost2010PropOp57
 70
     1
  0
XRECORD
  5
582
102
{ACAD_REACTORS
330
581
102
}
330
581
100
AcDbXrecord
280
     1
102
RTVSPropertyOp0
 70
     1
102
RTVSPropertyOp1
 70
     1
102
RTVSPropertyOp2
 70
     1
102
RTVSPropertyOp3
 70
     1
102
RTVSPropertyOp4
 70
     1
102
RTVSPropertyOp5
 70
     1
102
RTVSPropertyOp6
 70
     1
102
RTVSPropertyOp7
 70
     1
102
RTVSPropertyOp8
 70
     1
102
RTVSPropertyOp9
 70
     1
102
RTVSPropertyOp10
 70
     1
102
RTVSPropertyOp11
 70
     1
102
RTVSPropertyOp12
 70
     1
102
RTVSPropertyOp13
 70
     1
102
RTVSPropertyOp14
 70
     1
102
RTVSPropertyOp15
 70
     1
102
RTVSPropertyOp16
 70
     1
102
RTVSPropertyOp17
 70
     1
102
RTVSPropertyOp18
 70
     1
102
RTVSPropertyOp19
 70
     1
102
RTVSPropertyOp20
 70
     1
102
RTVSPropertyOp21
 70
     1
102
RTVSPropertyOp22
 70
     1
102
RTVSPropertyOp23
 70
     1
102
RTVSPropertyOp24
 70
     1
102
RTVSPropertyOp25
 70
     1
102
RTVSPropertyOp26
 70
     1
102
RTVSPropertyOp27
 70
     1
102
RTVSPropertyOp28
 70
     1
102
RTVSPropertyOp29
 70
     1
102
RTVSPropertyOp30
 70
     1
102
RTVSPropertyOp31
 70
     1
102
RTVSPropertyOp32
 70
     1
102
RTVSPropertyOp33
 70
     1
102
RTVSPropertyOp34
 70
     1
102
RTVSPropertyOp35
 70
     1
102
RTVSPropertyOp36
 70
     1
102
RTVSPropertyOp37
 70
     1
102
RTVSPropertyOp38
 70
     1
102
RTVSPropertyOp39
 70
     1
102
RTVSPropertyOp40
 70
     1
102
RTVSPropertyOp41
 70
     1
102
RTVSPropertyOp42
 70
     1
102
RTVSPropertyOp43
 70
     1
102
RTVSPropertyOp44
 70
     1
102
RTVSPropertyOp45
 70
     1
102
RTVSPropertyOp46
 70
     1
102
RTVSPropertyOp47
 70
     1
102
RTVSPropertyOp48
 70
     1
102
RTVSPropertyOp49
 70
     1
102
RTVSPropertyOp50
 70
     1
102
RTVSPropertyOp51
 70
     0
102
RTVSPropertyOp52
 70
     0
102
RTVSPropertyOp53
 70
     1
102
RTVSPropertyOp54
 70
     1
102
RTVSPropertyOp55
 70
     1
102
RTVSPropertyOp56
 70
     1
102
RTVSPropertyOp57
 70
     1
102
RTVSPost2010Prop28
280
     0
102
RTVSPost2010PropOp28
 70
     1
102
RTVSPost2010Prop29
280
     1
102
RTVSPost2010PropOp29
 70
     1
102
RTVSPost2010Prop30
280
     1
102
RTVSPost2010PropOp30
 70
     1
102
RTVSPost2010Prop31
280
     0
102
RTVSPost2010PropOp31
 70
     1
102
RTVSPost2010Prop32
280
     0
102
RTVSPost2010PropOp32
 70
     1
102
RTVSPost2010Prop33
280
     0
102
RTVSPost2010PropOp33
 70
     1
102
RTVSPost2010Prop34
280
     0
102
RTVSPost2010PropOp34
 70
     1
102
RTVSPost2010Prop35
280
     0
102
RTVSPost2010PropOp35
 70
     1
102
RTVSPost2010Prop36
280
     0
102
RTVSPost2010PropOp36
 70
     1
102
RTVSPost2010Prop37
 90
       50
102
RTVSPost2010PropOp37
 70
     1
102
RTVSPost2010Prop38
140
0.0
102
RTVSPost2010PropOp38
 70
     1
102
RTVSPost2010Prop39
140
1.0
102
RTVSPost2010PropOp39
 70
     1
102
RTVSPost2010Prop40
 90
        0
102
RTVSPost2010PropOp40
 70
     1
102
RTVSPost2010Prop41ColorIndex
 90
       18
102
RTVSPost2010Prop41ColorRGB
 90
        0
102
RTVSPost2010PropOp41
 70
     1
102
RTVSPost2010Prop42
 90
       50
102
RTVSPost2010PropOp42
 70
     1
102
RTVSPost2010Prop43
 90
        3
102
RTVSPost2010PropOp43
 70
     1
102
RTVSPost2010Prop44ColorIndex
 90
        5
102
RTVSPost2010Prop44ColorRGB
 90
      255
102
RTVSPost2010PropOp44
 70
     1
102
RTVSPost2010Prop45
280
     0
102
RTVSPost2010PropOp45
 70
     1
102
RTVSPost2010Prop46
 90
       50
102
RTVSPost2010PropOp46
 70
     1
102
RTVSPost2010Prop47
 90
       50
102
RTVSPost2010PropOp47
 70
     1
102
RTVSPost2010Prop48
 90
       50
102
RTVSPost2010PropOp48
 70
     1
102
RTVSPost2010Prop49
280
     0
102
RTVSPost2010PropOp49
 70
     1
102
RTVSPost2010Prop50
 90
       50
102
RTVSPost2010PropOp50
 70
     1
102
RTVSPost2010Prop51ColorIndex
 90
      256
102
RTVSPost2010Prop51ColorRGB
 90
-16777216
102
RTVSPost2010PropOp51
 70
     0
102
RTVSPost2010Prop52
140
1.0
102
RTVSPost2010PropOp52
 70
     0
102
RTVSPost2010Prop53
 90
        2
102
RTVSPost2010PropOp53
 70
     1
102
RTVSPost2010Prop54
  1
strokes_ogs.tif
102
RTVSPost2010PropOp54
 70
     1
102
RTVSPost2010Prop55
280
     0
102
RTVSPost2010PropOp55
 70
     1
102
RTVSPost2010Prop56
140
1.0
102
RTVSPost2010PropOp56
 70
     1
102
RTVSPost2010Prop57
140
1.0
102
RTVSPost2010PropOp57
 70
     1
  0
XRECORD
  5
596
102
{ACAD_REACTORS
330
595
102
}
330
595
100
AcDbXrecord
280
     1
102
RTVSPropertyOp0
 70
     0
102
RTVSPropertyOp1
 70
     0
102
RTVSPropertyOp2
 70
     0
102
RTVSPropertyOp3
 70
     0
102
RTVSPropertyOp4
 70
     0
102
RTVSPropertyOp5
 70
     0
102
RTVSPropertyOp6
 70
     0
102
RTVSPropertyOp7
 70
     0
102
RTVSPropertyOp8
 70
     0
102
RTVSPropertyOp9
 70
     0
102
RTVSPropertyOp10
 70
     0
102
RTVSPropertyOp11
 70
     0
102
RTVSPropertyOp12
 70
     0
102
RTVSPropertyOp13
 70
     0
102
RTVSPropertyOp14
 70
     2
102
RTVSPropertyOp15
 70
     0
102
RTVSPropertyOp16
 70
     0
102
RTVSPropertyOp17
 70
     0
102
RTVSPropertyOp18
 70
     0
102
RTVSPropertyOp19
 70
     0
102
RTVSPropertyOp20
 70
     0
102
RTVSPropertyOp21
 70
     0
102
RTVSPropertyOp22
 70
     0
102
RTVSPropertyOp23
 70
     0
102
RTVSPropertyOp24
 70
     0
102
RTVSPropertyOp25
 70
     0
102
RTVSPropertyOp26
 70
     0
102
RTVSPropertyOp27
 70
     0
102
RTVSPropertyOp28
 70
     0
102
RTVSPropertyOp29
 70
     0
102
RTVSPropertyOp30
 70
     0
102
RTVSPropertyOp31
 70
     0
102
RTVSPropertyOp32
 70
     0
102
RTVSPropertyOp33
 70
     0
102
RTVSPropertyOp34
 70
     0
102
RTVSPropertyOp35
 70
     0
102
RTVSPropertyOp36
 70
     0
102
RTVSPropertyOp37
 70
     0
102
RTVSPropertyOp38
 70
     0
102
RTVSPropertyOp39
 70
     0
102
RTVSPropertyOp40
 70
     0
102
RTVSPropertyOp41
 70
     0
102
RTVSPropertyOp42
 70
     0
102
RTVSPropertyOp43
 70
     0
102
RTVSPropertyOp44
 70
     0
102
RTVSPropertyOp45
 70
     0
102
RTVSPropertyOp46
 70
     0
102
RTVSPropertyOp47
 70
     0
102
RTVSPropertyOp48
 70
     0
102
RTVSPropertyOp49
 70
     0
102
RTVSPropertyOp50
 70
     0
102
RTVSPropertyOp51
 70
     0
102
RTVSPropertyOp52
 70
     0
102
RTVSPropertyOp53
 70
     0
102
RTVSPropertyOp54
 70
     0
102
RTVSPropertyOp55
 70
     0
102
RTVSPropertyOp56
 70
     0
102
RTVSPropertyOp57
 70
     0
102
RTVSPost2010Prop28
280
     0
102
RTVSPost2010PropOp28
 70
     0
102
RTVSPost2010Prop29
280
     1
102
RTVSPost2010PropOp29
 70
     0
102
RTVSPost2010Prop30
280
     1
102
RTVSPost2010PropOp30
 70
     0
102
RTVSPost2010Prop31
280
     0
102
RTVSPost2010PropOp31
 70
     0
102
RTVSPost2010Prop32
280
     0
102
RTVSPost2010PropOp32
 70
     0
102
RTVSPost2010Prop33
280
     0
102
RTVSPost2010PropOp33
 70
     0
102
RTVSPost2010Prop34
280
     0
102
RTVSPost2010PropOp34
 70
     0
102
RTVSPost2010Prop35
280
     0
102
RTVSPost2010PropOp35
 70
     0
102
RTVSPost2010Prop36
280
     0
102
RTVSPost2010PropOp36
 70
     0
102
RTVSPost2010Prop37
 90
       50
102
RTVSPost2010PropOp37
 70
     0
102
RTVSPost2010Prop38
140
0.0
102
RTVSPost2010PropOp38
 70
     0
102
RTVSPost2010Prop39
140
1.0
102
RTVSPost2010PropOp39
 70
     0
102
RTVSPost2010Prop40
 90
        0
102
RTVSPost2010PropOp40
 70
     0
102
RTVSPost2010Prop41ColorIndex
 90
       18
102
RTVSPost2010Prop41ColorRGB
 90
        0
102
RTVSPost2010PropOp41
 70
     0
102
RTVSPost2010Prop42
 90
       50
102
RTVSPost2010PropOp42
 70
     0
102
RTVSPost2010Prop43
 90
        3
102
RTVSPost2010PropOp43
 70
     0
102
RTVSPost2010Prop44ColorIndex
 90
        5
102
RTVSPost2010Prop44ColorRGB
 90
      255
102
RTVSPost2010PropOp44
 70
     0
102
RTVSPost2010Prop45
280
     0
102
RTVSPost2010PropOp45
 70
     0
102
RTVSPost2010Prop46
 90
       50
102
RTVSPost2010PropOp46
 70
     0
102
RTVSPost2010Prop47
 90
       50
102
RTVSPost2010PropOp47
 70
     0
102
RTVSPost2010Prop48
 90
       50
102
RTVSPost2010PropOp48
 70
     0
102
RTVSPost2010Prop49
280
     0
102
RTVSPost2010PropOp49
 70
     0
102
RTVSPost2010Prop50
 90
       50
102
RTVSPost2010PropOp50
 70
     0
102
RTVSPost2010Prop51ColorIndex
 90
      256
102
RTVSPost2010Prop51ColorRGB
 90
-16777216
102
RTVSPost2010PropOp51
 70
     0
102
RTVSPost2010Prop52
140
1.0
102
RTVSPost2010PropOp52
 70
     0
102
RTVSPost2010Prop53
 90
        2
102
RTVSPost2010PropOp53
 70
     0
102
RTVSPost2010Prop54
  1
strokes_ogs.tif
102
RTVSPost2010PropOp54
 70
     0
102
RTVSPost2010Prop55
280
     0
102
RTVSPost2010PropOp55
 70
     0
102
RTVSPost2010Prop56
140
1.0
102
RTVSPost2010PropOp56
 70
     0
102
RTVSPost2010Prop57
140
1.0
102
RTVSPost2010PropOp57
 70
     0
  0
XRECORD
  5
590
102
{ACAD_REACTORS
330
58F
102
}
330
58F
100
AcDbXrecord
280
     1
102
RTVSPropertyOp0
 70
     1
102
RTVSPropertyOp1
 70
     1
102
RTVSPropertyOp2
 70
     1
102
RTVSPropertyOp3
 70
     1
102
RTVSPropertyOp4
 70
     1
102
RTVSPropertyOp5
 70
     1
102
RTVSPropertyOp6
 70
     1
102
RTVSPropertyOp7
 70
     1
102
RTVSPropertyOp8
 70
     1
102
RTVSPropertyOp9
 70
     1
102
RTVSPropertyOp10
 70
     1
102
RTVSPropertyOp11
 70
     1
102
RTVSPropertyOp12
 70
     1
102
RTVSPropertyOp13
 70
     1
102
RTVSPropertyOp14
 70
     1
102
RTVSPropertyOp15
 70
     1
102
RTVSPropertyOp16
 70
     1
102
RTVSPropertyOp17
 70
     1
102
RTVSPropertyOp18
 70
     1
102
RTVSPropertyOp19
 70
     1
102
RTVSPropertyOp20
 70
     1
102
RTVSPropertyOp21
 70
     1
102
RTVSPropertyOp22
 70
     1
102
RTVSPropertyOp23
 70
     1
102
RTVSPropertyOp24
 70
     1
102
RTVSPropertyOp25
 70
     1
102
RTVSPropertyOp26
 70
     1
102
RTVSPropertyOp27
 70
     1
102
RTVSPropertyOp28
 70
     1
102
RTVSPropertyOp29
 70
     1
102
RTVSPropertyOp30
 70
     1
102
RTVSPropertyOp31
 70
     1
102
RTVSPropertyOp32
 70
     1
102
RTVSPropertyOp33
 70
     1
102
RTVSPropertyOp34
 70
     1
102
RTVSPropertyOp35
 70
     1
102
RTVSPropertyOp36
 70
     1
102
RTVSPropertyOp37
 70
     1
102
RTVSPropertyOp38
 70
     1
102
RTVSPropertyOp39
 70
     1
102
RTVSPropertyOp40
 70
     1
102
RTVSPropertyOp41
 70
     1
102
RTVSPropertyOp42
 70
     1
102
RTVSPropertyOp43
 70
     1
102
RTVSPropertyOp44
 70
     1
102
RTVSPropertyOp45
 70
     1
102
RTVSPropertyOp46
 70
     1
102
RTVSPropertyOp47
 70
     1
102
RTVSPropertyOp48
 70
     1
102
RTVSPropertyOp49
 70
     1
102
RTVSPropertyOp50
 70
     1
102
RTVSPropertyOp51
 70
     0
102
RTVSPropertyOp52
 70
     0
102
RTVSPropertyOp53
 70
     1
102
RTVSPropertyOp54
 70
     1
102
RTVSPropertyOp55
 70
     1
102
RTVSPropertyOp56
 70
     1
102
RTVSPropertyOp57
 70
     1
102
RTVSPost2010Prop28
280
     0
102
RTVSPost2010PropOp28
 70
     1
102
RTVSPost2010Prop29
280
     1
102
RTVSPost2010PropOp29
 70
     1
102
RTVSPost2010Prop30
280
     1
102
RTVSPost2010PropOp30
 70
     1
102
RTVSPost2010Prop31
280
     0
102
RTVSPost2010PropOp31
 70
     1
102
RTVSPost2010Prop32
280
     0
102
RTVSPost2010PropOp32
 70
     1
102
RTVSPost2010Prop33
280
     0
102
RTVSPost2010PropOp33
 70
     1
102
RTVSPost2010Prop34
280
     0
102
RTVSPost2010PropOp34
 70
     1
102
RTVSPost2010Prop35
280
     0
102
RTVSPost2010PropOp35
 70
     1
102
RTVSPost2010Prop36
280
     0
102
RTVSPost2010PropOp36
 70
     1
102
RTVSPost2010Prop37
 90
       50
102
RTVSPost2010PropOp37
 70
     1
102
RTVSPost2010Prop38
140
0.0
102
RTVSPost2010PropOp38
 70
     1
102
RTVSPost2010Prop39
140
1.0
102
RTVSPost2010PropOp39
 70
     1
102
RTVSPost2010Prop40
 90
        0
102
RTVSPost2010PropOp40
 70
     1
102
RTVSPost2010Prop41ColorIndex
 90
       18
102
RTVSPost2010Prop41ColorRGB
 90
        0
102
RTVSPost2010PropOp41
 70
     1
102
RTVSPost2010Prop42
 90
       50
102
RTVSPost2010PropOp42
 70
     1
102
RTVSPost2010Prop43
 90
        3
102
RTVSPost2010PropOp43
 70
     1
102
RTVSPost2010Prop44ColorIndex
 90
        5
102
RTVSPost2010Prop44ColorRGB
 90
      255
102
RTVSPost2010PropOp44
 70
     1
102
RTVSPost2010Prop45
280
     0
102
RTVSPost2010PropOp45
 70
     1
102
RTVSPost2010Prop46
 90
       50
102
RTVSPost2010PropOp46
 70
     1
102
RTVSPost2010Prop47
 90
       50
102
RTVSPost2010PropOp47
 70
     1
102
RTVSPost2010Prop48
 90
       50
102
RTVSPost2010PropOp48
 70
     1
102
RTVSPost2010Prop49
280
     0
102
RTVSPost2010PropOp49
 70
     1
102
RTVSPost2010Prop50
 90
       50
102
RTVSPost2010PropOp50
 70
     1
102
RTVSPost2010Prop51ColorIndex
 90
      256
102
RTVSPost2010Prop51ColorRGB
 90
-16777216
102
RTVSPost2010PropOp51
 70
     0
102
RTVSPost2010Prop52
140
1.0
102
RTVSPost2010PropOp52
 70
     0
102
RTVSPost2010Prop53
 90
        2
102
RTVSPost2010PropOp53
 70
     1
102
RTVSPost2010Prop54
  1
strokes_ogs.tif
102
RTVSPost2010PropOp54
 70
     1
102
RTVSPost2010Prop55
280
     0
102
RTVSPost2010PropOp55
 70
     1
102
RTVSPost2010Prop56
140
1.0
102
RTVSPost2010PropOp56
 70
     1
102
RTVSPost2010Prop57
140
1.0
102
RTVSPost2010PropOp57
 70
     1
  0
XRECORD
  5
598
102
{ACAD_REACTORS
330
597
102
}
330
597
100
AcDbXrecord
280
     1
102
RTVSPropertyOp0
 70
     0
102
RTVSPropertyOp1
 70
     0
102
RTVSPropertyOp2
 70
     0
102
RTVSPropertyOp3
 70
     0
102
RTVSPropertyOp4
 70
     0
102
RTVSPropertyOp5
 70
     0
102
RTVSPropertyOp6
 70
     0
102
RTVSPropertyOp7
 70
     0
102
RTVSPropertyOp8
 70
     0
102
RTVSPropertyOp9
 70
     0
102
RTVSPropertyOp10
 70
     0
102
RTVSPropertyOp11
 70
     0
102
RTVSPropertyOp12
 70
     0
102
RTVSPropertyOp13
 70
     0
102
RTVSPropertyOp14
 70
     2
102
RTVSPropertyOp15
 70
     0
102
RTVSPropertyOp16
 70
     0
102
RTVSPropertyOp17
 70
     0
102
RTVSPropertyOp18
 70
     0
102
RTVSPropertyOp19
 70
     0
102
RTVSPropertyOp20
 70
     0
102
RTVSPropertyOp21
 70
     0
102
RTVSPropertyOp22
 70
     0
102
RTVSPropertyOp23
 70
     0
102
RTVSPropertyOp24
 70
     0
102
RTVSPropertyOp25
 70
     0
102
RTVSPropertyOp26
 70
     0
102
RTVSPropertyOp27
 70
     0
102
RTVSPropertyOp28
 70
     0
102
RTVSPropertyOp29
 70
     0
102
RTVSPropertyOp30
 70
     0
102
RTVSPropertyOp31
 70
     0
102
RTVSPropertyOp32
 70
     0
102
RTVSPropertyOp33
 70
     0
102
RTVSPropertyOp34
 70
     0
102
RTVSPropertyOp35
 70
     0
102
RTVSPropertyOp36
 70
     0
102
RTVSPropertyOp37
 70
     0
102
RTVSPropertyOp38
 70
     0
102
RTVSPropertyOp39
 70
     0
102
RTVSPropertyOp40
 70
     0
102
RTVSPropertyOp41
 70
     0
102
RTVSPropertyOp42
 70
     0
102
RTVSPropertyOp43
 70
     0
102
RTVSPropertyOp44
 70
     0
102
RTVSPropertyOp45
 70
     0
102
RTVSPropertyOp46
 70
     0
102
RTVSPropertyOp47
 70
     0
102
RTVSPropertyOp48
 70
     0
102
RTVSPropertyOp49
 70
     0
102
RTVSPropertyOp50
 70
     0
102
RTVSPropertyOp51
 70
     0
102
RTVSPropertyOp52
 70
     0
102
RTVSPropertyOp53
 70
     0
102
RTVSPropertyOp54
 70
     0
102
RTVSPropertyOp55
 70
     0
102
RTVSPropertyOp56
 70
     0
102
RTVSPropertyOp57
 70
     0
102
RTVSPost2010Prop28
280
     0
102
RTVSPost2010PropOp28
 70
     0
102
RTVSPost2010Prop29
280
     1
102
RTVSPost2010PropOp29
 70
     0
102
RTVSPost2010Prop30
280
     1
102
RTVSPost2010PropOp30
 70
     0
102
RTVSPost2010Prop31
280
     0
102
RTVSPost2010PropOp31
 70
     0
102
RTVSPost2010Prop32
280
     0
102
RTVSPost2010PropOp32
 70
     0
102
RTVSPost2010Prop33
280
     0
102
RTVSPost2010PropOp33
 70
     0
102
RTVSPost2010Prop34
280
     0
102
RTVSPost2010PropOp34
 70
     0
102
RTVSPost2010Prop35
280
     0
102
RTVSPost2010PropOp35
 70
     0
102
RTVSPost2010Prop36
280
     0
102
RTVSPost2010PropOp36
 70
     0
102
RTVSPost2010Prop37
 90
       50
102
RTVSPost2010PropOp37
 70
     0
102
RTVSPost2010Prop38
140
0.0
102
RTVSPost2010PropOp38
 70
     0
102
RTVSPost2010Prop39
140
1.0
102
RTVSPost2010PropOp39
 70
     0
102
RTVSPost2010Prop40
 90
        0
102
RTVSPost2010PropOp40
 70
     0
102
RTVSPost2010Prop41ColorIndex
 90
       18
102
RTVSPost2010Prop41ColorRGB
 90
        0
102
RTVSPost2010PropOp41
 70
     0
102
RTVSPost2010Prop42
 90
       50
102
RTVSPost2010PropOp42
 70
     0
102
RTVSPost2010Prop43
 90
        3
102
RTVSPost2010PropOp43
 70
     0
102
RTVSPost2010Prop44ColorIndex
 90
        5
102
RTVSPost2010Prop44ColorRGB
 90
      255
102
RTVSPost2010PropOp44
 70
     0
102
RTVSPost2010Prop45
280
     0
102
RTVSPost2010PropOp45
 70
     0
102
RTVSPost2010Prop46
 90
       50
102
RTVSPost2010PropOp46
 70
     0
102
RTVSPost2010Prop47
 90
       50
102
RTVSPost2010PropOp47
 70
     0
102
RTVSPost2010Prop48
 90
       50
102
RTVSPost2010PropOp48
 70
     0
102
RTVSPost2010Prop49
280
     0
102
RTVSPost2010PropOp49
 70
     0
102
RTVSPost2010Prop50
 90
       50
102
RTVSPost2010PropOp50
 70
     0
102
RTVSPost2010Prop51ColorIndex
 90
      256
102
RTVSPost2010Prop51ColorRGB
 90
-16777216
102
RTVSPost2010PropOp51
 70
     0
102
RTVSPost2010Prop52
140
1.0
102
RTVSPost2010PropOp52
 70
     0
102
RTVSPost2010Prop53
 90
        2
102
RTVSPost2010PropOp53
 70
     0
102
RTVSPost2010Prop54
  1
strokes_ogs.tif
102
RTVSPost2010PropOp54
 70
     0
102
RTVSPost2010Prop55
280
     0
102
RTVSPost2010PropOp55
 70
     0
102
RTVSPost2010Prop56
140
1.0
102
RTVSPost2010PropOp56
 70
     0
102
RTVSPost2010Prop57
140
1.0
102
RTVSPost2010PropOp57
 70
     0
  0
XRECORD
  5
586
102
{ACAD_REACTORS
330
585
102
}
330
585
100
AcDbXrecord
280
     1
102
RTVSPropertyOp0
 70
     1
102
RTVSPropertyOp1
 70
     1
102
RTVSPropertyOp2
 70
     1
102
RTVSPropertyOp3
 70
     1
102
RTVSPropertyOp4
 70
     1
102
RTVSPropertyOp5
 70
     1
102
RTVSPropertyOp6
 70
     1
102
RTVSPropertyOp7
 70
     1
102
RTVSPropertyOp8
 70
     1
102
RTVSPropertyOp9
 70
     1
102
RTVSPropertyOp10
 70
     1
102
RTVSPropertyOp11
 70
     1
102
RTVSPropertyOp12
 70
     1
102
RTVSPropertyOp13
 70
     1
102
RTVSPropertyOp14
 70
     1
102
RTVSPropertyOp15
 70
     1
102
RTVSPropertyOp16
 70
     1
102
RTVSPropertyOp17
 70
     1
102
RTVSPropertyOp18
 70
     1
102
RTVSPropertyOp19
 70
     1
102
RTVSPropertyOp20
 70
     1
102
RTVSPropertyOp21
 70
     1
102
RTVSPropertyOp22
 70
     1
102
RTVSPropertyOp23
 70
     1
102
RTVSPropertyOp24
 70
     1
102
RTVSPropertyOp25
 70
     1
102
RTVSPropertyOp26
 70
     1
102
RTVSPropertyOp27
 70
     1
102
RTVSPropertyOp28
 70
     1
102
RTVSPropertyOp29
 70
     1
102
RTVSPropertyOp30
 70
     1
102
RTVSPropertyOp31
 70
     1
102
RTVSPropertyOp32
 70
     1
102
RTVSPropertyOp33
 70
     1
102
RTVSPropertyOp34
 70
     1
102
RTVSPropertyOp35
 70
     1
102
RTVSPropertyOp36
 70
     1
102
RTVSPropertyOp37
 70
     1
102
RTVSPropertyOp38
 70
     1
102
RTVSPropertyOp39
 70
     1
102
RTVSPropertyOp40
 70
     1
102
RTVSPropertyOp41
 70
     1
102
RTVSPropertyOp42
 70
     1
102
RTVSPropertyOp43
 70
     1
102
RTVSPropertyOp44
 70
     1
102
RTVSPropertyOp45
 70
     1
102
RTVSPropertyOp46
 70
     1
102
RTVSPropertyOp47
 70
     1
102
RTVSPropertyOp48
 70
     1
102
RTVSPropertyOp49
 70
     1
102
RTVSPropertyOp50
 70
     1
102
RTVSPropertyOp51
 70
     0
102
RTVSPropertyOp52
 70
     0
102
RTVSPropertyOp53
 70
     1
102
RTVSPropertyOp54
 70
     1
102
RTVSPropertyOp55
 70
     1
102
RTVSPropertyOp56
 70
     1
102
RTVSPropertyOp57
 70
     1
102
RTVSPost2010Prop28
280
     0
102
RTVSPost2010PropOp28
 70
     1
102
RTVSPost2010Prop29
280
     1
102
RTVSPost2010PropOp29
 70
     1
102
RTVSPost2010Prop30
280
     1
102
RTVSPost2010PropOp30
 70
     1
102
RTVSPost2010Prop31
280
     0
102
RTVSPost2010PropOp31
 70
     1
102
RTVSPost2010Prop32
280
     0
102
RTVSPost2010PropOp32
 70
     1
102
RTVSPost2010Prop33
280
     0
102
RTVSPost2010PropOp33
 70
     1
102
RTVSPost2010Prop34
280
     0
102
RTVSPost2010PropOp34
 70
     1
102
RTVSPost2010Prop35
280
     0
102
RTVSPost2010PropOp35
 70
     1
102
RTVSPost2010Prop36
280
     0
102
RTVSPost2010PropOp36
 70
     1
102
RTVSPost2010Prop37
 90
       50
102
RTVSPost2010PropOp37
 70
     1
102
RTVSPost2010Prop38
140
0.0
102
RTVSPost2010PropOp38
 70
     1
102
RTVSPost2010Prop39
140
1.0
102
RTVSPost2010PropOp39
 70
     1
102
RTVSPost2010Prop40
 90
        0
102
RTVSPost2010PropOp40
 70
     1
102
RTVSPost2010Prop41ColorIndex
 90
       18
102
RTVSPost2010Prop41ColorRGB
 90
        0
102
RTVSPost2010PropOp41
 70
     1
102
RTVSPost2010Prop42
 90
       50
102
RTVSPost2010PropOp42
 70
     1
102
RTVSPost2010Prop43
 90
        3
102
RTVSPost2010PropOp43
 70
     1
102
RTVSPost2010Prop44ColorIndex
 90
        5
102
RTVSPost2010Prop44ColorRGB
 90
      255
102
RTVSPost2010PropOp44
 70
     1
102
RTVSPost2010Prop45
280
     0
102
RTVSPost2010PropOp45
 70
     1
102
RTVSPost2010Prop46
 90
       50
102
RTVSPost2010PropOp46
 70
     1
102
RTVSPost2010Prop47
 90
       50
102
RTVSPost2010PropOp47
 70
     1
102
RTVSPost2010Prop48
 90
       50
102
RTVSPost2010PropOp48
 70
     1
102
RTVSPost2010Prop49
280
     0
102
RTVSPost2010PropOp49
 70
     1
102
RTVSPost2010Prop50
 90
       50
102
RTVSPost2010PropOp50
 70
     1
102
RTVSPost2010Prop51ColorIndex
 90
      256
102
RTVSPost2010Prop51ColorRGB
 90
-16777216
102
RTVSPost2010PropOp51
 70
     0
102
RTVSPost2010Prop52
140
1.0
102
RTVSPost2010PropOp52
 70
     0
102
RTVSPost2010Prop53
 90
        2
102
RTVSPost2010PropOp53
 70
     1
102
RTVSPost2010Prop54
  1
strokes_ogs.tif
102
RTVSPost2010PropOp54
 70
     1
102
RTVSPost2010Prop55
280
     0
102
RTVSPost2010PropOp55
 70
     1
102
RTVSPost2010Prop56
140
1.0
102
RTVSPost2010PropOp56
 70
     1
102
RTVSPost2010Prop57
140
1.0
102
RTVSPost2010PropOp57
 70
     1
  0
XRECORD
  5
5A4
102
{ACAD_REACTORS
330
5A3
102
}
330
5A3
100
AcDbXrecord
280
     1
102
RTVSPropertyOp0
 70
     1
102
RTVSPropertyOp1
 70
     1
102
RTVSPropertyOp2
 70
     1
102
RTVSPropertyOp3
 70
     1
102
RTVSPropertyOp4
 70
     1
102
RTVSPropertyOp5
 70
     1
102
RTVSPropertyOp6
 70
     1
102
RTVSPropertyOp7
 70
     1
102
RTVSPropertyOp8
 70
     1
102
RTVSPropertyOp9
 70
     1
102
RTVSPropertyOp10
 70
     1
102
RTVSPropertyOp11
 70
     1
102
RTVSPropertyOp12
 70
     1
102
RTVSPropertyOp13
 70
     1
102
RTVSPropertyOp14
 70
     1
102
RTVSPropertyOp15
 70
     1
102
RTVSPropertyOp16
 70
     1
102
RTVSPropertyOp17
 70
     1
102
RTVSPropertyOp18
 70
     1
102
RTVSPropertyOp19
 70
     1
102
RTVSPropertyOp20
 70
     1
102
RTVSPropertyOp21
 70
     1
102
RTVSPropertyOp22
 70
     1
102
RTVSPropertyOp23
 70
     1
102
RTVSPropertyOp24
 70
     1
102
RTVSPropertyOp25
 70
     1
102
RTVSPropertyOp26
 70
     1
102
RTVSPropertyOp27
 70
     1
102
RTVSPropertyOp28
 70
     1
102
RTVSPropertyOp29
 70
     1
102
RTVSPropertyOp30
 70
     1
102
RTVSPropertyOp31
 70
     1
102
RTVSPropertyOp32
 70
     1
102
RTVSPropertyOp33
 70
     1
102
RTVSPropertyOp34
 70
     1
102
RTVSPropertyOp35
 70
     1
102
RTVSPropertyOp36
 70
     1
102
RTVSPropertyOp37
 70
     1
102
RTVSPropertyOp38
 70
     1
102
RTVSPropertyOp39
 70
     1
102
RTVSPropertyOp40
 70
     1
102
RTVSPropertyOp41
 70
     1
102
RTVSPropertyOp42
 70
     1
102
RTVSPropertyOp43
 70
     1
102
RTVSPropertyOp44
 70
     1
102
RTVSPropertyOp45
 70
     1
102
RTVSPropertyOp46
 70
     1
102
RTVSPropertyOp47
 70
     1
102
RTVSPropertyOp48
 70
     1
102
RTVSPropertyOp49
 70
     1
102
RTVSPropertyOp50
 70
     1
102
RTVSPropertyOp51
 70
     0
102
RTVSPropertyOp52
 70
     0
102
RTVSPropertyOp53
 70
     1
102
RTVSPropertyOp54
 70
     1
102
RTVSPropertyOp55
 70
     1
102
RTVSPropertyOp56
 70
     1
102
RTVSPropertyOp57
 70
     1
102
RTVSPost2010Prop28
280
     0
102
RTVSPost2010PropOp28
 70
     1
102
RTVSPost2010Prop29
280
     1
102
RTVSPost2010PropOp29
 70
     1
102
RTVSPost2010Prop30
280
     1
102
RTVSPost2010PropOp30
 70
     1
102
RTVSPost2010Prop31
280
     0
102
RTVSPost2010PropOp31
 70
     1
102
RTVSPost2010Prop32
280
     0
102
RTVSPost2010PropOp32
 70
     1
102
RTVSPost2010Prop33
280
     0
102
RTVSPost2010PropOp33
 70
     1
102
RTVSPost2010Prop34
280
     0
102
RTVSPost2010PropOp34
 70
     1
102
RTVSPost2010Prop35
280
     0
102
RTVSPost2010PropOp35
 70
     1
102
RTVSPost2010Prop36
280
     0
102
RTVSPost2010PropOp36
 70
     1
102
RTVSPost2010Prop37
 90
       50
102
RTVSPost2010PropOp37
 70
     1
102
RTVSPost2010Prop38
140
0.0
102
RTVSPost2010PropOp38
 70
     1
102
RTVSPost2010Prop39
140
1.0
102
RTVSPost2010PropOp39
 70
     1
102
RTVSPost2010Prop40
 90
        0
102
RTVSPost2010PropOp40
 70
     1
102
RTVSPost2010Prop41ColorIndex
 90
       18
102
RTVSPost2010Prop41ColorRGB
 90
        0
102
RTVSPost2010PropOp41
 70
     1
102
RTVSPost2010Prop42
 90
       50
102
RTVSPost2010PropOp42
 70
     1
102
RTVSPost2010Prop43
 90
        3
102
RTVSPost2010PropOp43
 70
     1
102
RTVSPost2010Prop44ColorIndex
 90
        5
102
RTVSPost2010Prop44ColorRGB
 90
      255
102
RTVSPost2010PropOp44
 70
     1
102
RTVSPost2010Prop45
280
     0
102
RTVSPost2010PropOp45
 70
     1
102
RTVSPost2010Prop46
 90
       50
102
RTVSPost2010PropOp46
 70
     1
102
RTVSPost2010Prop47
 90
       50
102
RTVSPost2010PropOp47
 70
     1
102
RTVSPost2010Prop48
 90
       50
102
RTVSPost2010PropOp48
 70
     1
102
RTVSPost2010Prop49
280
     0
102
RTVSPost2010PropOp49
 70
     1
102
RTVSPost2010Prop50
 90
       50
102
RTVSPost2010PropOp50
 70
     1
102
RTVSPost2010Prop51ColorIndex
 90
      256
102
RTVSPost2010Prop51ColorRGB
 90
-16777216
102
RTVSPost2010PropOp51
 70
     0
102
RTVSPost2010Prop52
140
1.0
102
RTVSPost2010PropOp52
 70
     0
102
RTVSPost2010Prop53
 90
        2
102
RTVSPost2010PropOp53
 70
     1
102
RTVSPost2010Prop54
  1
strokes_ogs.tif
102
RTVSPost2010PropOp54
 70
     1
102
RTVSPost2010Prop55
280
     0
102
RTVSPost2010PropOp55
 70
     1
102
RTVSPost2010Prop56
140
1.0
102
RTVSPost2010PropOp56
 70
     1
102
RTVSPost2010Prop57
140
1.0
102
RTVSPost2010PropOp57
 70
     1
  0
XRECORD
  5
5A2
102
{ACAD_REACTORS
330
5A1
102
}
330
5A1
100
AcDbXrecord
280
     1
102
RTVSPropertyOp0
 70
     1
102
RTVSPropertyOp1
 70
     1
102
RTVSPropertyOp2
 70
     1
102
RTVSPropertyOp3
 70
     1
102
RTVSPropertyOp4
 70
     1
102
RTVSPropertyOp5
 70
     1
102
RTVSPropertyOp6
 70
     1
102
RTVSPropertyOp7
 70
     1
102
RTVSPropertyOp8
 70
     1
102
RTVSPropertyOp9
 70
     1
102
RTVSPropertyOp10
 70
     1
102
RTVSPropertyOp11
 70
     1
102
RTVSPropertyOp12
 70
     1
102
RTVSPropertyOp13
 70
     1
102
RTVSPropertyOp14
 70
     1
102
RTVSPropertyOp15
 70
     1
102
RTVSPropertyOp16
 70
     1
102
RTVSPropertyOp17
 70
     1
102
RTVSPropertyOp18
 70
     1
102
RTVSPropertyOp19
 70
     1
102
RTVSPropertyOp20
 70
     1
102
RTVSPropertyOp21
 70
     1
102
RTVSPropertyOp22
 70
     1
102
RTVSPropertyOp23
 70
     1
102
RTVSPropertyOp24
 70
     1
102
RTVSPropertyOp25
 70
     1
102
RTVSPropertyOp26
 70
     1
102
RTVSPropertyOp27
 70
     1
102
RTVSPropertyOp28
 70
     1
102
RTVSPropertyOp29
 70
     1
102
RTVSPropertyOp30
 70
     1
102
RTVSPropertyOp31
 70
     1
102
RTVSPropertyOp32
 70
     1
102
RTVSPropertyOp33
 70
     1
102
RTVSPropertyOp34
 70
     1
102
RTVSPropertyOp35
 70
     1
102
RTVSPropertyOp36
 70
     1
102
RTVSPropertyOp37
 70
     1
102
RTVSPropertyOp38
 70
     1
102
RTVSPropertyOp39
 70
     1
102
RTVSPropertyOp40
 70
     1
102
RTVSPropertyOp41
 70
     1
102
RTVSPropertyOp42
 70
     1
102
RTVSPropertyOp43
 70
     1
102
RTVSPropertyOp44
 70
     1
102
RTVSPropertyOp45
 70
     1
102
RTVSPropertyOp46
 70
     1
102
RTVSPropertyOp47
 70
     1
102
RTVSPropertyOp48
 70
     1
102
RTVSPropertyOp49
 70
     1
102
RTVSPropertyOp50
 70
     1
102
RTVSPropertyOp51
 70
     0
102
RTVSPropertyOp52
 70
     0
102
RTVSPropertyOp53
 70
     1
102
RTVSPropertyOp54
 70
     1
102
RTVSPropertyOp55
 70
     1
102
RTVSPropertyOp56
 70
     1
102
RTVSPropertyOp57
 70
     1
102
RTVSPost2010Prop28
280
     0
102
RTVSPost2010PropOp28
 70
     1
102
RTVSPost2010Prop29
280
     1
102
RTVSPost2010PropOp29
 70
     1
102
RTVSPost2010Prop30
280
     1
102
RTVSPost2010PropOp30
 70
     1
102
RTVSPost2010Prop31
280
     0
102
RTVSPost2010PropOp31
 70
     1
102
RTVSPost2010Prop32
280
     0
102
RTVSPost2010PropOp32
 70
     1
102
RTVSPost2010Prop33
280
     0
102
RTVSPost2010PropOp33
 70
     1
102
RTVSPost2010Prop34
280
     0
102
RTVSPost2010PropOp34
 70
     1
102
RTVSPost2010Prop35
280
     0
102
RTVSPost2010PropOp35
 70
     1
102
RTVSPost2010Prop36
280
     0
102
RTVSPost2010PropOp36
 70
     1
102
RTVSPost2010Prop37
 90
       50
102
RTVSPost2010PropOp37
 70
     1
102
RTVSPost2010Prop38
140
0.0
102
RTVSPost2010PropOp38
 70
     1
102
RTVSPost2010Prop39
140
1.0
102
RTVSPost2010PropOp39
 70
     1
102
RTVSPost2010Prop40
 90
        0
102
RTVSPost2010PropOp40
 70
     1
102
RTVSPost2010Prop41ColorIndex
 90
       18
102
RTVSPost2010Prop41ColorRGB
 90
        0
102
RTVSPost2010PropOp41
 70
     1
102
RTVSPost2010Prop42
 90
       50
102
RTVSPost2010PropOp42
 70
     1
102
RTVSPost2010Prop43
 90
        3
102
RTVSPost2010PropOp43
 70
     1
102
RTVSPost2010Prop44ColorIndex
 90
        5
102
RTVSPost2010Prop44ColorRGB
 90
      255
102
RTVSPost2010PropOp44
 70
     1
102
RTVSPost2010Prop45
280
     0
102
RTVSPost2010PropOp45
 70
     1
102
RTVSPost2010Prop46
 90
       50
102
RTVSPost2010PropOp46
 70
     1
102
RTVSPost2010Prop47
 90
       50
102
RTVSPost2010PropOp47
 70
     1
102
RTVSPost2010Prop48
 90
       50
102
RTVSPost2010PropOp48
 70
     1
102
RTVSPost2010Prop49
280
     0
102
RTVSPost2010PropOp49
 70
     1
102
RTVSPost2010Prop50
 90
       50
102
RTVSPost2010PropOp50
 70
     1
102
RTVSPost2010Prop51ColorIndex
 90
      256
102
RTVSPost2010Prop51ColorRGB
 90
-16777216
102
RTVSPost2010PropOp51
 70
     0
102
RTVSPost2010Prop52
140
1.0
102
RTVSPost2010PropOp52
 70
     0
102
RTVSPost2010Prop53
 90
        2
102
RTVSPost2010PropOp53
 70
     1
102
RTVSPost2010Prop54
  1
strokes_ogs.tif
102
RTVSPost2010PropOp54
 70
     1
102
RTVSPost2010Prop55
280
     0
102
RTVSPost2010PropOp55
 70
     1
102
RTVSPost2010Prop56
140
1.0
102
RTVSPost2010PropOp56
 70
     1
102
RTVSPost2010Prop57
140
1.0
102
RTVSPost2010PropOp57
 70
     1
  0
XRECORD
  5
59C
102
{ACAD_REACTORS
330
59B
102
}
330
59B
100
AcDbXrecord
280
     1
102
RTVSPropertyOp0
 70
     1
102
RTVSPropertyOp1
 70
     1
102
RTVSPropertyOp2
 70
     1
102
RTVSPropertyOp3
 70
     1
102
RTVSPropertyOp4
 70
     1
102
RTVSPropertyOp5
 70
     1
102
RTVSPropertyOp6
 70
     1
102
RTVSPropertyOp7
 70
     1
102
RTVSPropertyOp8
 70
     1
102
RTVSPropertyOp9
 70
     1
102
RTVSPropertyOp10
 70
     1
102
RTVSPropertyOp11
 70
     1
102
RTVSPropertyOp12
 70
     1
102
RTVSPropertyOp13
 70
     1
102
RTVSPropertyOp14
 70
     1
102
RTVSPropertyOp15
 70
     1
102
RTVSPropertyOp16
 70
     1
102
RTVSPropertyOp17
 70
     1
102
RTVSPropertyOp18
 70
     1
102
RTVSPropertyOp19
 70
     1
102
RTVSPropertyOp20
 70
     1
102
RTVSPropertyOp21
 70
     1
102
RTVSPropertyOp22
 70
     1
102
RTVSPropertyOp23
 70
     1
102
RTVSPropertyOp24
 70
     1
102
RTVSPropertyOp25
 70
     1
102
RTVSPropertyOp26
 70
     1
102
RTVSPropertyOp27
 70
     1
102
RTVSPropertyOp28
 70
     1
102
RTVSPropertyOp29
 70
     1
102
RTVSPropertyOp30
 70
     1
102
RTVSPropertyOp31
 70
     1
102
RTVSPropertyOp32
 70
     1
102
RTVSPropertyOp33
 70
     1
102
RTVSPropertyOp34
 70
     1
102
RTVSPropertyOp35
 70
     1
102
RTVSPropertyOp36
 70
     1
102
RTVSPropertyOp37
 70
     1
102
RTVSPropertyOp38
 70
     1
102
RTVSPropertyOp39
 70
     1
102
RTVSPropertyOp40
 70
     1
102
RTVSPropertyOp41
 70
     1
102
RTVSPropertyOp42
 70
     1
102
RTVSPropertyOp43
 70
     1
102
RTVSPropertyOp44
 70
     1
102
RTVSPropertyOp45
 70
     1
102
RTVSPropertyOp46
 70
     1
102
RTVSPropertyOp47
 70
     1
102
RTVSPropertyOp48
 70
     1
102
RTVSPropertyOp49
 70
     1
102
RTVSPropertyOp50
 70
     1
102
RTVSPropertyOp51
 70
     0
102
RTVSPropertyOp52
 70
     0
102
RTVSPropertyOp53
 70
     1
102
RTVSPropertyOp54
 70
     1
102
RTVSPropertyOp55
 70
     1
102
RTVSPropertyOp56
 70
     1
102
RTVSPropertyOp57
 70
     1
102
RTVSPost2010Prop28
280
     0
102
RTVSPost2010PropOp28
 70
     1
102
RTVSPost2010Prop29
280
     1
102
RTVSPost2010PropOp29
 70
     1
102
RTVSPost2010Prop30
280
     1
102
RTVSPost2010PropOp30
 70
     1
102
RTVSPost2010Prop31
280
     0
102
RTVSPost2010PropOp31
 70
     1
102
RTVSPost2010Prop32
280
     0
102
RTVSPost2010PropOp32
 70
     1
102
RTVSPost2010Prop33
280
     0
102
RTVSPost2010PropOp33
 70
     1
102
RTVSPost2010Prop34
280
     0
102
RTVSPost2010PropOp34
 70
     1
102
RTVSPost2010Prop35
280
     0
102
RTVSPost2010PropOp35
 70
     1
102
RTVSPost2010Prop36
280
     0
102
RTVSPost2010PropOp36
 70
     1
102
RTVSPost2010Prop37
 90
       50
102
RTVSPost2010PropOp37
 70
     1
102
RTVSPost2010Prop38
140
0.0
102
RTVSPost2010PropOp38
 70
     1
102
RTVSPost2010Prop39
140
1.0
102
RTVSPost2010PropOp39
 70
     1
102
RTVSPost2010Prop40
 90
        0
102
RTVSPost2010PropOp40
 70
     1
102
RTVSPost2010Prop41ColorIndex
 90
       18
102
RTVSPost2010Prop41ColorRGB
 90
        0
102
RTVSPost2010PropOp41
 70
     1
102
RTVSPost2010Prop42
 90
       50
102
RTVSPost2010PropOp42
 70
     1
102
RTVSPost2010Prop43
 90
        3
102
RTVSPost2010PropOp43
 70
     1
102
RTVSPost2010Prop44ColorIndex
 90
        5
102
RTVSPost2010Prop44ColorRGB
 90
      255
102
RTVSPost2010PropOp44
 70
     1
102
RTVSPost2010Prop45
280
     0
102
RTVSPost2010PropOp45
 70
     1
102
RTVSPost2010Prop46
 90
       50
102
RTVSPost2010PropOp46
 70
     1
102
RTVSPost2010Prop47
 90
       50
102
RTVSPost2010PropOp47
 70
     1
102
RTVSPost2010Prop48
 90
       50
102
RTVSPost2010PropOp48
 70
     1
102
RTVSPost2010Prop49
280
     0
102
RTVSPost2010PropOp49
 70
     1
102
RTVSPost2010Prop50
 90
       50
102
RTVSPost2010PropOp50
 70
     1
102
RTVSPost2010Prop51ColorIndex
 90
      256
102
RTVSPost2010Prop51ColorRGB
 90
-16777216
102
RTVSPost2010PropOp51
 70
     0
102
RTVSPost2010Prop52
140
1.0
102
RTVSPost2010PropOp52
 70
     0
102
RTVSPost2010Prop53
 90
        2
102
RTVSPost2010PropOp53
 70
     1
102
RTVSPost2010Prop54
  1
strokes_ogs.tif
102
RTVSPost2010PropOp54
 70
     1
102
RTVSPost2010Prop55
280
     0
102
RTVSPost2010PropOp55
 70
     1
102
RTVSPost2010Prop56
140
1.0
102
RTVSPost2010PropOp56
 70
     1
102
RTVSPost2010Prop57
140
1.0
102
RTVSPost2010PropOp57
 70
     1
  0
XRECORD
  5
59E
102
{ACAD_REACTORS
330
59D
102
}
330
59D
100
AcDbXrecord
280
     1
102
RTVSPropertyOp0
 70
     1
102
RTVSPropertyOp1
 70
     1
102
RTVSPropertyOp2
 70
     1
102
RTVSPropertyOp3
 70
     1
102
RTVSPropertyOp4
 70
     1
102
RTVSPropertyOp5
 70
     1
102
RTVSPropertyOp6
 70
     1
102
RTVSPropertyOp7
 70
     1
102
RTVSPropertyOp8
 70
     1
102
RTVSPropertyOp9
 70
     1
102
RTVSPropertyOp10
 70
     1
102
RTVSPropertyOp11
 70
     1
102
RTVSPropertyOp12
 70
     1
102
RTVSPropertyOp13
 70
     1
102
RTVSPropertyOp14
 70
     1
102
RTVSPropertyOp15
 70
     1
102
RTVSPropertyOp16
 70
     1
102
RTVSPropertyOp17
 70
     1
102
RTVSPropertyOp18
 70
     1
102
RTVSPropertyOp19
 70
     1
102
RTVSPropertyOp20
 70
     1
102
RTVSPropertyOp21
 70
     1
102
RTVSPropertyOp22
 70
     1
102
RTVSPropertyOp23
 70
     1
102
RTVSPropertyOp24
 70
     1
102
RTVSPropertyOp25
 70
     1
102
RTVSPropertyOp26
 70
     1
102
RTVSPropertyOp27
 70
     1
102
RTVSPropertyOp28
 70
     1
102
RTVSPropertyOp29
 70
     1
102
RTVSPropertyOp30
 70
     1
102
RTVSPropertyOp31
 70
     1
102
RTVSPropertyOp32
 70
     1
102
RTVSPropertyOp33
 70
     1
102
RTVSPropertyOp34
 70
     1
102
RTVSPropertyOp35
 70
     1
102
RTVSPropertyOp36
 70
     1
102
RTVSPropertyOp37
 70
     1
102
RTVSPropertyOp38
 70
     1
102
RTVSPropertyOp39
 70
     1
102
RTVSPropertyOp40
 70
     1
102
RTVSPropertyOp41
 70
     1
102
RTVSPropertyOp42
 70
     1
102
RTVSPropertyOp43
 70
     1
102
RTVSPropertyOp44
 70
     1
102
RTVSPropertyOp45
 70
     1
102
RTVSPropertyOp46
 70
     1
102
RTVSPropertyOp47
 70
     1
102
RTVSPropertyOp48
 70
     1
102
RTVSPropertyOp49
 70
     1
102
RTVSPropertyOp50
 70
     1
102
RTVSPropertyOp51
 70
     0
102
RTVSPropertyOp52
 70
     0
102
RTVSPropertyOp53
 70
     1
102
RTVSPropertyOp54
 70
     1
102
RTVSPropertyOp55
 70
     1
102
RTVSPropertyOp56
 70
     1
102
RTVSPropertyOp57
 70
     1
102
RTVSPost2010Prop28
280
     0
102
RTVSPost2010PropOp28
 70
     1
102
RTVSPost2010Prop29
280
     1
102
RTVSPost2010PropOp29
 70
     1
102
RTVSPost2010Prop30
280
     1
102
RTVSPost2010PropOp30
 70
     1
102
RTVSPost2010Prop31
280
     0
102
RTVSPost2010PropOp31
 70
     1
102
RTVSPost2010Prop32
280
     0
102
RTVSPost2010PropOp32
 70
     1
102
RTVSPost2010Prop33
280
     0
102
RTVSPost2010PropOp33
 70
     1
102
RTVSPost2010Prop34
280
     0
102
RTVSPost2010PropOp34
 70
     1
102
RTVSPost2010Prop35
280
     0
102
RTVSPost2010PropOp35
 70
     1
102
RTVSPost2010Prop36
280
     0
102
RTVSPost2010PropOp36
 70
     1
102
RTVSPost2010Prop37
 90
       50
102
RTVSPost2010PropOp37
 70
     1
102
RTVSPost2010Prop38
140
0.0
102
RTVSPost2010PropOp38
 70
     1
102
RTVSPost2010Prop39
140
1.0
102
RTVSPost2010PropOp39
 70
     1
102
RTVSPost2010Prop40
 90
        0
102
RTVSPost2010PropOp40
 70
     1
102
RTVSPost2010Prop41ColorIndex
 90
       18
102
RTVSPost2010Prop41ColorRGB
 90
        0
102
RTVSPost2010PropOp41
 70
     1
102
RTVSPost2010Prop42
 90
       50
102
RTVSPost2010PropOp42
 70
     1
102
RTVSPost2010Prop43
 90
        3
102
RTVSPost2010PropOp43
 70
     1
102
RTVSPost2010Prop44ColorIndex
 90
        5
102
RTVSPost2010Prop44ColorRGB
 90
      255
102
RTVSPost2010PropOp44
 70
     1
102
RTVSPost2010Prop45
280
     0
102
RTVSPost2010PropOp45
 70
     1
102
RTVSPost2010Prop46
 90
       50
102
RTVSPost2010PropOp46
 70
     1
102
RTVSPost2010Prop47
 90
       50
102
RTVSPost2010PropOp47
 70
     1
102
RTVSPost2010Prop48
 90
       50
102
RTVSPost2010PropOp48
 70
     1
102
RTVSPost2010Prop49
280
     0
102
RTVSPost2010PropOp49
 70
     1
102
RTVSPost2010Prop50
 90
       50
102
RTVSPost2010PropOp50
 70
     1
102
RTVSPost2010Prop51ColorIndex
 90
      256
102
RTVSPost2010Prop51ColorRGB
 90
-16777216
102
RTVSPost2010PropOp51
 70
     0
102
RTVSPost2010Prop52
140
1.0
102
RTVSPost2010PropOp52
 70
     0
102
RTVSPost2010Prop53
 90
        2
102
RTVSPost2010PropOp53
 70
     1
102
RTVSPost2010Prop54
  1
strokes_ogs.tif
102
RTVSPost2010PropOp54
 70
     1
102
RTVSPost2010Prop55
280
     0
102
RTVSPost2010PropOp55
 70
     1
102
RTVSPost2010Prop56
140
1.0
102
RTVSPost2010PropOp56
 70
     1
102
RTVSPost2010Prop57
140
1.0
102
RTVSPost2010PropOp57
 70
     1
  0
XRECORD
  5
58E
102
{ACAD_REACTORS
330
58D
102
}
330
58D
100
AcDbXrecord
280
     1
102
RTVSPropertyOp0
 70
     1
102
RTVSPropertyOp1
 70
     1
102
RTVSPropertyOp2
 70
     1
102
RTVSPropertyOp3
 70
     1
102
RTVSPropertyOp4
 70
     1
102
RTVSPropertyOp5
 70
     1
102
RTVSPropertyOp6
 70
     1
102
RTVSPropertyOp7
 70
     1
102
RTVSPropertyOp8
 70
     1
102
RTVSPropertyOp9
 70
     1
102
RTVSPropertyOp10
 70
     1
102
RTVSPropertyOp11
 70
     1
102
RTVSPropertyOp12
 70
     1
102
RTVSPropertyOp13
 70
     1
102
RTVSPropertyOp14
 70
     1
102
RTVSPropertyOp15
 70
     1
102
RTVSPropertyOp16
 70
     1
102
RTVSPropertyOp17
 70
     1
102
RTVSPropertyOp18
 70
     1
102
RTVSPropertyOp19
 70
     1
102
RTVSPropertyOp20
 70
     1
102
RTVSPropertyOp21
 70
     1
102
RTVSPropertyOp22
 70
     1
102
RTVSPropertyOp23
 70
     1
102
RTVSPropertyOp24
 70
     1
102
RTVSPropertyOp25
 70
     1
102
RTVSPropertyOp26
 70
     1
102
RTVSPropertyOp27
 70
     1
102
RTVSPropertyOp28
 70
     1
102
RTVSPropertyOp29
 70
     1
102
RTVSPropertyOp30
 70
     1
102
RTVSPropertyOp31
 70
     1
102
RTVSPropertyOp32
 70
     1
102
RTVSPropertyOp33
 70
     1
102
RTVSPropertyOp34
 70
     1
102
RTVSPropertyOp35
 70
     1
102
RTVSPropertyOp36
 70
     1
102
RTVSPropertyOp37
 70
     1
102
RTVSPropertyOp38
 70
     1
102
RTVSPropertyOp39
 70
     1
102
RTVSPropertyOp40
 70
     1
102
RTVSPropertyOp41
 70
     1
102
RTVSPropertyOp42
 70
     1
102
RTVSPropertyOp43
 70
     1
102
RTVSPropertyOp44
 70
     1
102
RTVSPropertyOp45
 70
     1
102
RTVSPropertyOp46
 70
     1
102
RTVSPropertyOp47
 70
     1
102
RTVSPropertyOp48
 70
     1
102
RTVSPropertyOp49
 70
     1
102
RTVSPropertyOp50
 70
     1
102
RTVSPropertyOp51
 70
     0
102
RTVSPropertyOp52
 70
     0
102
RTVSPropertyOp53
 70
     1
102
RTVSPropertyOp54
 70
     1
102
RTVSPropertyOp55
 70
     1
102
RTVSPropertyOp56
 70
     1
102
RTVSPropertyOp57
 70
     1
102
RTVSPost2010Prop28
280
     0
102
RTVSPost2010PropOp28
 70
     1
102
RTVSPost2010Prop29
280
     1
102
RTVSPost2010PropOp29
 70
     1
102
RTVSPost2010Prop30
280
     1
102
RTVSPost2010PropOp30
 70
     1
102
RTVSPost2010Prop31
280
     0
102
RTVSPost2010PropOp31
 70
     1
102
RTVSPost2010Prop32
280
     0
102
RTVSPost2010PropOp32
 70
     1
102
RTVSPost2010Prop33
280
     0
102
RTVSPost2010PropOp33
 70
     1
102
RTVSPost2010Prop34
280
     0
102
RTVSPost2010PropOp34
 70
     1
102
RTVSPost2010Prop35
280
     0
102
RTVSPost2010PropOp35
 70
     1
102
RTVSPost2010Prop36
280
     0
102
RTVSPost2010PropOp36
 70
     1
102
RTVSPost2010Prop37
 90
       50
102
RTVSPost2010PropOp37
 70
     1
102
RTVSPost2010Prop38
140
0.0
102
RTVSPost2010PropOp38
 70
     1
102
RTVSPost2010Prop39
140
1.0
102
RTVSPost2010PropOp39
 70
     1
102
RTVSPost2010Prop40
 90
        0
102
RTVSPost2010PropOp40
 70
     1
102
RTVSPost2010Prop41ColorIndex
 90
       18
102
RTVSPost2010Prop41ColorRGB
 90
        0
102
RTVSPost2010PropOp41
 70
     1
102
RTVSPost2010Prop42
 90
       50
102
RTVSPost2010PropOp42
 70
     1
102
RTVSPost2010Prop43
 90
        3
102
RTVSPost2010PropOp43
 70
     1
102
RTVSPost2010Prop44ColorIndex
 90
        5
102
RTVSPost2010Prop44ColorRGB
 90
      255
102
RTVSPost2010PropOp44
 70
     1
102
RTVSPost2010Prop45
280
     0
102
RTVSPost2010PropOp45
 70
     1
102
RTVSPost2010Prop46
 90
       50
102
RTVSPost2010PropOp46
 70
     1
102
RTVSPost2010Prop47
 90
       50
102
RTVSPost2010PropOp47
 70
     1
102
RTVSPost2010Prop48
 90
       50
102
RTVSPost2010PropOp48
 70
     1
102
RTVSPost2010Prop49
280
     0
102
RTVSPost2010PropOp49
 70
     1
102
RTVSPost2010Prop50
 90
       50
102
RTVSPost2010PropOp50
 70
     1
102
RTVSPost2010Prop51ColorIndex
 90
      256
102
RTVSPost2010Prop51ColorRGB
 90
-16777216
102
RTVSPost2010PropOp51
 70
     0
102
RTVSPost2010Prop52
140
1.0
102
RTVSPost2010PropOp52
 70
     0
102
RTVSPost2010Prop53
 90
        2
102
RTVSPost2010PropOp53
 70
     1
102
RTVSPost2010Prop54
  1
strokes_ogs.tif
102
RTVSPost2010PropOp54
 70
     1
102
RTVSPost2010Prop55
280
     0
102
RTVSPost2010PropOp55
 70
     1
102
RTVSPost2010Prop56
140
1.0
102
RTVSPost2010PropOp56
 70
     1
102
RTVSPost2010Prop57
140
1.0
102
RTVSPost2010PropOp57
 70
     1
  0
XRECORD
  5
580
102
{ACAD_REACTORS
330
57F
102
}
330
57F
100
AcDbXrecord
280
     1
102
RTVSPropertyOp0
 70
     1
102
RTVSPropertyOp1
 70
     1
102
RTVSPropertyOp2
 70
     1
102
RTVSPropertyOp3
 70
     1
102
RTVSPropertyOp4
 70
     1
102
RTVSPropertyOp5
 70
     1
102
RTVSPropertyOp6
 70
     1
102
RTVSPropertyOp7
 70
     1
102
RTVSPropertyOp8
 70
     1
102
RTVSPropertyOp9
 70
     1
102
RTVSPropertyOp10
 70
     1
102
RTVSPropertyOp11
 70
     1
102
RTVSPropertyOp12
 70
     1
102
RTVSPropertyOp13
 70
     1
102
RTVSPropertyOp14
 70
     1
102
RTVSPropertyOp15
 70
     1
102
RTVSPropertyOp16
 70
     1
102
RTVSPropertyOp17
 70
     1
102
RTVSPropertyOp18
 70
     1
102
RTVSPropertyOp19
 70
     1
102
RTVSPropertyOp20
 70
     1
102
RTVSPropertyOp21
 70
     1
102
RTVSPropertyOp22
 70
     1
102
RTVSPropertyOp23
 70
     1
102
RTVSPropertyOp24
 70
     1
102
RTVSPropertyOp25
 70
     1
102
RTVSPropertyOp26
 70
     1
102
RTVSPropertyOp27
 70
     1
102
RTVSPropertyOp28
 70
     1
102
RTVSPropertyOp29
 70
     1
102
RTVSPropertyOp30
 70
     1
102
RTVSPropertyOp31
 70
     1
102
RTVSPropertyOp32
 70
     1
102
RTVSPropertyOp33
 70
     1
102
RTVSPropertyOp34
 70
     1
102
RTVSPropertyOp35
 70
     1
102
RTVSPropertyOp36
 70
     1
102
RTVSPropertyOp37
 70
     1
102
RTVSPropertyOp38
 70
     1
102
RTVSPropertyOp39
 70
     1
102
RTVSPropertyOp40
 70
     1
102
RTVSPropertyOp41
 70
     1
102
RTVSPropertyOp42
 70
     1
102
RTVSPropertyOp43
 70
     1
102
RTVSPropertyOp44
 70
     1
102
RTVSPropertyOp45
 70
     1
102
RTVSPropertyOp46
 70
     1
102
RTVSPropertyOp47
 70
     1
102
RTVSPropertyOp48
 70
     1
102
RTVSPropertyOp49
 70
     1
102
RTVSPropertyOp50
 70
     1
102
RTVSPropertyOp51
 70
     0
102
RTVSPropertyOp52
 70
     0
102
RTVSPropertyOp53
 70
     1
102
RTVSPropertyOp54
 70
     1
102
RTVSPropertyOp55
 70
     1
102
RTVSPropertyOp56
 70
     1
102
RTVSPropertyOp57
 70
     1
102
RTVSPost2010Prop28
280
     0
102
RTVSPost2010PropOp28
 70
     1
102
RTVSPost2010Prop29
280
     1
102
RTVSPost2010PropOp29
 70
     1
102
RTVSPost2010Prop30
280
     1
102
RTVSPost2010PropOp30
 70
     1
102
RTVSPost2010Prop31
280
     0
102
RTVSPost2010PropOp31
 70
     1
102
RTVSPost2010Prop32
280
     0
102
RTVSPost2010PropOp32
 70
     1
102
RTVSPost2010Prop33
280
     0
102
RTVSPost2010PropOp33
 70
     1
102
RTVSPost2010Prop34
280
     0
102
RTVSPost2010PropOp34
 70
     1
102
RTVSPost2010Prop35
280
     0
102
RTVSPost2010PropOp35
 70
     1
102
RTVSPost2010Prop36
280
     0
102
RTVSPost2010PropOp36
 70
     1
102
RTVSPost2010Prop37
 90
       50
102
RTVSPost2010PropOp37
 70
     1
102
RTVSPost2010Prop38
140
0.0
102
RTVSPost2010PropOp38
 70
     1
102
RTVSPost2010Prop39
140
1.0
102
RTVSPost2010PropOp39
 70
     1
102
RTVSPost2010Prop40
 90
        0
102
RTVSPost2010PropOp40
 70
     1
102
RTVSPost2010Prop41ColorIndex
 90
       18
102
RTVSPost2010Prop41ColorRGB
 90
        0
102
RTVSPost2010PropOp41
 70
     1
102
RTVSPost2010Prop42
 90
       50
102
RTVSPost2010PropOp42
 70
     1
102
RTVSPost2010Prop43
 90
        3
102
RTVSPost2010PropOp43
 70
     1
102
RTVSPost2010Prop44ColorIndex
 90
        5
102
RTVSPost2010Prop44ColorRGB
 90
      255
102
RTVSPost2010PropOp44
 70
     1
102
RTVSPost2010Prop45
280
     0
102
RTVSPost2010PropOp45
 70
     1
102
RTVSPost2010Prop46
 90
       50
102
RTVSPost2010PropOp46
 70
     1
102
RTVSPost2010Prop47
 90
       50
102
RTVSPost2010PropOp47
 70
     1
102
RTVSPost2010Prop48
 90
       50
102
RTVSPost2010PropOp48
 70
     1
102
RTVSPost2010Prop49
280
     0
102
RTVSPost2010PropOp49
 70
     1
102
RTVSPost2010Prop50
 90
       50
102
RTVSPost2010PropOp50
 70
     1
102
RTVSPost2010Prop51ColorIndex
 90
      256
102
RTVSPost2010Prop51ColorRGB
 90
-16777216
102
RTVSPost2010PropOp51
 70
     0
102
RTVSPost2010Prop52
140
1.0
102
RTVSPost2010PropOp52
 70
     0
102
RTVSPost2010Prop53
 90
        2
102
RTVSPost2010PropOp53
 70
     1
102
RTVSPost2010Prop54
  1
strokes_ogs.tif
102
RTVSPost2010PropOp54
 70
     1
102
RTVSPost2010Prop55
280
     0
102
RTVSPost2010PropOp55
 70
     1
102
RTVSPost2010Prop56
140
1.0
102
RTVSPost2010PropOp56
 70
     1
102
RTVSPost2010Prop57
140
1.0
102
RTVSPost2010PropOp57
 70
     1
  0
XRECORD
  5
5A0
102
{ACAD_REACTORS
330
59F
102
}
330
59F
100
AcDbXrecord
280
     1
102
RTVSPropertyOp0
 70
     1
102
RTVSPropertyOp1
 70
     1
102
RTVSPropertyOp2
 70
     1
102
RTVSPropertyOp3
 70
     1
102
RTVSPropertyOp4
 70
     1
102
RTVSPropertyOp5
 70
     1
102
RTVSPropertyOp6
 70
     1
102
RTVSPropertyOp7
 70
     1
102
RTVSPropertyOp8
 70
     1
102
RTVSPropertyOp9
 70
     1
102
RTVSPropertyOp10
 70
     1
102
RTVSPropertyOp11
 70
     1
102
RTVSPropertyOp12
 70
     1
102
RTVSPropertyOp13
 70
     1
102
RTVSPropertyOp14
 70
     1
102
RTVSPropertyOp15
 70
     1
102
RTVSPropertyOp16
 70
     1
102
RTVSPropertyOp17
 70
     1
102
RTVSPropertyOp18
 70
     1
102
RTVSPropertyOp19
 70
     1
102
RTVSPropertyOp20
 70
     1
102
RTVSPropertyOp21
 70
     1
102
RTVSPropertyOp22
 70
     1
102
RTVSPropertyOp23
 70
     1
102
RTVSPropertyOp24
 70
     1
102
RTVSPropertyOp25
 70
     1
102
RTVSPropertyOp26
 70
     1
102
RTVSPropertyOp27
 70
     1
102
RTVSPropertyOp28
 70
     1
102
RTVSPropertyOp29
 70
     1
102
RTVSPropertyOp30
 70
     1
102
RTVSPropertyOp31
 70
     1
102
RTVSPropertyOp32
 70
     1
102
RTVSPropertyOp33
 70
     1
102
RTVSPropertyOp34
 70
     1
102
RTVSPropertyOp35
 70
     1
102
RTVSPropertyOp36
 70
     1
102
RTVSPropertyOp37
 70
     1
102
RTVSPropertyOp38
 70
     1
102
RTVSPropertyOp39
 70
     1
102
RTVSPropertyOp40
 70
     1
102
RTVSPropertyOp41
 70
     1
102
RTVSPropertyOp42
 70
     1
102
RTVSPropertyOp43
 70
     1
102
RTVSPropertyOp44
 70
     1
102
RTVSPropertyOp45
 70
     1
102
RTVSPropertyOp46
 70
     1
102
RTVSPropertyOp47
 70
     1
102
RTVSPropertyOp48
 70
     1
102
RTVSPropertyOp49
 70
     1
102
RTVSPropertyOp50
 70
     1
102
RTVSPropertyOp51
 70
     0
102
RTVSPropertyOp52
 70
     0
102
RTVSPropertyOp53
 70
     1
102
RTVSPropertyOp54
 70
     1
102
RTVSPropertyOp55
 70
     1
102
RTVSPropertyOp56
 70
     1
102
RTVSPropertyOp57
 70
     1
102
RTVSPost2010Prop28
280
     0
102
RTVSPost2010PropOp28
 70
     1
102
RTVSPost2010Prop29
280
     1
102
RTVSPost2010PropOp29
 70
     1
102
RTVSPost2010Prop30
280
     1
102
RTVSPost2010PropOp30
 70
     1
102
RTVSPost2010Prop31
280
     0
102
RTVSPost2010PropOp31
 70
     1
102
RTVSPost2010Prop32
280
     0
102
RTVSPost2010PropOp32
 70
     1
102
RTVSPost2010Prop33
280
     0
102
RTVSPost2010PropOp33
 70
     1
102
RTVSPost2010Prop34
280
     0
102
RTVSPost2010PropOp34
 70
     1
102
RTVSPost2010Prop35
280
     0
102
RTVSPost2010PropOp35
 70
     1
102
RTVSPost2010Prop36
280
     0
102
RTVSPost2010PropOp36
 70
     1
102
RTVSPost2010Prop37
 90
       50
102
RTVSPost2010PropOp37
 70
     1
102
RTVSPost2010Prop38
140
0.0
102
RTVSPost2010PropOp38
 70
     1
102
RTVSPost2010Prop39
140
1.0
102
RTVSPost2010PropOp39
 70
     1
102
RTVSPost2010Prop40
 90
        0
102
RTVSPost2010PropOp40
 70
     1
102
RTVSPost2010Prop41ColorIndex
 90
       18
102
RTVSPost2010Prop41ColorRGB
 90
        0
102
RTVSPost2010PropOp41
 70
     1
102
RTVSPost2010Prop42
 90
       50
102
RTVSPost2010PropOp42
 70
     1
102
RTVSPost2010Prop43
 90
        3
102
RTVSPost2010PropOp43
 70
     1
102
RTVSPost2010Prop44ColorIndex
 90
        5
102
RTVSPost2010Prop44ColorRGB
 90
      255
102
RTVSPost2010PropOp44
 70
     1
102
RTVSPost2010Prop45
280
     0
102
RTVSPost2010PropOp45
 70
     1
102
RTVSPost2010Prop46
 90
       50
102
RTVSPost2010PropOp46
 70
     1
102
RTVSPost2010Prop47
 90
       50
102
RTVSPost2010PropOp47
 70
     1
102
RTVSPost2010Prop48
 90
       50
102
RTVSPost2010PropOp48
 70
     1
102
RTVSPost2010Prop49
280
     0
102
RTVSPost2010PropOp49
 70
     1
102
RTVSPost2010Prop50
 90
       50
102
RTVSPost2010PropOp50
 70
     1
102
RTVSPost2010Prop51ColorIndex
 90
      256
102
RTVSPost2010Prop51ColorRGB
 90
-16777216
102
RTVSPost2010PropOp51
 70
     0
102
RTVSPost2010Prop52
140
1.0
102
RTVSPost2010PropOp52
 70
     0
102
RTVSPost2010Prop53
 90
        2
102
RTVSPost2010PropOp53
 70
     1
102
RTVSPost2010Prop54
  1
strokes_ogs.tif
102
RTVSPost2010PropOp54
 70
     1
102
RTVSPost2010Prop55
280
     0
102
RTVSPost2010PropOp55
 70
     1
102
RTVSPost2010Prop56
140
1.0
102
RTVSPost2010PropOp56
 70
     1
102
RTVSPost2010Prop57
140
1.0
102
RTVSPost2010PropOp57
 70
     1
  0
ENDSEC
  0
EOF
