  0
SECTION
  2
HEADER
  9
$ACADVER
  1
AC1015
  9
$ACADMAINTVER
 70
     6
  9
$DWGCODEPAGE
  3
ANSI_932
  9
$INSBASE
 10
0.0
 20
0.0
 30
0.0
  9
$EXTMIN
 10
0.0
 20
0.0
 30
0.0
  9
$EXTMAX
 10
25230.0
 20
17820.0
 30
0.0
  9
$LIMMIN
 10
0.0
 20
0.0
  9
$LIMMAX
 10
30276.0
 20
21384.0
  9
$ORTHOMODE
 70
     0
  9
$REGENMODE
 70
     1
  9
$FILLMODE
 70
     1
  9
$QTEXTMODE
 70
     0
  9
$MIRRTEXT
 70
     1
  9
$LTSCALE
 40
350.0
  9
$ATTMODE
 70
     1
  9
$TEXTSIZE
 40
0.2
  9
$TRACEWID
 40
0.05
  9
$TEXTSTYLE
  7
Standard
  9
$CLAYER
  8
0
  9
$CELTYPE
  6
ByLayer
  9
$CECOLOR
 62
   256
  9
$CELTSCALE
 40
1.0
  9
$DISPSILH
 70
     0
  9
$DIMSCALE
 40
30.0
  9
$DIMASZ
 40
0.18
  9
$DIMEXO
 40
0.0625
  9
$DIMDLI
 40
0.38
  9
$DIMRND
 40
0.0
  9
$DIMDLE
 40
0.0
  9
$DIMEXE
 40
0.18
  9
$DIMTP
 40
0.0
  9
$DIMTM
 40
0.0
  9
$DIMTXT
 40
0.18
  9
$DIMCEN
 40
0.09
  9
$DIMTSZ
 40
0.0
  9
$DIMTOL
 70
     0
  9
$DIMLIM
 70
     0
  9
$DIMTIH
 70
     1
  9
$DIMTOH
 70
     1
  9
$DIMSE1
 70
     0
  9
$DIMSE2
 70
     0
  9
$DIMTAD
 70
     0
  9
$DIMZIN
 70
     0
  9
$DIMBLK
  1

  9
$DIMASO
 70
     1
  9
$DIMSHO
 70
     1
  9
$DIMPOST
  1

  9
$DIMAPOST
  1

  9
$DIMALT
 70
     0
  9
$DIMALTD
 70
     2
  9
$DIMALTF
 40
25.4
  9
$DIMLFAC
 40
1.0
  9
$DIMTOFL
 70
     0
  9
$DIMTVP
 40
0.0
  9
$DIMTIX
 70
     0
  9
$DIMSOXD
 70
     0
  9
$DIMSAH
 70
     0
  9
$DIMBLK1
  1

  9
$DIMBLK2
  1

  9
$DIMSTYLE
  2
Standard
  9
$DIMCLRD
 70
     0
  9
$DIMCLRE
 70
     0
  9
$DIMCLRT
 70
     0
  9
$DIMTFAC
 40
1.0
  9
$DIMGAP
 40
0.09
  9
$DIMJUST
 70
     0
  9
$DIMSD1
 70
     0
  9
$DIMSD2
 70
     0
  9
$DIMTOLJ
 70
     1
  9
$DIMTZIN
 70
     0
  9
$DIMALTZ
 70
     0
  9
$DIMALTTZ
 70
     0
  9
$DIMUPT
 70
     0
  9
$DIMDEC
 70
     4
  9
$DIMTDEC
 70
     4
  9
$DIMALTU
 70
     2
  9
$DIMALTTD
 70
     2
  9
$DIMTXSTY
  7
Standard
  9
$DIMAUNIT
 70
     0
  9
$DIMADEC
 70
     0
  9
$DIMALTRND
 40
0.0
  9
$DIMAZIN
 70
     0
  9
$DIMDSEP
 70
    46
  9
$DIMATFIT
 70
     3
  9
$DIMFRAC
 70
     0
  9
$DIMLDRBLK
  1

  9
$DIMLUNIT
 70
     2
  9
$DIMLWD
 70
    -2
  9
$DIMLWE
 70
    -2
  9
$DIMTMOVE
 70
     0
  9
$LUNITS
 70
     2
  9
$LUPREC
 70
     4
  9
$SKETCHINC
 40
0.1
  9
$FILLETRAD
 40
0.5
  9
$AUNITS
 70
     0
  9
$AUPREC
 70
     0
  9
$MENU
  1
.
  9
$ELEVATION
 40
0.0
  9
$PELEVATION
 40
0.0
  9
$THICKNESS
 40
0.0
  9
$LIMCHECK
 70
     0
  9
$CHAMFERA
 40
0.0
  9
$CHAMFERB
 40
0.0
  9
$CHAMFERC
 40
0.0
  9
$CHAMFERD
 40
0.0
  9
$SKPOLY
 70
     0
  9
$TDCREATE
 40
2460342.09880787
  9
$TDUCREATE
 40
2460341.72380787
  9
$TDUPDATE
 40
2460341.723809317
  9
$TDUUPDATE
 40
2460341.348809317
  9
$TDINDWG
 40
0.0000000116
  9
$TDUSRTIMER
 40
0.0000000116
  9
$USRTIMER
 70
     1
  9
$ANGBASE
 50
0.0
  9
$ANGDIR
 70
     0
  9
$PDMODE
 70
     0
  9
$PDSIZE
 40
0.0
  9
$PLINEWID
 40
0.0
  9
$SPLFRAME
 70
     0
  9
$SPLINETYPE
 70
     6
  9
$SPLINESEGS
 70
     8
  9
$HANDSEED
  5
4FE
  9
$SURFTAB1
 70
     6
  9
$SURFTAB2
 70
     6
  9
$SURFTYPE
 70
     6
  9
$SURFU
 70
     6
  9
$SURFV
 70
     6
  9
$UCSBASE
  2

  9
$UCSNAME
  2

  9
$UCSORG
 10
0.0
 20
0.0
 30
0.0
  9
$UCSXDIR
 10
1.0
 20
0.0
 30
0.0
  9
$UCSYDIR
 10
0.0
 20
1.0
 30
0.0
  9
$UCSORTHOREF
  2

  9
$UCSORTHOVIEW
 70
     0
  9
$UCSORGTOP
 10
0.0
 20
0.0
 30
0.0
  9
$UCSORGBOTTOM
 10
0.0
 20
0.0
 30
0.0
  9
$UCSORGLEFT
 10
0.0
 20
0.0
 30
0.0
  9
$UCSORGRIGHT
 10
0.0
 20
0.0
 30
0.0
  9
$UCSORGFRONT
 10
0.0
 20
0.0
 30
0.0
  9
$UCSORGBACK
 10
0.0
 20
0.0
 30
0.0
  9
$PUCSBASE
  2

  9
$PUCSNAME
  2

  9
$PUCSORG
 10
0.0
 20
0.0
 30
0.0
  9
$PUCSXDIR
 10
1.0
 20
0.0
 30
0.0
  9
$PUCSYDIR
 10
0.0
 20
1.0
 30
0.0
  9
$PUCSORTHOREF
  2

  9
$PUCSORTHOVIEW
 70
     0
  9
$PUCSORGTOP
 10
0.0
 20
0.0
 30
0.0
  9
$PUCSORGBOTTOM
 10
0.0
 20
0.0
 30
0.0
  9
$PUCSORGLEFT
 10
0.0
 20
0.0
 30
0.0
  9
$PUCSORGRIGHT
 10
0.0
 20
0.0
 30
0.0
  9
$PUCSORGFRONT
 10
0.0
 20
0.0
 30
0.0
  9
$PUCSORGBACK
 10
0.0
 20
0.0
 30
0.0
  9
$USERI1
 70
     0
  9
$USERI2
 70
     0
  9
$USERI3
 70
     0
  9
$USERI4
 70
     0
  9
$USERI5
 70
     0
  9
$USERR1
 40
0.0
  9
$USERR2
 40
0.0
  9
$USERR3
 40
0.0
  9
$USERR4
 40
0.0
  9
$USERR5
 40
0.0
  9
$WORLDVIEW
 70
     1
  9
$SHADEDGE
 70
     3
  9
$SHADEDIF
 70
    70
  9
$TILEMODE
 70
     1
  9
$MAXACTVP
 70
    64
  9
$PINSBASE
 10
0.0
 20
0.0
 30
0.0
  9
$PLIMCHECK
 70
     0
  9
$PEXTMIN
 10
0.0
 20
0.0
 30
0.0
  9
$PEXTMAX
 10
12.0
 20
9.0
 30
0.0
  9
$PLIMMIN
 10
0.0
 20
0.0
  9
$PLIMMAX
 10
12.0
 20
9.0
  9
$UNITMODE
 70
     0
  9
$VISRETAIN
 70
     1
  9
$PLINEGEN
 70
     0
  9
$PSLTSCALE
 70
     1
  9
$TREEDEPTH
 70
  3020
  9
$CMLSTYLE
  2
Standard
  9
$CMLJUST
 70
     0
  9
$CMLSCALE
 40
1.0
  9
$PROXYGRAPHICS
 70
     1
  9
$MEASUREMENT
 70
     1
  9
$CELWEIGHT
370
    -1
  9
$ENDCAPS
280
     0
  9
$JOINSTYLE
280
     0
  9
$LWDISPLAY
290
     0
  9
$INSUNITS
 70
     4
  9
$HYPERLINKBASE
  1

  9
$STYLESHEET
  1

  9
$XEDIT
290
     1
  9
$CEPSNTYPE
380
     0
  9
$PSTYLEMODE
290
     1
  9
$FINGERPRINTGUID
  2
{07e4dd9c-99ef-4ea8-b405-ec2edbe7552e}
  9
$VERSIONGUID
  2
{FAEB1C32-E019-11D5-929B-00C0DF256EC4}
  9
$EXTNAMES
290
     1
  9
$PSVPSCALE
 40
0.0
  9
$OLESTARTUP
290
     0
  0
ENDSEC
  0
SECTION
  2
CLASSES
  0
CLASS
  1
ACDBDICTIONARYWDFLT
  2
AcDbDictionaryWithDefault
  3
ObjectDBX Classes
 90
        0
280
     0
281
     0
  0
CLASS
  1
VISUALSTYLE
  2
AcDbVisualStyle
  3
ObjectDBX Classes
 90
     4095
280
     0
281
     0
  0
CLASS
  1
MATERIAL
  2
AcDbMaterial
  3
ObjectDBX Classes
 90
     1153
280
     0
281
     0
  0
CLASS
  1
SCALE
  2
AcDbScale
  3
ObjectDBX Classes
 90
     1153
280
     0
281
     0
  0
CLASS
  1
TABLESTYLE
  2
AcDbTableStyle
  3
ObjectDBX Classes
 90
     4095
280
     0
281
     0
  0
CLASS
  1
MLEADERSTYLE
  2
AcDbMLeaderStyle
  3
ACDB_MLEADERSTYLE_CLASS
 90
     4095
280
     0
281
     0
  0
CLASS
  1
SUN
  2
AcDbSun
  3
SCENEOE
 90
     1153
280
     0
281
     0
  0
CLASS
  1
DICTIONARYVAR
  2
AcDbDictionaryVar
  3
ObjectDBX Classes
 90
        0
280
     0
281
     0
  0
CLASS
  1
ACDBPLACEHOLDER
  2
AcDbPlaceHolder
  3
ObjectDBX Classes
 90
        0
280
     0
281
     0
  0
CLASS
  1
LAYOUT
  2
AcDbLayout
  3
ObjectDBX Classes
 90
        0
280
     0
281
     0
  0
ENDSEC
  0
SECTION
  2
TABLES
  0
TABLE
  2
VPORT
  5
8
102
{ACAD_XDICTIONARY
360
4C1
102
}
330
0
100
AcDbSymbolTable
 70
     1
  0
VPORT
  5
29
330
8
100
AcDbSymbolTableRecord
100
AcDbViewportTableRecord
  2
*Active
 70
     0
 10
0.0
 20
0.0
 11
1.0
 21
1.0
 12
8410.0
 22
8910.0
 13
0.0
 23
0.0
 14
1.0
 24
1.0
 15
0.0
 25
0.0
 16
0.0
 26
0.0
 36
1.0
 17
0.0
 27
0.0
 37
0.0
 40
17820.0
 41
0.688564
 42
50.0
 43
0.0
 44
0.0
 50
0.0
 51
0.0
 71
     0
 72
   100
 73
     1
 74
     3
 75
     0
 76
     0
 77
     0
 78
     0
281
     0
 65
     0
110
0.0
120
0.0
130
0.0
111
1.0
121
0.0
131
0.0
112
0.0
122
1.0
132
0.0
 79
     0
146
0.0
  0
ENDTAB
  0
TABLE
  2
LTYPE
  5
5
330
0
100
AcDbSymbolTable
 70
     3
  0
LTYPE
  5
14
330
5
100
AcDbSymbolTableRecord
100
AcDbLinetypeTableRecord
  2
ByBlock
 70
     0
  3

 72
    65
 73
     0
 40
0.0
  0
LTYPE
  5
15
330
5
100
AcDbSymbolTableRecord
100
AcDbLinetypeTableRecord
  2
ByLayer
 70
     0
  3

 72
    65
 73
     0
 40
0.0
  0
LTYPE
  5
16
330
5
100
AcDbSymbolTableRecord
100
AcDbLinetypeTableRecord
  2
Continuous
 70
     0
  3
Solid line
 72
    65
 73
     0
 40
0.0
  0
LTYPE
  5
B1
330
5
100
AcDbSymbolTableRecord
100
AcDbLinetypeTableRecord
  2
DASHED2
 70
     0
  3
_ _ _ _ _ _ _ _ _ _ _ _ _ _ _ _ _ _ _
 72
    65
 73
     2
 40
0.375
 49
0.25
 74
     0
 49
-0.125
 74
     0
  0
LTYPE
  5
B3
330
5
100
AcDbSymbolTableRecord
100
AcDbLinetypeTableRecord
  2
CENTER2
 70
     0
  3
___ _ ___ _ ___ _ ___ _ ___ _ ___ _ _
 72
    65
 73
     4
 40
1.125
 49
0.75
 74
     0
 49
-0.125
 74
     0
 49
0.125
 74
     0
 49
-0.125
 74
     0
  0
ENDTAB
  0
TABLE
  2
LAYER
  5
2
330
0
100
AcDbSymbolTable
 70
     8
  0
LAYER
  5
10
330
2
100
AcDbSymbolTableRecord
100
AcDbLayerTableRecord
  2
0
 70
     0
 62
     7
  6
Continuous
370
    -3
390
F
  0
LAYER
  5
B0
330
2
100
AcDbSymbolTableRecord
100
AcDbLayerTableRecord
  2
寸法
 70
     0
 62
     2
  6
Continuous
370
     5
390
F
  0
LAYER
  5
B2
330
2
100
AcDbSymbolTableRecord
100
AcDbLayerTableRecord
  2
06-ダクト内線
 70
     0
 62
     6
  6
DASHED2
370
     9
390
F
  0
LAYER
  5
B4
330
2
100
AcDbSymbolTableRecord
100
AcDbLayerTableRecord
  2
04-ダクトセンター
 70
     0
 62
     1
  6
CENTER2
370
     5
390
F
  0
LAYER
  5
B5
330
2
100
AcDbSymbolTableRecord
100
AcDbLayerTableRecord
  2
05-ダクト外線
 70
     0
 62
     4
  6
Continuous
370
    13
390
F
  0
LAYER
  5
B6
330
2
100
AcDbSymbolTableRecord
100
AcDbLayerTableRecord
  2
03-文字-2
 70
     0
 62
     7
  6
Continuous
370
     5
390
F
  0
LAYER
  5
B7
330
2
100
AcDbSymbolTableRecord
100
AcDbLayerTableRecord
  2
Defpoints
 70
     0
 62
    98
  6
Continuous
290
     0
370
    -3
390
F
  0
LAYER
  5
B8
330
2
100
AcDbSymbolTableRecord
100
AcDbLayerTableRecord
  2
シンボル
 70
     0
 62
     7
  6
Continuous
370
     5
390
F
  0
ENDTAB
  0
TABLE
  2
STYLE
  5
3
330
0
100
AcDbSymbolTable
 70
     4
  0
STYLE
  5
11
330
3
100
AcDbSymbolTableRecord
100
AcDbTextStyleTableRecord
  2
Standard
 70
     0
 40
0.0
 41
1.0
 50
0.0
 71
     0
 42
0.2
  3
txt
  4
extfont2
  0
STYLE
  5
6E
330
3
100
AcDbSymbolTableRecord
100
AcDbTextStyleTableRecord
  2
MONOSTYLE-H
 70
     0
 40
0.0
 41
1.0
 50
0.0
 71
     0
 42
0.2
  3
monotxt
  4
extfont2
  0
STYLE
  5
6F
330
3
100
AcDbSymbolTableRecord
100
AcDbTextStyleTableRecord
  2
TATEGAKI
 70
     4
 40
0.0
 41
1.0
 50
0.0
 71
     0
 42
0.2
  3
txt
  4
@extfont2
  0
STYLE
  5
70
330
3
100
AcDbSymbolTableRecord
100
AcDbTextStyleTableRecord
  2
MONOSTYLE-V
 70
     4
 40
0.0
 41
1.0
 50
0.0
 71
     0
 42
0.2
  3
monotxt
  4
@extfont2
  0
ENDTAB
  0
TABLE
  2
VIEW
  5
6
330
0
100
AcDbSymbolTable
 70
     0
  0
ENDTAB
  0
TABLE
  2
UCS
  5
7
330
0
100
AcDbSymbolTable
 70
     0
  0
ENDTAB
  0
TABLE
  2
APPID
  5
9
330
0
100
AcDbSymbolTable
 70
     2
  0
APPID
  5
12
330
9
100
AcDbSymbolTableRecord
100
AcDbRegAppTableRecord
  2
ACAD
 70
     0
  0
APPID
  5
4FB
330
9
100
AcDbSymbolTableRecord
100
AcDbRegAppTableRecord
  2
ACAD_MLEADERVER
 70
     0
  0
ENDTAB
  0
TABLE
  2
DIMSTYLE
  5
A
330
0
100
AcDbSymbolTable
 70
     1
100
AcDbDimStyleTable
  0
DIMSTYLE
105
27
330
A
100
AcDbSymbolTableRecord
100
AcDbDimStyleTableRecord
  2
Standard
 70
     0
178
     0
340
11
  0
ENDTAB
  0
TABLE
  2
BLOCK_RECORD
  5
1
330
0
100
AcDbSymbolTable
 70
    64
  0
BLOCK_RECORD
  5
1F
330
1
100
AcDbSymbolTableRecord
100
AcDbBlockTableRecord
  2
*Model_Space
340
22
  0
BLOCK_RECORD
  5
1B
330
1
100
AcDbSymbolTableRecord
100
AcDbBlockTableRecord
  2
*Paper_Space
340
1E
  0
BLOCK_RECORD
  5
CA
330
1
100
AcDbSymbolTableRecord
100
AcDbBlockTableRecord
  2
INS-D5I2P
340
0
102
{BLKREFS
331
CD
102
}
  0
BLOCK_RECORD
  5
D4
330
1
100
AcDbSymbolTableRecord
100
AcDbBlockTableRecord
  2
INS-DTK0F
340
0
102
{BLKREFS
331
D7
102
}
  0
BLOCK_RECORD
  5
EB
330
1
100
AcDbSymbolTableRecord
100
AcDbBlockTableRecord
  2
INS-D9XWX
340
0
102
{BLKREFS
331
EE
102
}
  0
BLOCK_RECORD
  5
F5
330
1
100
AcDbSymbolTableRecord
100
AcDbBlockTableRecord
  2
INS-DP059
340
0
102
{BLKREFS
331
F8
102
}
  0
BLOCK_RECORD
  5
107
330
1
100
AcDbSymbolTableRecord
100
AcDbBlockTableRecord
  2
INS-D528J
340
0
102
{BLKREFS
331
10A
102
}
  0
BLOCK_RECORD
  5
111
330
1
100
AcDbSymbolTableRecord
100
AcDbBlockTableRecord
  2
INS-D93L4
340
0
102
{BLKREFS
331
114
102
}
  0
BLOCK_RECORD
  5
128
330
1
100
AcDbSymbolTableRecord
100
AcDbBlockTableRecord
  2
INS-D3YVV
340
0
102
{BLKREFS
331
12B
102
}
  0
BLOCK_RECORD
  5
132
330
1
100
AcDbSymbolTableRecord
100
AcDbBlockTableRecord
  2
INS-DD057
340
0
102
{BLKREFS
331
135
102
}
  0
BLOCK_RECORD
  5
146
330
1
100
AcDbSymbolTableRecord
100
AcDbBlockTableRecord
  2
INS-D7IGM
340
0
102
{BLKREFS
331
149
102
}
  0
BLOCK_RECORD
  5
150
330
1
100
AcDbSymbolTableRecord
100
AcDbBlockTableRecord
  2
INS-D9F98
340
0
102
{BLKREFS
331
153
102
}
  0
BLOCK_RECORD
  5
167
330
1
100
AcDbSymbolTableRecord
100
AcDbBlockTableRecord
  2
INS-D65RV
340
0
102
{BLKREFS
331
16A
102
}
  0
BLOCK_RECORD
  5
171
330
1
100
AcDbSymbolTableRecord
100
AcDbBlockTableRecord
  2
INS-DD3QD
340
0
102
{BLKREFS
331
174
102
}
  0
BLOCK_RECORD
  5
184
330
1
100
AcDbSymbolTableRecord
100
AcDbBlockTableRecord
  2
INS-D8II4
340
0
102
{BLKREFS
331
187
102
}
  0
BLOCK_RECORD
  5
18E
330
1
100
AcDbSymbolTableRecord
100
AcDbBlockTableRecord
  2
INS-DPJQ7
340
0
102
{BLKREFS
331
191
102
}
  0
BLOCK_RECORD
  5
1A5
330
1
100
AcDbSymbolTableRecord
100
AcDbBlockTableRecord
  2
INS-D5NHP
340
0
102
{BLKREFS
331
1A8
102
}
  0
BLOCK_RECORD
  5
1AF
330
1
100
AcDbSymbolTableRecord
100
AcDbBlockTableRecord
  2
INS-D5EKQ
340
0
102
{BLKREFS
331
1B2
102
}
  0
BLOCK_RECORD
  5
1C4
330
1
100
AcDbSymbolTableRecord
100
AcDbBlockTableRecord
  2
INS-D643D
340
0
102
{BLKREFS
331
1C7
102
}
  0
BLOCK_RECORD
  5
1CE
330
1
100
AcDbSymbolTableRecord
100
AcDbBlockTableRecord
  2
INS-D8TXR
340
0
102
{BLKREFS
331
1D1
102
}
  0
BLOCK_RECORD
  5
1E5
330
1
100
AcDbSymbolTableRecord
100
AcDbBlockTableRecord
  2
INS-D5M90
340
0
102
{BLKREFS
331
1E8
102
}
  0
BLOCK_RECORD
  5
1EF
330
1
100
AcDbSymbolTableRecord
100
AcDbBlockTableRecord
  2
INS-D7JIB
340
0
102
{BLKREFS
331
1F2
102
}
  0
BLOCK_RECORD
  5
203
330
1
100
AcDbSymbolTableRecord
100
AcDbBlockTableRecord
  2
INS-D82CP
340
0
102
{BLKREFS
331
206
102
}
  0
BLOCK_RECORD
  5
20D
330
1
100
AcDbSymbolTableRecord
100
AcDbBlockTableRecord
  2
INS-D4GTE
340
0
102
{BLKREFS
331
210
102
}
  0
BLOCK_RECORD
  5
224
330
1
100
AcDbSymbolTableRecord
100
AcDbBlockTableRecord
  2
INS-D6616
340
0
102
{BLKREFS
331
227
102
}
  0
BLOCK_RECORD
  5
22E
330
1
100
AcDbSymbolTableRecord
100
AcDbBlockTableRecord
  2
INS-D82OP
340
0
102
{BLKREFS
331
231
102
}
  0
BLOCK_RECORD
  5
242
330
1
100
AcDbSymbolTableRecord
100
AcDbBlockTableRecord
  2
INS-DEYHC
340
0
102
{BLKREFS
331
245
102
}
  0
BLOCK_RECORD
  5
24C
330
1
100
AcDbSymbolTableRecord
100
AcDbBlockTableRecord
  2
INS-D608M
340
0
102
{BLKREFS
331
24F
102
}
  0
BLOCK_RECORD
  5
263
330
1
100
AcDbSymbolTableRecord
100
AcDbBlockTableRecord
  2
INS-DB2TE
340
0
102
{BLKREFS
331
266
102
}
  0
BLOCK_RECORD
  5
26D
330
1
100
AcDbSymbolTableRecord
100
AcDbBlockTableRecord
  2
INS-DF67R
340
0
102
{BLKREFS
331
270
102
}
  0
BLOCK_RECORD
  5
281
330
1
100
AcDbSymbolTableRecord
100
AcDbBlockTableRecord
  2
INS-D5C4R
340
0
102
{BLKREFS
331
284
102
}
  0
BLOCK_RECORD
  5
28B
330
1
100
AcDbSymbolTableRecord
100
AcDbBlockTableRecord
  2
INS-DD7KB
340
0
102
{BLKREFS
331
28E
102
}
  0
BLOCK_RECORD
  5
2A2
330
1
100
AcDbSymbolTableRecord
100
AcDbBlockTableRecord
  2
INS-D7Y40
340
0
102
{BLKREFS
331
2A5
102
}
  0
BLOCK_RECORD
  5
2AC
330
1
100
AcDbSymbolTableRecord
100
AcDbBlockTableRecord
  2
INS-DFXSU
340
0
102
{BLKREFS
331
2AF
102
}
  0
BLOCK_RECORD
  5
2C0
330
1
100
AcDbSymbolTableRecord
100
AcDbBlockTableRecord
  2
INS-D7KRU
340
0
102
{BLKREFS
331
2C3
102
}
  0
BLOCK_RECORD
  5
2CA
330
1
100
AcDbSymbolTableRecord
100
AcDbBlockTableRecord
  2
INS-D6A7Z
340
0
102
{BLKREFS
331
2CD
102
}
  0
BLOCK_RECORD
  5
2E1
330
1
100
AcDbSymbolTableRecord
100
AcDbBlockTableRecord
  2
INS-D8W38
340
0
102
{BLKREFS
331
2E4
102
}
  0
BLOCK_RECORD
  5
2EB
330
1
100
AcDbSymbolTableRecord
100
AcDbBlockTableRecord
  2
INS-DLKI5
340
0
102
{BLKREFS
331
2EE
102
}
  0
BLOCK_RECORD
  5
2FF
330
1
100
AcDbSymbolTableRecord
100
AcDbBlockTableRecord
  2
INS-DTYNH
340
0
102
{BLKREFS
331
302
102
}
  0
BLOCK_RECORD
  5
309
330
1
100
AcDbSymbolTableRecord
100
AcDbBlockTableRecord
  2
INS-DF92C
340
0
102
{BLKREFS
331
30C
102
}
  0
BLOCK_RECORD
  5
320
330
1
100
AcDbSymbolTableRecord
100
AcDbBlockTableRecord
  2
INS-D5ABQ
340
0
102
{BLKREFS
331
323
102
}
  0
BLOCK_RECORD
  5
32A
330
1
100
AcDbSymbolTableRecord
100
AcDbBlockTableRecord
  2
INS-D4P7Z
340
0
102
{BLKREFS
331
32D
102
}
  0
BLOCK_RECORD
  5
33E
330
1
100
AcDbSymbolTableRecord
100
AcDbBlockTableRecord
  2
INS-D5QZ8
340
0
102
{BLKREFS
331
341
102
}
  0
BLOCK_RECORD
  5
348
330
1
100
AcDbSymbolTableRecord
100
AcDbBlockTableRecord
  2
INS-D7YC8
340
0
102
{BLKREFS
331
34B
102
}
  0
BLOCK_RECORD
  5
358
330
1
100
AcDbSymbolTableRecord
100
AcDbBlockTableRecord
  2
INS-D5QUU
340
0
102
{BLKREFS
331
35B
102
}
  0
BLOCK_RECORD
  5
362
330
1
100
AcDbSymbolTableRecord
100
AcDbBlockTableRecord
  2
INS-D404J
340
0
102
{BLKREFS
331
365
102
}
  0
BLOCK_RECORD
  5
37D
330
1
100
AcDbSymbolTableRecord
100
AcDbBlockTableRecord
  2
INS-D6GJL
340
0
102
{BLKREFS
331
380
102
}
  0
BLOCK_RECORD
  5
387
330
1
100
AcDbSymbolTableRecord
100
AcDbBlockTableRecord
  2
INS-D6IK5
340
0
102
{BLKREFS
331
38A
102
}
  0
BLOCK_RECORD
  5
397
330
1
100
AcDbSymbolTableRecord
100
AcDbBlockTableRecord
  2
INS-D8ITQ
340
0
102
{BLKREFS
331
39A
102
}
  0
BLOCK_RECORD
  5
3A1
330
1
100
AcDbSymbolTableRecord
100
AcDbBlockTableRecord
  2
INS-DA1RF
340
0
102
{BLKREFS
331
3A4
102
}
  0
BLOCK_RECORD
  5
3BC
330
1
100
AcDbSymbolTableRecord
100
AcDbBlockTableRecord
  2
INS-D8XQA
340
0
102
{BLKREFS
331
3BF
102
}
  0
BLOCK_RECORD
  5
3C6
330
1
100
AcDbSymbolTableRecord
100
AcDbBlockTableRecord
  2
INS-D60BS
340
0
102
{BLKREFS
331
3C9
102
}
  0
BLOCK_RECORD
  5
3D6
330
1
100
AcDbSymbolTableRecord
100
AcDbBlockTableRecord
  2
INS-DR30T
340
0
102
{BLKREFS
331
3D9
102
}
  0
BLOCK_RECORD
  5
3E0
330
1
100
AcDbSymbolTableRecord
100
AcDbBlockTableRecord
  2
INS-DIV8F
340
0
102
{BLKREFS
331
3E3
102
}
  0
BLOCK_RECORD
  5
3FB
330
1
100
AcDbSymbolTableRecord
100
AcDbBlockTableRecord
  2
INS-DAQT9
340
0
102
{BLKREFS
331
3FE
102
}
  0
BLOCK_RECORD
  5
405
330
1
100
AcDbSymbolTableRecord
100
AcDbBlockTableRecord
  2
INS-D7A45
340
0
102
{BLKREFS
331
408
102
}
  0
BLOCK_RECORD
  5
415
330
1
100
AcDbSymbolTableRecord
100
AcDbBlockTableRecord
  2
INS-DSWRF
340
0
102
{BLKREFS
331
418
102
}
  0
BLOCK_RECORD
  5
41F
330
1
100
AcDbSymbolTableRecord
100
AcDbBlockTableRecord
  2
INS-D908L
340
0
102
{BLKREFS
331
422
102
}
  0
BLOCK_RECORD
  5
43B
330
1
100
AcDbSymbolTableRecord
100
AcDbBlockTableRecord
  2
INS-D41SA
340
0
102
{BLKREFS
331
43E
102
}
  0
BLOCK_RECORD
  5
445
330
1
100
AcDbSymbolTableRecord
100
AcDbBlockTableRecord
  2
INS-D50XB
340
0
102
{BLKREFS
331
448
102
}
  0
BLOCK_RECORD
  5
450
330
1
100
AcDbSymbolTableRecord
100
AcDbBlockTableRecord
  2
INS-D6FZA
340
0
102
{BLKREFS
331
453
102
}
  0
BLOCK_RECORD
  5
45A
330
1
100
AcDbSymbolTableRecord
100
AcDbBlockTableRecord
  2
INS-D7WEX
340
0
102
{BLKREFS
331
45D
102
}
  0
BLOCK_RECORD
  5
47E
330
1
100
AcDbSymbolTableRecord
100
AcDbBlockTableRecord
  2
INS-DSKYL
340
0
102
{BLKREFS
331
481
102
}
  0
BLOCK_RECORD
  5
488
330
1
100
AcDbSymbolTableRecord
100
AcDbBlockTableRecord
  2
INS-D69H4
340
0
102
{BLKREFS
331
48B
102
}
  0
BLOCK_RECORD
  5
493
330
1
100
AcDbSymbolTableRecord
100
AcDbBlockTableRecord
  2
INS-D5FYZ
340
0
102
{BLKREFS
331
496
102
}
  0
BLOCK_RECORD
  5
49D
330
1
100
AcDbSymbolTableRecord
100
AcDbBlockTableRecord
  2
INS-D6NFV
340
0
102
{BLKREFS
331
4A0
102
}
  0
ENDTAB
  0
ENDSEC
  0
SECTION
  2
BLOCKS
  0
BLOCK
  5
20
330
1F
100
AcDbEntity
  8
0
100
AcDbBlockBegin
  2
*Model_Space
 70
     0
 10
0.0
 20
0.0
 30
0.0
  3
*Model_Space
  1

  0
ENDBLK
  5
21
330
1F
100
AcDbEntity
  8
0
100
AcDbBlockEnd
  0
BLOCK
  5
1C
330
1B
100
AcDbEntity
 67
     1
  8
0
100
AcDbBlockBegin
  2
*Paper_Space
 70
     0
 10
0.0
 20
0.0
 30
0.0
  3
*Paper_Space
  1

  0
ENDBLK
  5
1D
330
1B
100
AcDbEntity
 67
     1
  8
0
100
AcDbBlockEnd
  0
BLOCK
  5
CB
330
CA
100
AcDbEntity
  8
0
100
AcDbBlockBegin
  2
INS-D5I2P
 70
     0
 10
0.0
 20
0.0
 30
0.0
  3
INS-D5I2P
  1

  0
TEXT
  5
CE
330
CA
100
AcDbEntity
  8
寸法
  6
Continuous
100
AcDbText
 10
23.70648290123973
 20
-32.28000000000364
 30
0.0
 40
19.982
  1
φ73
 50
90.0
 41
1.056781492035411
 72
     1
 11
23.70648290123973
 21
-0.0000000000036451
 31
0.0
100
AcDbText
  0
LINE
  5
CF
330
CA
100
AcDbEntity
  8
寸法
  6
Continuous
100
AcDbLine
 10
-39.29351709876028
 20
-36.50000000000364
 30
0.0
 11
33.70648290123972
 21
-36.50000000000364
 31
0.0
  0
LINE
  5
D0
330
CA
100
AcDbEntity
  8
寸法
  6
Continuous
100
AcDbLine
 10
-39.29351709876028
 20
36.49999999999636
 30
0.0
 11
33.70648290123972
 21
36.49999999999636
 31
0.0
  0
LINE
  5
D1
330
CA
100
AcDbEntity
  8
寸法
  6
Continuous
100
AcDbLine
 10
33.70648290123972
 20
36.49999999999636
 30
0.0
 11
33.70648290123972
 21
-36.50000000000364
 31
0.0
  0
LWPOLYLINE
  5
D2
330
CA
100
AcDbEntity
  8
寸法
  6
Continuous
100
AcDbPolyline
 90
        3
 70
     0
 43
0.0
 10
31.11829245021363
 20
26.84074173710542
 10
33.70648290123972
 20
36.49999999999636
 10
36.29467335226582
 20
26.84074173710542
  0
LWPOLYLINE
  5
D3
330
CA
100
AcDbEntity
  8
寸法
  6
Continuous
100
AcDbPolyline
 90
        3
 70
     0
 43
0.0
 10
36.29467335226582
 20
-26.84074173711269
 10
33.70648290123972
 20
-36.50000000000364
 10
31.11829245021363
 20
-26.84074173711269
  0
ENDBLK
  5
CC
330
CA
100
AcDbEntity
  8
0
100
AcDbBlockEnd
  0
BLOCK
  5
D5
330
D4
100
AcDbEntity
  8
0
100
AcDbBlockBegin
  2
INS-DTK0F
 70
     0
 10
0.0
 20
0.0
 30
0.0
  3
INS-DTK0F
  1

  0
TEXT
  5
D8
330
D4
100
AcDbEntity
  8
寸法
  6
Continuous
100
AcDbText
 10
-21.19901709875921
 20
-35.70000000000363
 30
0.0
 40
19.982
  1
φ112
 50
90.0
 41
1.041145908602337
 72
     1
 11
-21.19901709875921
 21
-0.000000000003638
 31
0.0
100
AcDbText
  0
LINE
  5
D9
330
D4
100
AcDbEntity
  8
寸法
  6
Continuous
100
AcDbLine
 10
44.80098290124079
 20
-56.00000000000364
 30
0.0
 11
-11.19901709875921
 21
-56.00000000000364
 31
0.0
  0
LINE
  5
DA
330
D4
100
AcDbEntity
  8
寸法
  6
Continuous
100
AcDbLine
 10
44.80098290124079
 20
55.99999999999636
 30
0.0
 11
-11.19901709875921
 21
55.99999999999636
 31
0.0
  0
LINE
  5
DB
330
D4
100
AcDbEntity
  8
寸法
  6
Continuous
100
AcDbLine
 10
-11.19901709875921
 20
55.99999999999636
 30
0.0
 11
-11.19901709875921
 21
-56.00000000000364
 31
0.0
  0
LWPOLYLINE
  5
DC
330
D4
100
AcDbEntity
  8
寸法
  6
Continuous
100
AcDbPolyline
 90
        3
 70
     0
 43
0.0
 10
-13.78720754978531
 20
46.34074173710542
 10
-11.19901709875921
 20
55.99999999999636
 10
-8.61082664773312
 20
46.34074173710542
  0
LWPOLYLINE
  5
DD
330
D4
100
AcDbEntity
  8
寸法
  6
Continuous
100
AcDbPolyline
 90
        3
 70
     0
 43
0.0
 10
-8.61082664773312
 20
-46.34074173711269
 10
-11.19901709875921
 20
-56.00000000000364
 10
-13.78720754978531
 20
-46.34074173711269
  0
ENDBLK
  5
D6
330
D4
100
AcDbEntity
  8
0
100
AcDbBlockEnd
  0
BLOCK
  5
EC
330
EB
100
AcDbEntity
  8
0
100
AcDbBlockBegin
  2
INS-D9XWX
 70
     0
 10
0.0
 20
0.0
 30
0.0
  3
INS-D9XWX
  1

  0
TEXT
  5
EF
330
EB
100
AcDbEntity
  8
寸法
  6
Continuous
100
AcDbText
 10
-18.53901709876212
 20
35.54999999999563
 30
0.0
 40
19.982
  1
20
 41
1.089505144794249
 72
     1
 11
0.0009829012378759
 21
35.54999999999563
 31
0.0
100
AcDbText
  0
LINE
  5
F0
330
EB
100
AcDbEntity
  8
寸法
  6
Continuous
100
AcDbLine
 10
10.00098290123788
 20
-59.15000000000509
 30
0.0
 11
10.00098290123788
 21
25.84999999999491
 31
0.0
  0
LINE
  5
F1
330
EB
100
AcDbEntity
  8
寸法
  6
Continuous
100
AcDbLine
 10
-9.999017098762124
 20
-39.65000000000509
 30
0.0
 11
-9.999017098762124
 21
25.84999999999491
 31
0.0
  0
LINE
  5
F2
330
EB
100
AcDbEntity
  8
寸法
  6
Continuous
100
AcDbLine
 10
-9.999017098762124
 20
25.84999999999491
 30
0.0
 11
10.00098290123788
 21
25.84999999999491
 31
0.0
  0
LWPOLYLINE
  5
F3
330
EB
100
AcDbEntity
  8
寸法
  6
Continuous
100
AcDbPolyline
 90
        3
 70
     0
 43
0.0
 10
-0.3397588358711801
 20
23.26180954897063
 10
-9.999017098762124
 20
25.84999999999491
 10
-0.3397588358711801
 20
28.43819045101918
  0
LWPOLYLINE
  5
F4
330
EB
100
AcDbEntity
  8
寸法
  6
Continuous
100
AcDbPolyline
 90
        3
 70
     0
 43
0.0
 10
0.3417246383469319
 20
28.43819045101918
 10
10.00098290123788
 20
25.84999999999491
 10
0.3417246383469319
 20
23.26180954897063
  0
ENDBLK
  5
ED
330
EB
100
AcDbEntity
  8
0
100
AcDbBlockEnd
  0
BLOCK
  5
F6
330
F5
100
AcDbEntity
  8
0
100
AcDbBlockBegin
  2
INS-DP059
 70
     0
 10
0.0
 20
0.0
 30
0.0
  3
INS-DP059
  1

  0
TEXT
  5
F9
330
F5
100
AcDbEntity
  8
寸法
  6
Continuous
100
AcDbText
 10
-12.80901709876074
 20
35.54999999999563
 30
0.0
 40
19.982
  1
40
 41
1.089505144794249
 72
     1
 11
5.730982901239258
 21
35.54999999999563
 31
0.0
100
AcDbText
  0
LINE
  5
FA
330
F5
100
AcDbEntity
  8
寸法
  6
Continuous
100
AcDbLine
 10
15.73098290123926
 20
-59.15000000000509
 30
0.0
 11
15.73098290123926
 21
25.84999999999491
 31
0.0
  0
LINE
  5
FB
330
F5
100
AcDbEntity
  8
寸法
  6
Continuous
100
AcDbLine
 10
-24.26901709876074
 20
-59.15000000000509
 30
0.0
 11
-24.26901709876074
 21
25.84999999999491
 31
0.0
  0
LINE
  5
FC
330
F5
100
AcDbEntity
  8
寸法
  6
Continuous
100
AcDbLine
 10
-24.26901709876074
 20
25.84999999999491
 30
0.0
 11
15.73098290123926
 21
25.84999999999491
 31
0.0
  0
LWPOLYLINE
  5
FD
330
F5
100
AcDbEntity
  8
寸法
  6
Continuous
100
AcDbPolyline
 90
        3
 70
     0
 43
0.0
 10
-14.6097588358698
 20
23.26180954897063
 10
-24.26901709876074
 20
25.84999999999491
 10
-14.6097588358698
 20
28.43819045101918
  0
LWPOLYLINE
  5
FE
330
F5
100
AcDbEntity
  8
寸法
  6
Continuous
100
AcDbPolyline
 90
        3
 70
     0
 43
0.0
 10
6.071724638348314
 20
28.43819045101918
 10
15.73098290123926
 20
25.84999999999491
 10
6.071724638348314
 20
23.26180954897063
  0
ENDBLK
  5
F7
330
F5
100
AcDbEntity
  8
0
100
AcDbBlockEnd
  0
BLOCK
  5
108
330
107
100
AcDbEntity
  8
0
100
AcDbBlockBegin
  2
INS-D528J
 70
     0
 10
0.0
 20
0.0
 30
0.0
  3
INS-D528J
  1

  0
TEXT
  5
10B
330
107
100
AcDbEntity
  8
寸法
  6
Continuous
100
AcDbText
 10
23.70648290123973
 20
-32.27988788912742
 30
0.0
 40
19.982
  1
φ98
 50
90.0
 41
1.056781492035411
 72
     1
 11
23.70648290123973
 21
0.0001121108725712
 31
0.0
100
AcDbText
  0
LINE
  5
10C
330
107
100
AcDbEntity
  8
寸法
  6
Continuous
100
AcDbLine
 10
-39.29351709876028
 20
-48.99988788912742
 30
0.0
 11
33.70648290123972
 21
-48.99988788912742
 31
0.0
  0
LINE
  5
10D
330
107
100
AcDbEntity
  8
寸法
  6
Continuous
100
AcDbLine
 10
-39.29351709876028
 20
49.00011211087258
 30
0.0
 11
33.70648290123972
 21
49.00011211087258
 31
0.0
  0
LINE
  5
10E
330
107
100
AcDbEntity
  8
寸法
  6
Continuous
100
AcDbLine
 10
33.70648290123972
 20
49.00011211087258
 30
0.0
 11
33.70648290123972
 21
-48.99988788912742
 31
0.0
  0
LWPOLYLINE
  5
10F
330
107
100
AcDbEntity
  8
寸法
  6
Continuous
100
AcDbPolyline
 90
        3
 70
     0
 43
0.0
 10
31.11829245021363
 20
39.34085384798163
 10
33.70648290123972
 20
49.00011211087258
 10
36.29467335226582
 20
39.34085384798163
  0
LWPOLYLINE
  5
110
330
107
100
AcDbEntity
  8
寸法
  6
Continuous
100
AcDbPolyline
 90
        3
 70
     0
 43
0.0
 10
36.29467335226582
 20
-39.34062962623648
 10
33.70648290123972
 20
-48.99988788912742
 10
31.11829245021363
 20
-39.34062962623648
  0
ENDBLK
  5
109
330
107
100
AcDbEntity
  8
0
100
AcDbBlockEnd
  0
BLOCK
  5
112
330
111
100
AcDbEntity
  8
0
100
AcDbBlockBegin
  2
INS-D93L4
 70
     0
 10
0.0
 20
0.0
 30
0.0
  3
INS-D93L4
  1

  0
TEXT
  5
115
330
111
100
AcDbEntity
  8
寸法
  6
Continuous
100
AcDbText
 10
-21.19901709875921
 20
-37.31988788912741
 30
0.0
 40
19.982
  1
φ140
 50
90.0
 41
1.041145908602337
 72
     1
 11
-21.19901709875921
 21
0.0001121108725783
 31
0.0
100
AcDbText
  0
LINE
  5
116
330
111
100
AcDbEntity
  8
寸法
  6
Continuous
100
AcDbLine
 10
44.80098290124079
 20
-69.99988788912742
 30
0.0
 11
-11.19901709875921
 21
-69.99988788912742
 31
0.0
  0
LINE
  5
117
330
111
100
AcDbEntity
  8
寸法
  6
Continuous
100
AcDbLine
 10
44.80098290124079
 20
70.00011211087258
 30
0.0
 11
-11.19901709875921
 21
70.00011211087258
 31
0.0
  0
LINE
  5
118
330
111
100
AcDbEntity
  8
寸法
  6
Continuous
100
AcDbLine
 10
-11.19901709875921
 20
70.00011211087258
 30
0.0
 11
-11.19901709875921
 21
-69.99988788912742
 31
0.0
  0
LWPOLYLINE
  5
119
330
111
100
AcDbEntity
  8
寸法
  6
Continuous
100
AcDbPolyline
 90
        3
 70
     0
 43
0.0
 10
-13.78720754978531
 20
60.34085384798163
 10
-11.19901709875921
 20
70.00011211087258
 10
-8.61082664773312
 20
60.34085384798163
  0
LWPOLYLINE
  5
11A
330
111
100
AcDbEntity
  8
寸法
  6
Continuous
100
AcDbPolyline
 90
        3
 70
     0
 43
0.0
 10
-8.61082664773312
 20
-60.34062962623648
 10
-11.19901709875921
 20
-69.99988788912742
 10
-13.78720754978531
 20
-60.34062962623648
  0
ENDBLK
  5
113
330
111
100
AcDbEntity
  8
0
100
AcDbBlockEnd
  0
BLOCK
  5
129
330
128
100
AcDbEntity
  8
0
100
AcDbBlockBegin
  2
INS-D3YVV
 70
     0
 10
0.0
 20
0.0
 30
0.0
  3
INS-D3YVV
  1

  0
TEXT
  5
12C
330
128
100
AcDbEntity
  8
寸法
  6
Continuous
100
AcDbText
 10
-18.53901709876212
 20
36.30011211087185
 30
0.0
 40
19.982
  1
30
 41
1.089505144794249
 72
     1
 11
0.0009829012378759
 21
36.30011211087185
 31
0.0
100
AcDbText
  0
LINE
  5
12D
330
128
100
AcDbEntity
  8
寸法
  6
Continuous
100
AcDbLine
 10
15.00098290123788
 20
-59.89988788912888
 30
0.0
 11
15.00098290123788
 21
26.60011211087112
 31
0.0
  0
LINE
  5
12E
330
128
100
AcDbEntity
  8
寸法
  6
Continuous
100
AcDbLine
 10
-14.99901709876212
 20
-38.89988788912888
 30
0.0
 11
-14.99901709876212
 21
26.60011211087112
 31
0.0
  0
LINE
  5
12F
330
128
100
AcDbEntity
  8
寸法
  6
Continuous
100
AcDbLine
 10
-14.99901709876212
 20
26.60011211087112
 30
0.0
 11
15.00098290123788
 21
26.60011211087112
 31
0.0
  0
LWPOLYLINE
  5
130
330
128
100
AcDbEntity
  8
寸法
  6
Continuous
100
AcDbPolyline
 90
        3
 70
     0
 43
0.0
 10
-5.33975883587118
 20
24.01192165984685
 10
-14.99901709876212
 20
26.60011211087112
 10
-5.33975883587118
 20
29.1883025618954
  0
LWPOLYLINE
  5
131
330
128
100
AcDbEntity
  8
寸法
  6
Continuous
100
AcDbPolyline
 90
        3
 70
     0
 43
0.0
 10
5.341724638346932
 20
29.1883025618954
 10
15.00098290123788
 20
26.60011211087112
 10
5.341724638346932
 20
24.01192165984685
  0
ENDBLK
  5
12A
330
128
100
AcDbEntity
  8
0
100
AcDbBlockEnd
  0
BLOCK
  5
133
330
132
100
AcDbEntity
  8
0
100
AcDbBlockBegin
  2
INS-DD057
 70
     0
 10
0.0
 20
0.0
 30
0.0
  3
INS-DD057
  1

  0
TEXT
  5
136
330
132
100
AcDbEntity
  8
寸法
  6
Continuous
100
AcDbText
 10
-18.5390170987603
 20
36.30011211087185
 30
0.0
 40
19.982
  1
60
 41
1.089505144794249
 72
     1
 11
0.0009829012396949
 21
36.30011211087185
 31
0.0
100
AcDbText
  0
LINE
  5
137
330
132
100
AcDbEntity
  8
寸法
  6
Continuous
100
AcDbLine
 10
30.00098290123969
 20
-59.89988788912888
 30
0.0
 11
30.00098290123969
 21
26.60011211087112
 31
0.0
  0
LINE
  5
138
330
132
100
AcDbEntity
  8
寸法
  6
Continuous
100
AcDbLine
 10
-29.99901709876031
 20
-59.89988788912888
 30
0.0
 11
-29.99901709876031
 21
26.60011211087112
 31
0.0
  0
LINE
  5
139
330
132
100
AcDbEntity
  8
寸法
  6
Continuous
100
AcDbLine
 10
-29.99901709876031
 20
26.60011211087112
 30
0.0
 11
30.00098290123969
 21
26.60011211087112
 31
0.0
  0
LWPOLYLINE
  5
13A
330
132
100
AcDbEntity
  8
寸法
  6
Continuous
100
AcDbPolyline
 90
        3
 70
     0
 43
0.0
 10
-20.33975883586936
 20
24.01192165984685
 10
-29.99901709876031
 20
26.60011211087112
 10
-20.33975883586936
 20
29.1883025618954
  0
LWPOLYLINE
  5
13B
330
132
100
AcDbEntity
  8
寸法
  6
Continuous
100
AcDbPolyline
 90
        3
 70
     0
 43
0.0
 10
20.34172463834875
 20
29.1883025618954
 10
30.00098290123969
 20
26.60011211087112
 10
20.34172463834875
 20
24.01192165984685
  0
ENDBLK
  5
134
330
132
100
AcDbEntity
  8
0
100
AcDbBlockEnd
  0
BLOCK
  5
147
330
146
100
AcDbEntity
  8
0
100
AcDbBlockBegin
  2
INS-D7IGM
 70
     0
 10
0.0
 20
0.0
 30
0.0
  3
INS-D7IGM
  1

  0
TEXT
  5
14A
330
146
100
AcDbEntity
  8
寸法
  6
Continuous
100
AcDbText
 10
23.70648290123973
 20
-39.05988788912742
 30
0.0
 40
19.982
  1
φ123
 50
90.0
 41
1.041145908602337
 72
     1
 11
23.70648290123973
 21
0.0001121108725712
 31
0.0
100
AcDbText
  0
LINE
  5
14B
330
146
100
AcDbEntity
  8
寸法
  6
Continuous
100
AcDbLine
 10
-39.29351709876028
 20
-61.49988788912742
 30
0.0
 11
33.70648290123972
 21
-61.49988788912742
 31
0.0
  0
LINE
  5
14C
330
146
100
AcDbEntity
  8
寸法
  6
Continuous
100
AcDbLine
 10
-39.29351709876028
 20
61.50011211087258
 30
0.0
 11
33.70648290123972
 21
61.50011211087258
 31
0.0
  0
LINE
  5
14D
330
146
100
AcDbEntity
  8
寸法
  6
Continuous
100
AcDbLine
 10
33.70648290123972
 20
61.50011211087258
 30
0.0
 11
33.70648290123972
 21
-61.49988788912742
 31
0.0
  0
LWPOLYLINE
  5
14E
330
146
100
AcDbEntity
  8
寸法
  6
Continuous
100
AcDbPolyline
 90
        3
 70
     0
 43
0.0
 10
31.11829245021363
 20
51.84085384798163
 10
33.70648290123972
 20
61.50011211087258
 10
36.29467335226582
 20
51.84085384798163
  0
LWPOLYLINE
  5
14F
330
146
100
AcDbEntity
  8
寸法
  6
Continuous
100
AcDbPolyline
 90
        3
 70
     0
 43
0.0
 10
36.29467335226582
 20
-51.84062962623648
 10
33.70648290123972
 20
-61.49988788912742
 10
31.11829245021363
 20
-51.84062962623648
  0
ENDBLK
  5
148
330
146
100
AcDbEntity
  8
0
100
AcDbBlockEnd
  0
BLOCK
  5
151
330
150
100
AcDbEntity
  8
0
100
AcDbBlockBegin
  2
INS-D9F98
 70
     0
 10
0.0
 20
0.0
 30
0.0
  3
INS-D9F98
  1

  0
TEXT
  5
154
330
150
100
AcDbEntity
  8
寸法
  6
Continuous
100
AcDbText
 10
-21.19901709875921
 20
-39.05988788912742
 30
0.0
 40
19.982
  1
φ165
 50
90.0
 41
1.041145908602337
 72
     1
 11
-21.19901709875921
 21
0.0001121108725783
 31
0.0
100
AcDbText
  0
LINE
  5
155
330
150
100
AcDbEntity
  8
寸法
  6
Continuous
100
AcDbLine
 10
44.80098290124079
 20
-82.49988788912742
 30
0.0
 11
-11.19901709875921
 21
-82.49988788912742
 31
0.0
  0
LINE
  5
156
330
150
100
AcDbEntity
  8
寸法
  6
Continuous
100
AcDbLine
 10
44.80098290124079
 20
82.50011211087258
 30
0.0
 11
-11.19901709875921
 21
82.50011211087258
 31
0.0
  0
LINE
  5
157
330
150
100
AcDbEntity
  8
寸法
  6
Continuous
100
AcDbLine
 10
-11.19901709875921
 20
82.50011211087258
 30
0.0
 11
-11.19901709875921
 21
-82.49988788912742
 31
0.0
  0
LWPOLYLINE
  5
158
330
150
100
AcDbEntity
  8
寸法
  6
Continuous
100
AcDbPolyline
 90
        3
 70
     0
 43
0.0
 10
-13.78720754978531
 20
72.84085384798163
 10
-11.19901709875921
 20
82.50011211087258
 10
-8.61082664773312
 20
72.84085384798163
  0
LWPOLYLINE
  5
159
330
150
100
AcDbEntity
  8
寸法
  6
Continuous
100
AcDbPolyline
 90
        3
 70
     0
 43
0.0
 10
-8.61082664773312
 20
-72.84062962623648
 10
-11.19901709875921
 20
-82.49988788912742
 10
-13.78720754978531
 20
-72.84062962623648
  0
ENDBLK
  5
152
330
150
100
AcDbEntity
  8
0
100
AcDbBlockEnd
  0
BLOCK
  5
168
330
167
100
AcDbEntity
  8
0
100
AcDbBlockBegin
  2
INS-D65RV
 70
     0
 10
0.0
 20
0.0
 30
0.0
  3
INS-D65RV
  1

  0
TEXT
  5
16B
330
167
100
AcDbEntity
  8
寸法
  6
Continuous
100
AcDbText
 10
-18.53901709876212
 20
30.05011211087185
 30
0.0
 40
19.982
  1
30
 41
1.089505144794249
 72
     1
 11
0.0009829012378759
 21
30.05011211087185
 31
0.0
100
AcDbText
  0
LINE
  5
16C
330
167
100
AcDbEntity
  8
寸法
  6
Continuous
100
AcDbLine
 10
15.00098290123788
 20
-53.64988788912888
 30
0.0
 11
15.00098290123788
 21
20.35011211087112
 31
0.0
  0
LINE
  5
16D
330
167
100
AcDbEntity
  8
寸法
  6
Continuous
100
AcDbLine
 10
-14.99901709876212
 20
-32.64988788912888
 30
0.0
 11
-14.99901709876212
 21
20.35011211087112
 31
0.0
  0
LINE
  5
16E
330
167
100
AcDbEntity
  8
寸法
  6
Continuous
100
AcDbLine
 10
-14.99901709876212
 20
20.35011211087112
 30
0.0
 11
15.00098290123788
 21
20.35011211087112
 31
0.0
  0
LWPOLYLINE
  5
16F
330
167
100
AcDbEntity
  8
寸法
  6
Continuous
100
AcDbPolyline
 90
        3
 70
     0
 43
0.0
 10
-5.33975883587118
 20
17.76192165984685
 10
-14.99901709876212
 20
20.35011211087112
 10
-5.33975883587118
 20
22.9383025618954
  0
LWPOLYLINE
  5
170
330
167
100
AcDbEntity
  8
寸法
  6
Continuous
100
AcDbPolyline
 90
        3
 70
     0
 43
0.0
 10
5.341724638346932
 20
22.9383025618954
 10
15.00098290123788
 20
20.35011211087112
 10
5.341724638346932
 20
17.76192165984685
  0
ENDBLK
  5
169
330
167
100
AcDbEntity
  8
0
100
AcDbBlockEnd
  0
BLOCK
  5
172
330
171
100
AcDbEntity
  8
0
100
AcDbBlockBegin
  2
INS-DD3QD
 70
     0
 10
0.0
 20
0.0
 30
0.0
  3
INS-DD3QD
  1

  0
TEXT
  5
175
330
171
100
AcDbEntity
  8
寸法
  6
Continuous
100
AcDbText
 10
-18.5390170987603
 20
30.05011211087185
 30
0.0
 40
19.982
  1
60
 41
1.089505144794249
 72
     1
 11
0.0009829012396949
 21
30.05011211087185
 31
0.0
100
AcDbText
  0
LINE
  5
176
330
171
100
AcDbEntity
  8
寸法
  6
Continuous
100
AcDbLine
 10
30.00098290123969
 20
-53.64988788912888
 30
0.0
 11
30.00098290123969
 21
20.35011211087112
 31
0.0
  0
LINE
  5
177
330
171
100
AcDbEntity
  8
寸法
  6
Continuous
100
AcDbLine
 10
-29.99901709876031
 20
-53.64988788912888
 30
0.0
 11
-29.99901709876031
 21
20.35011211087112
 31
0.0
  0
LINE
  5
178
330
171
100
AcDbEntity
  8
寸法
  6
Continuous
100
AcDbLine
 10
-29.99901709876031
 20
20.35011211087112
 30
0.0
 11
30.00098290123969
 21
20.35011211087112
 31
0.0
  0
LWPOLYLINE
  5
179
330
171
100
AcDbEntity
  8
寸法
  6
Continuous
100
AcDbPolyline
 90
        3
 70
     0
 43
0.0
 10
-20.33975883586936
 20
17.76192165984685
 10
-29.99901709876031
 20
20.35011211087112
 10
-20.33975883586936
 20
22.9383025618954
  0
LWPOLYLINE
  5
17A
330
171
100
AcDbEntity
  8
寸法
  6
Continuous
100
AcDbPolyline
 90
        3
 70
     0
 43
0.0
 10
20.34172463834875
 20
22.9383025618954
 10
30.00098290123969
 20
20.35011211087112
 10
20.34172463834875
 20
17.76192165984685
  0
ENDBLK
  5
173
330
171
100
AcDbEntity
  8
0
100
AcDbBlockEnd
  0
BLOCK
  5
185
330
184
100
AcDbEntity
  8
0
100
AcDbBlockBegin
  2
INS-D8II4
 70
     0
 10
0.0
 20
0.0
 30
0.0
  3
INS-D8II4
  1

  0
TEXT
  5
188
330
184
100
AcDbEntity
  8
寸法
  6
Continuous
100
AcDbText
 10
23.70648290123973
 20
-39.05988788912742
 30
0.0
 40
19.982
  1
φ148
 50
90.0
 41
1.041145908602337
 72
     1
 11
23.70648290123973
 21
0.0001121108725712
 31
0.0
100
AcDbText
  0
LINE
  5
189
330
184
100
AcDbEntity
  8
寸法
  6
Continuous
100
AcDbLine
 10
-39.29351709876028
 20
-73.99988788912742
 30
0.0
 11
33.70648290123972
 21
-73.99988788912742
 31
0.0
  0
LINE
  5
18A
330
184
100
AcDbEntity
  8
寸法
  6
Continuous
100
AcDbLine
 10
-39.29351709876028
 20
74.00011211087258
 30
0.0
 11
33.70648290123972
 21
74.00011211087258
 31
0.0
  0
LINE
  5
18B
330
184
100
AcDbEntity
  8
寸法
  6
Continuous
100
AcDbLine
 10
33.70648290123972
 20
74.00011211087258
 30
0.0
 11
33.70648290123972
 21
-73.99988788912742
 31
0.0
  0
LWPOLYLINE
  5
18C
330
184
100
AcDbEntity
  8
寸法
  6
Continuous
100
AcDbPolyline
 90
        3
 70
     0
 43
0.0
 10
31.11829245021363
 20
64.34085384798163
 10
33.70648290123972
 20
74.00011211087258
 10
36.29467335226582
 20
64.34085384798163
  0
LWPOLYLINE
  5
18D
330
184
100
AcDbEntity
  8
寸法
  6
Continuous
100
AcDbPolyline
 90
        3
 70
     0
 43
0.0
 10
36.29467335226582
 20
-64.34062962623648
 10
33.70648290123972
 20
-73.99988788912742
 10
31.11829245021363
 20
-64.34062962623648
  0
ENDBLK
  5
186
330
184
100
AcDbEntity
  8
0
100
AcDbBlockEnd
  0
BLOCK
  5
18F
330
18E
100
AcDbEntity
  8
0
100
AcDbBlockBegin
  2
INS-DPJQ7
 70
     0
 10
0.0
 20
0.0
 30
0.0
  3
INS-DPJQ7
  1

  0
TEXT
  5
192
330
18E
100
AcDbEntity
  8
寸法
  6
Continuous
100
AcDbText
 10
-21.19901709875921
 20
-38.93988788912742
 30
0.0
 40
19.982
  1
φ200
 50
90.0
 41
1.041145908602337
 72
     1
 11
-21.19901709875921
 21
0.0001121108725783
 31
0.0
100
AcDbText
  0
LINE
  5
193
330
18E
100
AcDbEntity
  8
寸法
  6
Continuous
100
AcDbLine
 10
44.80098290124079
 20
-99.99988788912742
 30
0.0
 11
-11.19901709875921
 21
-99.99988788912742
 31
0.0
  0
LINE
  5
194
330
18E
100
AcDbEntity
  8
寸法
  6
Continuous
100
AcDbLine
 10
44.80098290124079
 20
100.0001121108726
 30
0.0
 11
-11.19901709875921
 21
100.0001121108726
 31
0.0
  0
LINE
  5
195
330
18E
100
AcDbEntity
  8
寸法
  6
Continuous
100
AcDbLine
 10
-11.19901709875921
 20
100.0001121108726
 30
0.0
 11
-11.19901709875921
 21
-99.99988788912742
 31
0.0
  0
LWPOLYLINE
  5
196
330
18E
100
AcDbEntity
  8
寸法
  6
Continuous
100
AcDbPolyline
 90
        3
 70
     0
 43
0.0
 10
-13.78720754978531
 20
90.34085384798163
 10
-11.19901709875921
 20
100.0001121108726
 10
-8.61082664773312
 20
90.34085384798163
  0
LWPOLYLINE
  5
197
330
18E
100
AcDbEntity
  8
寸法
  6
Continuous
100
AcDbPolyline
 90
        3
 70
     0
 43
0.0
 10
-8.61082664773312
 20
-90.34062962623648
 10
-11.19901709875921
 20
-99.99988788912742
 10
-13.78720754978531
 20
-90.34062962623648
  0
ENDBLK
  5
190
330
18E
100
AcDbEntity
  8
0
100
AcDbBlockEnd
  0
BLOCK
  5
1A6
330
1A5
100
AcDbEntity
  8
0
100
AcDbBlockBegin
  2
INS-D5NHP
 70
     0
 10
0.0
 20
0.0
 30
0.0
  3
INS-D5NHP
  1

  0
TEXT
  5
1A9
330
1A5
100
AcDbEntity
  8
寸法
  6
Continuous
100
AcDbText
 10
-18.53901709876212
 20
36.30011211087185
 30
0.0
 40
19.982
  1
30
 41
1.089505144794249
 72
     1
 11
0.0009829012378759
 21
36.30011211087185
 31
0.0
100
AcDbText
  0
LINE
  5
1AA
330
1A5
100
AcDbEntity
  8
寸法
  6
Continuous
100
AcDbLine
 10
15.00098290123788
 20
-59.89988788912888
 30
0.0
 11
15.00098290123788
 21
26.60011211087112
 31
0.0
  0
LINE
  5
1AB
330
1A5
100
AcDbEntity
  8
寸法
  6
Continuous
100
AcDbLine
 10
-14.99901709876212
 20
-33.89988788912888
 30
0.0
 11
-14.99901709876212
 21
26.60011211087112
 31
0.0
  0
LINE
  5
1AC
330
1A5
100
AcDbEntity
  8
寸法
  6
Continuous
100
AcDbLine
 10
-14.99901709876212
 20
26.60011211087112
 30
0.0
 11
15.00098290123788
 21
26.60011211087112
 31
0.0
  0
LWPOLYLINE
  5
1AD
330
1A5
100
AcDbEntity
  8
寸法
  6
Continuous
100
AcDbPolyline
 90
        3
 70
     0
 43
0.0
 10
-5.33975883587118
 20
24.01192165984685
 10
-14.99901709876212
 20
26.60011211087112
 10
-5.33975883587118
 20
29.1883025618954
  0
LWPOLYLINE
  5
1AE
330
1A5
100
AcDbEntity
  8
寸法
  6
Continuous
100
AcDbPolyline
 90
        3
 70
     0
 43
0.0
 10
5.341724638346932
 20
29.1883025618954
 10
15.00098290123788
 20
26.60011211087112
 10
5.341724638346932
 20
24.01192165984685
  0
ENDBLK
  5
1A7
330
1A5
100
AcDbEntity
  8
0
100
AcDbBlockEnd
  0
BLOCK
  5
1B0
330
1AF
100
AcDbEntity
  8
0
100
AcDbBlockBegin
  2
INS-D5EKQ
 70
     0
 10
0.0
 20
0.0
 30
0.0
  3
INS-D5EKQ
  1

  0
TEXT
  5
1B3
330
1AF
100
AcDbEntity
  8
寸法
  6
Continuous
100
AcDbText
 10
-18.5390170987603
 20
36.30011211087185
 30
0.0
 40
19.982
  1
60
 41
1.089505144794249
 72
     1
 11
0.0009829012396949
 21
36.30011211087185
 31
0.0
100
AcDbText
  0
LINE
  5
1B4
330
1AF
100
AcDbEntity
  8
寸法
  6
Continuous
100
AcDbLine
 10
30.00098290123969
 20
-59.89988788912888
 30
0.0
 11
30.00098290123969
 21
26.60011211087112
 31
0.0
  0
LINE
  5
1B5
330
1AF
100
AcDbEntity
  8
寸法
  6
Continuous
100
AcDbLine
 10
-29.99901709876031
 20
-59.89988788912888
 30
0.0
 11
-29.99901709876031
 21
26.60011211087112
 31
0.0
  0
LINE
  5
1B6
330
1AF
100
AcDbEntity
  8
寸法
  6
Continuous
100
AcDbLine
 10
-29.99901709876031
 20
26.60011211087112
 30
0.0
 11
30.00098290123969
 21
26.60011211087112
 31
0.0
  0
LWPOLYLINE
  5
1B7
330
1AF
100
AcDbEntity
  8
寸法
  6
Continuous
100
AcDbPolyline
 90
        3
 70
     0
 43
0.0
 10
-20.33975883586936
 20
24.01192165984685
 10
-29.99901709876031
 20
26.60011211087112
 10
-20.33975883586936
 20
29.1883025618954
  0
LWPOLYLINE
  5
1B8
330
1AF
100
AcDbEntity
  8
寸法
  6
Continuous
100
AcDbPolyline
 90
        3
 70
     0
 43
0.0
 10
20.34172463834875
 20
29.1883025618954
 10
30.00098290123969
 20
26.60011211087112
 10
20.34172463834875
 20
24.01192165984685
  0
ENDBLK
  5
1B1
330
1AF
100
AcDbEntity
  8
0
100
AcDbBlockEnd
  0
BLOCK
  5
1C5
330
1C4
100
AcDbEntity
  8
0
100
AcDbBlockBegin
  2
INS-D643D
 70
     0
 10
0.0
 20
0.0
 30
0.0
  3
INS-D643D
  1

  0
TEXT
  5
1C8
330
1C4
100
AcDbEntity
  8
寸法
  6
Continuous
100
AcDbText
 10
23.70648290123973
 20
-39.05988788912742
 30
0.0
 40
19.982
  1
φ173
 50
90.0
 41
1.041145908602337
 72
     1
 11
23.70648290123973
 21
0.0001121108725712
 31
0.0
100
AcDbText
  0
LINE
  5
1C9
330
1C4
100
AcDbEntity
  8
寸法
  6
Continuous
100
AcDbLine
 10
-39.29351709876028
 20
-86.49988788912742
 30
0.0
 11
33.70648290123972
 21
-86.49988788912742
 31
0.0
  0
LINE
  5
1CA
330
1C4
100
AcDbEntity
  8
寸法
  6
Continuous
100
AcDbLine
 10
-39.29351709876028
 20
86.50011211087258
 30
0.0
 11
33.70648290123972
 21
86.50011211087258
 31
0.0
  0
LINE
  5
1CB
330
1C4
100
AcDbEntity
  8
寸法
  6
Continuous
100
AcDbLine
 10
33.70648290123972
 20
86.50011211087258
 30
0.0
 11
33.70648290123972
 21
-86.49988788912742
 31
0.0
  0
LWPOLYLINE
  5
1CC
330
1C4
100
AcDbEntity
  8
寸法
  6
Continuous
100
AcDbPolyline
 90
        3
 70
     0
 43
0.0
 10
31.11829245021363
 20
76.84085384798163
 10
33.70648290123972
 20
86.50011211087258
 10
36.29467335226582
 20
76.84085384798163
  0
LWPOLYLINE
  5
1CD
330
1C4
100
AcDbEntity
  8
寸法
  6
Continuous
100
AcDbPolyline
 90
        3
 70
     0
 43
0.0
 10
36.29467335226582
 20
-76.84062962623648
 10
33.70648290123972
 20
-86.49988788912742
 10
31.11829245021363
 20
-76.84062962623648
  0
ENDBLK
  5
1C6
330
1C4
100
AcDbEntity
  8
0
100
AcDbBlockEnd
  0
BLOCK
  5
1CF
330
1CE
100
AcDbEntity
  8
0
100
AcDbBlockBegin
  2
INS-D8TXR
 70
     0
 10
0.0
 20
0.0
 30
0.0
  3
INS-D8TXR
  1

  0
TEXT
  5
1D2
330
1CE
100
AcDbEntity
  8
寸法
  6
Continuous
100
AcDbText
 10
-21.19901709875921
 20
-42.41988788912742
 30
0.0
 40
19.982
  1
φ225
 50
90.0
 41
1.041145908602337
 72
     1
 11
-21.19901709875921
 21
0.0001121108725783
 31
0.0
100
AcDbText
  0
LINE
  5
1D3
330
1CE
100
AcDbEntity
  8
寸法
  6
Continuous
100
AcDbLine
 10
44.80098290124079
 20
-112.4998878891274
 30
0.0
 11
-11.19901709875921
 21
-112.4998878891274
 31
0.0
  0
LINE
  5
1D4
330
1CE
100
AcDbEntity
  8
寸法
  6
Continuous
100
AcDbLine
 10
44.80098290124079
 20
112.5001121108726
 30
0.0
 11
-11.19901709875921
 21
112.5001121108726
 31
0.0
  0
LINE
  5
1D5
330
1CE
100
AcDbEntity
  8
寸法
  6
Continuous
100
AcDbLine
 10
-11.19901709875921
 20
112.5001121108726
 30
0.0
 11
-11.19901709875921
 21
-112.4998878891274
 31
0.0
  0
LWPOLYLINE
  5
1D6
330
1CE
100
AcDbEntity
  8
寸法
  6
Continuous
100
AcDbPolyline
 90
        3
 70
     0
 43
0.0
 10
-13.78720754978531
 20
102.8408538479816
 10
-11.19901709875921
 20
112.5001121108726
 10
-8.61082664773312
 20
102.8408538479816
  0
LWPOLYLINE
  5
1D7
330
1CE
100
AcDbEntity
  8
寸法
  6
Continuous
100
AcDbPolyline
 90
        3
 70
     0
 43
0.0
 10
-8.61082664773312
 20
-102.8406296262365
 10
-11.19901709875921
 20
-112.4998878891274
 10
-13.78720754978531
 20
-102.8406296262365
  0
ENDBLK
  5
1D0
330
1CE
100
AcDbEntity
  8
0
100
AcDbBlockEnd
  0
BLOCK
  5
1E6
330
1E5
100
AcDbEntity
  8
0
100
AcDbBlockBegin
  2
INS-D5M90
 70
     0
 10
0.0
 20
0.0
 30
0.0
  3
INS-D5M90
  1

  0
TEXT
  5
1E9
330
1E5
100
AcDbEntity
  8
寸法
  6
Continuous
100
AcDbText
 10
-18.53901709876212
 20
30.05011211087185
 30
0.0
 40
19.982
  1
30
 41
1.089505144794249
 72
     1
 11
0.0009829012378759
 21
30.05011211087185
 31
0.0
100
AcDbText
  0
LINE
  5
1EA
330
1E5
100
AcDbEntity
  8
寸法
  6
Continuous
100
AcDbLine
 10
15.00098290123788
 20
-53.64988788912888
 30
0.0
 11
15.00098290123788
 21
20.35011211087112
 31
0.0
  0
LINE
  5
1EB
330
1E5
100
AcDbEntity
  8
寸法
  6
Continuous
100
AcDbLine
 10
-14.99901709876212
 20
-27.64988788912888
 30
0.0
 11
-14.99901709876212
 21
20.35011211087112
 31
0.0
  0
LINE
  5
1EC
330
1E5
100
AcDbEntity
  8
寸法
  6
Continuous
100
AcDbLine
 10
-14.99901709876212
 20
20.35011211087112
 30
0.0
 11
15.00098290123788
 21
20.35011211087112
 31
0.0
  0
LWPOLYLINE
  5
1ED
330
1E5
100
AcDbEntity
  8
寸法
  6
Continuous
100
AcDbPolyline
 90
        3
 70
     0
 43
0.0
 10
-5.33975883587118
 20
17.76192165984685
 10
-14.99901709876212
 20
20.35011211087112
 10
-5.33975883587118
 20
22.9383025618954
  0
LWPOLYLINE
  5
1EE
330
1E5
100
AcDbEntity
  8
寸法
  6
Continuous
100
AcDbPolyline
 90
        3
 70
     0
 43
0.0
 10
5.341724638346932
 20
22.9383025618954
 10
15.00098290123788
 20
20.35011211087112
 10
5.341724638346932
 20
17.76192165984685
  0
ENDBLK
  5
1E7
330
1E5
100
AcDbEntity
  8
0
100
AcDbBlockEnd
  0
BLOCK
  5
1F0
330
1EF
100
AcDbEntity
  8
0
100
AcDbBlockBegin
  2
INS-D7JIB
 70
     0
 10
0.0
 20
0.0
 30
0.0
  3
INS-D7JIB
  1

  0
TEXT
  5
1F3
330
1EF
100
AcDbEntity
  8
寸法
  6
Continuous
100
AcDbText
 10
-18.5390170987603
 20
30.05011211087185
 30
0.0
 40
19.982
  1
60
 41
1.089505144794249
 72
     1
 11
0.0009829012396949
 21
30.05011211087185
 31
0.0
100
AcDbText
  0
LINE
  5
1F4
330
1EF
100
AcDbEntity
  8
寸法
  6
Continuous
100
AcDbLine
 10
30.00098290123969
 20
-53.64988788912888
 30
0.0
 11
30.00098290123969
 21
20.35011211087112
 31
0.0
  0
LINE
  5
1F5
330
1EF
100
AcDbEntity
  8
寸法
  6
Continuous
100
AcDbLine
 10
-29.99901709876031
 20
-53.64988788912888
 30
0.0
 11
-29.99901709876031
 21
20.35011211087112
 31
0.0
  0
LINE
  5
1F6
330
1EF
100
AcDbEntity
  8
寸法
  6
Continuous
100
AcDbLine
 10
-29.99901709876031
 20
20.35011211087112
 30
0.0
 11
30.00098290123969
 21
20.35011211087112
 31
0.0
  0
LWPOLYLINE
  5
1F7
330
1EF
100
AcDbEntity
  8
寸法
  6
Continuous
100
AcDbPolyline
 90
        3
 70
     0
 43
0.0
 10
-20.33975883586936
 20
17.76192165984685
 10
-29.99901709876031
 20
20.35011211087112
 10
-20.33975883586936
 20
22.9383025618954
  0
LWPOLYLINE
  5
1F8
330
1EF
100
AcDbEntity
  8
寸法
  6
Continuous
100
AcDbPolyline
 90
        3
 70
     0
 43
0.0
 10
20.34172463834875
 20
22.9383025618954
 10
30.00098290123969
 20
20.35011211087112
 10
20.34172463834875
 20
17.76192165984685
  0
ENDBLK
  5
1F1
330
1EF
100
AcDbEntity
  8
0
100
AcDbBlockEnd
  0
BLOCK
  5
204
330
203
100
AcDbEntity
  8
0
100
AcDbBlockBegin
  2
INS-D82CP
 70
     0
 10
0.0
 20
0.0
 30
0.0
  3
INS-D82CP
  1

  0
TEXT
  5
207
330
203
100
AcDbEntity
  8
寸法
  6
Continuous
100
AcDbText
 10
23.70648290123973
 20
-39.05988788912742
 30
0.0
 40
19.982
  1
φ198
 50
90.0
 41
1.041145908602337
 72
     1
 11
23.70648290123973
 21
0.0001121108725712
 31
0.0
100
AcDbText
  0
LINE
  5
208
330
203
100
AcDbEntity
  8
寸法
  6
Continuous
100
AcDbLine
 10
-39.29351709876028
 20
-98.99988788912742
 30
0.0
 11
33.70648290123972
 21
-98.99988788912742
 31
0.0
  0
LINE
  5
209
330
203
100
AcDbEntity
  8
寸法
  6
Continuous
100
AcDbLine
 10
-39.29351709876028
 20
99.00011211087258
 30
0.0
 11
33.70648290123972
 21
99.00011211087258
 31
0.0
  0
LINE
  5
20A
330
203
100
AcDbEntity
  8
寸法
  6
Continuous
100
AcDbLine
 10
33.70648290123972
 20
99.00011211087258
 30
0.0
 11
33.70648290123972
 21
-98.99988788912742
 31
0.0
  0
LWPOLYLINE
  5
20B
330
203
100
AcDbEntity
  8
寸法
  6
Continuous
100
AcDbPolyline
 90
        3
 70
     0
 43
0.0
 10
31.11829245021363
 20
89.34085384798163
 10
33.70648290123972
 20
99.00011211087258
 10
36.29467335226582
 20
89.34085384798163
  0
LWPOLYLINE
  5
20C
330
203
100
AcDbEntity
  8
寸法
  6
Continuous
100
AcDbPolyline
 90
        3
 70
     0
 43
0.0
 10
36.29467335226582
 20
-89.34062962623648
 10
33.70648290123972
 20
-98.99988788912742
 10
31.11829245021363
 20
-89.34062962623648
  0
ENDBLK
  5
205
330
203
100
AcDbEntity
  8
0
100
AcDbBlockEnd
  0
BLOCK
  5
20E
330
20D
100
AcDbEntity
  8
0
100
AcDbBlockBegin
  2
INS-D4GTE
 70
     0
 10
0.0
 20
0.0
 30
0.0
  3
INS-D4GTE
  1

  0
TEXT
  5
211
330
20D
100
AcDbEntity
  8
寸法
  6
Continuous
100
AcDbText
 10
-21.19901709875921
 20
-40.67988788912741
 30
0.0
 40
19.982
  1
φ250
 50
90.0
 41
1.041145908602337
 72
     1
 11
-21.19901709875921
 21
0.0001121108725783
 31
0.0
100
AcDbText
  0
LINE
  5
212
330
20D
100
AcDbEntity
  8
寸法
  6
Continuous
100
AcDbLine
 10
44.80098290124079
 20
-124.9998878891274
 30
0.0
 11
-11.19901709875921
 21
-124.9998878891274
 31
0.0
  0
LINE
  5
213
330
20D
100
AcDbEntity
  8
寸法
  6
Continuous
100
AcDbLine
 10
44.80098290124079
 20
125.0001121108726
 30
0.0
 11
-11.19901709875921
 21
125.0001121108726
 31
0.0
  0
LINE
  5
214
330
20D
100
AcDbEntity
  8
寸法
  6
Continuous
100
AcDbLine
 10
-11.19901709875921
 20
125.0001121108726
 30
0.0
 11
-11.19901709875921
 21
-124.9998878891274
 31
0.0
  0
LWPOLYLINE
  5
215
330
20D
100
AcDbEntity
  8
寸法
  6
Continuous
100
AcDbPolyline
 90
        3
 70
     0
 43
0.0
 10
-13.78720754978531
 20
115.3408538479816
 10
-11.19901709875921
 20
125.0001121108726
 10
-8.61082664773312
 20
115.3408538479816
  0
LWPOLYLINE
  5
216
330
20D
100
AcDbEntity
  8
寸法
  6
Continuous
100
AcDbPolyline
 90
        3
 70
     0
 43
0.0
 10
-8.61082664773312
 20
-115.3406296262365
 10
-11.19901709875921
 20
-124.9998878891274
 10
-13.78720754978531
 20
-115.3406296262365
  0
ENDBLK
  5
20F
330
20D
100
AcDbEntity
  8
0
100
AcDbBlockEnd
  0
BLOCK
  5
225
330
224
100
AcDbEntity
  8
0
100
AcDbBlockBegin
  2
INS-D6616
 70
     0
 10
0.0
 20
0.0
 30
0.0
  3
INS-D6616
  1

  0
TEXT
  5
228
330
224
100
AcDbEntity
  8
寸法
  6
Continuous
100
AcDbText
 10
-18.53901709876212
 20
30.05011211087185
 30
0.0
 40
19.982
  1
30
 41
1.089505144794249
 72
     1
 11
0.0009829012378759
 21
30.05011211087185
 31
0.0
100
AcDbText
  0
LINE
  5
229
330
224
100
AcDbEntity
  8
寸法
  6
Continuous
100
AcDbLine
 10
15.00098290123788
 20
-53.64988788912888
 30
0.0
 11
15.00098290123788
 21
20.35011211087112
 31
0.0
  0
LINE
  5
22A
330
224
100
AcDbEntity
  8
寸法
  6
Continuous
100
AcDbLine
 10
-14.99901709876212
 20
-27.64988788912888
 30
0.0
 11
-14.99901709876212
 21
20.35011211087112
 31
0.0
  0
LINE
  5
22B
330
224
100
AcDbEntity
  8
寸法
  6
Continuous
100
AcDbLine
 10
-14.99901709876212
 20
20.35011211087112
 30
0.0
 11
15.00098290123788
 21
20.35011211087112
 31
0.0
  0
LWPOLYLINE
  5
22C
330
224
100
AcDbEntity
  8
寸法
  6
Continuous
100
AcDbPolyline
 90
        3
 70
     0
 43
0.0
 10
-5.33975883587118
 20
17.76192165984685
 10
-14.99901709876212
 20
20.35011211087112
 10
-5.33975883587118
 20
22.9383025618954
  0
LWPOLYLINE
  5
22D
330
224
100
AcDbEntity
  8
寸法
  6
Continuous
100
AcDbPolyline
 90
        3
 70
     0
 43
0.0
 10
5.341724638346932
 20
22.9383025618954
 10
15.00098290123788
 20
20.35011211087112
 10
5.341724638346932
 20
17.76192165984685
  0
ENDBLK
  5
226
330
224
100
AcDbEntity
  8
0
100
AcDbBlockEnd
  0
BLOCK
  5
22F
330
22E
100
AcDbEntity
  8
0
100
AcDbBlockBegin
  2
INS-D82OP
 70
     0
 10
0.0
 20
0.0
 30
0.0
  3
INS-D82OP
  1

  0
TEXT
  5
232
330
22E
100
AcDbEntity
  8
寸法
  6
Continuous
100
AcDbText
 10
-18.5390170987603
 20
30.05011211087185
 30
0.0
 40
19.982
  1
60
 41
1.089505144794249
 72
     1
 11
0.0009829012396949
 21
30.05011211087185
 31
0.0
100
AcDbText
  0
LINE
  5
233
330
22E
100
AcDbEntity
  8
寸法
  6
Continuous
100
AcDbLine
 10
30.00098290123969
 20
-53.64988788912888
 30
0.0
 11
30.00098290123969
 21
20.35011211087112
 31
0.0
  0
LINE
  5
234
330
22E
100
AcDbEntity
  8
寸法
  6
Continuous
100
AcDbLine
 10
-29.99901709876031
 20
-53.64988788912888
 30
0.0
 11
-29.99901709876031
 21
20.35011211087112
 31
0.0
  0
LINE
  5
235
330
22E
100
AcDbEntity
  8
寸法
  6
Continuous
100
AcDbLine
 10
-29.99901709876031
 20
20.35011211087112
 30
0.0
 11
30.00098290123969
 21
20.35011211087112
 31
0.0
  0
LWPOLYLINE
  5
236
330
22E
100
AcDbEntity
  8
寸法
  6
Continuous
100
AcDbPolyline
 90
        3
 70
     0
 43
0.0
 10
-20.33975883586936
 20
17.76192165984685
 10
-29.99901709876031
 20
20.35011211087112
 10
-20.33975883586936
 20
22.9383025618954
  0
LWPOLYLINE
  5
237
330
22E
100
AcDbEntity
  8
寸法
  6
Continuous
100
AcDbPolyline
 90
        3
 70
     0
 43
0.0
 10
20.34172463834875
 20
22.9383025618954
 10
30.00098290123969
 20
20.35011211087112
 10
20.34172463834875
 20
17.76192165984685
  0
ENDBLK
  5
230
330
22E
100
AcDbEntity
  8
0
100
AcDbBlockEnd
  0
BLOCK
  5
243
330
242
100
AcDbEntity
  8
0
100
AcDbBlockBegin
  2
INS-DEYHC
 70
     0
 10
0.0
 20
0.0
 30
0.0
  3
INS-DEYHC
  1

  0
TEXT
  5
246
330
242
100
AcDbEntity
  8
寸法
  6
Continuous
100
AcDbText
 10
23.70648290123972
 20
-42.41988788912743
 30
0.0
 40
19.982
  1
φ223
 50
90.0
 41
1.041145908602337
 72
     1
 11
23.70648290123972
 21
0.0001121108725641
 31
0.0
100
AcDbText
  0
LINE
  5
247
330
242
100
AcDbEntity
  8
寸法
  6
Continuous
100
AcDbLine
 10
-39.29351709876028
 20
-111.4998878891274
 30
0.0
 11
33.70648290123972
 21
-111.4998878891274
 31
0.0
  0
LINE
  5
248
330
242
100
AcDbEntity
  8
寸法
  6
Continuous
100
AcDbLine
 10
-39.29351709876028
 20
111.5001121108726
 30
0.0
 11
33.70648290123972
 21
111.5001121108726
 31
0.0
  0
LINE
  5
249
330
242
100
AcDbEntity
  8
寸法
  6
Continuous
100
AcDbLine
 10
33.70648290123972
 20
111.5001121108726
 30
0.0
 11
33.70648290123972
 21
-111.4998878891274
 31
0.0
  0
LWPOLYLINE
  5
24A
330
242
100
AcDbEntity
  8
寸法
  6
Continuous
100
AcDbPolyline
 90
        3
 70
     0
 43
0.0
 10
31.11829245021363
 20
101.8408538479816
 10
33.70648290123972
 20
111.5001121108726
 10
36.29467335226582
 20
101.8408538479816
  0
LWPOLYLINE
  5
24B
330
242
100
AcDbEntity
  8
寸法
  6
Continuous
100
AcDbPolyline
 90
        3
 70
     0
 43
0.0
 10
36.29467335226582
 20
-101.8406296262365
 10
33.70648290123972
 20
-111.4998878891274
 10
31.11829245021363
 20
-101.8406296262365
  0
ENDBLK
  5
244
330
242
100
AcDbEntity
  8
0
100
AcDbBlockEnd
  0
BLOCK
  5
24D
330
24C
100
AcDbEntity
  8
0
100
AcDbBlockBegin
  2
INS-D608M
 70
     0
 10
0.0
 20
0.0
 30
0.0
  3
INS-D608M
  1

  0
TEXT
  5
250
330
24C
100
AcDbEntity
  8
寸法
  6
Continuous
100
AcDbText
 10
-21.19901709875921
 20
-42.41988788912742
 30
0.0
 40
19.982
  1
φ275
 50
90.0
 41
1.041145908602337
 72
     1
 11
-21.19901709875921
 21
0.0001121108725783
 31
0.0
100
AcDbText
  0
LINE
  5
251
330
24C
100
AcDbEntity
  8
寸法
  6
Continuous
100
AcDbLine
 10
44.80098290124079
 20
-137.4998878891274
 30
0.0
 11
-11.19901709875921
 21
-137.4998878891274
 31
0.0
  0
LINE
  5
252
330
24C
100
AcDbEntity
  8
寸法
  6
Continuous
100
AcDbLine
 10
44.80098290124079
 20
137.5001121108726
 30
0.0
 11
-11.19901709875921
 21
137.5001121108726
 31
0.0
  0
LINE
  5
253
330
24C
100
AcDbEntity
  8
寸法
  6
Continuous
100
AcDbLine
 10
-11.19901709875921
 20
137.5001121108726
 30
0.0
 11
-11.19901709875921
 21
-137.4998878891274
 31
0.0
  0
LWPOLYLINE
  5
254
330
24C
100
AcDbEntity
  8
寸法
  6
Continuous
100
AcDbPolyline
 90
        3
 70
     0
 43
0.0
 10
-13.78720754978531
 20
127.8408538479816
 10
-11.19901709875921
 20
137.5001121108726
 10
-8.61082664773312
 20
127.8408538479816
  0
LWPOLYLINE
  5
255
330
24C
100
AcDbEntity
  8
寸法
  6
Continuous
100
AcDbPolyline
 90
        3
 70
     0
 43
0.0
 10
-8.61082664773312
 20
-127.8406296262365
 10
-11.19901709875921
 20
-137.4998878891274
 10
-13.78720754978531
 20
-127.8406296262365
  0
ENDBLK
  5
24E
330
24C
100
AcDbEntity
  8
0
100
AcDbBlockEnd
  0
BLOCK
  5
264
330
263
100
AcDbEntity
  8
0
100
AcDbBlockBegin
  2
INS-DB2TE
 70
     0
 10
0.0
 20
0.0
 30
0.0
  3
INS-DB2TE
  1

  0
TEXT
  5
267
330
263
100
AcDbEntity
  8
寸法
  6
Continuous
100
AcDbText
 10
-18.53901709876212
 20
30.05011211087185
 30
0.0
 40
19.982
  1
30
 41
1.089505144794249
 72
     1
 11
0.0009829012378759
 21
30.05011211087185
 31
0.0
100
AcDbText
  0
LINE
  5
268
330
263
100
AcDbEntity
  8
寸法
  6
Continuous
100
AcDbLine
 10
15.00098290123788
 20
-53.64988788912888
 30
0.0
 11
15.00098290123788
 21
20.35011211087112
 31
0.0
  0
LINE
  5
269
330
263
100
AcDbEntity
  8
寸法
  6
Continuous
100
AcDbLine
 10
-14.99901709876212
 20
-27.64988788912888
 30
0.0
 11
-14.99901709876212
 21
20.35011211087112
 31
0.0
  0
LINE
  5
26A
330
263
100
AcDbEntity
  8
寸法
  6
Continuous
100
AcDbLine
 10
-14.99901709876212
 20
20.35011211087112
 30
0.0
 11
15.00098290123788
 21
20.35011211087112
 31
0.0
  0
LWPOLYLINE
  5
26B
330
263
100
AcDbEntity
  8
寸法
  6
Continuous
100
AcDbPolyline
 90
        3
 70
     0
 43
0.0
 10
-5.33975883587118
 20
17.76192165984685
 10
-14.99901709876212
 20
20.35011211087112
 10
-5.33975883587118
 20
22.9383025618954
  0
LWPOLYLINE
  5
26C
330
263
100
AcDbEntity
  8
寸法
  6
Continuous
100
AcDbPolyline
 90
        3
 70
     0
 43
0.0
 10
5.341724638346932
 20
22.9383025618954
 10
15.00098290123788
 20
20.35011211087112
 10
5.341724638346932
 20
17.76192165984685
  0
ENDBLK
  5
265
330
263
100
AcDbEntity
  8
0
100
AcDbBlockEnd
  0
BLOCK
  5
26E
330
26D
100
AcDbEntity
  8
0
100
AcDbBlockBegin
  2
INS-DF67R
 70
     0
 10
0.0
 20
0.0
 30
0.0
  3
INS-DF67R
  1

  0
TEXT
  5
271
330
26D
100
AcDbEntity
  8
寸法
  6
Continuous
100
AcDbText
 10
-18.5390170987603
 20
30.05011211087185
 30
0.0
 40
19.982
  1
60
 41
1.089505144794249
 72
     1
 11
0.0009829012396949
 21
30.05011211087185
 31
0.0
100
AcDbText
  0
LINE
  5
272
330
26D
100
AcDbEntity
  8
寸法
  6
Continuous
100
AcDbLine
 10
30.00098290123969
 20
-53.64988788912888
 30
0.0
 11
30.00098290123969
 21
20.35011211087112
 31
0.0
  0
LINE
  5
273
330
26D
100
AcDbEntity
  8
寸法
  6
Continuous
100
AcDbLine
 10
-29.99901709876031
 20
-53.64988788912888
 30
0.0
 11
-29.99901709876031
 21
20.35011211087112
 31
0.0
  0
LINE
  5
274
330
26D
100
AcDbEntity
  8
寸法
  6
Continuous
100
AcDbLine
 10
-29.99901709876031
 20
20.35011211087112
 30
0.0
 11
30.00098290123969
 21
20.35011211087112
 31
0.0
  0
LWPOLYLINE
  5
275
330
26D
100
AcDbEntity
  8
寸法
  6
Continuous
100
AcDbPolyline
 90
        3
 70
     0
 43
0.0
 10
-20.33975883586936
 20
17.76192165984685
 10
-29.99901709876031
 20
20.35011211087112
 10
-20.33975883586936
 20
22.9383025618954
  0
LWPOLYLINE
  5
276
330
26D
100
AcDbEntity
  8
寸法
  6
Continuous
100
AcDbPolyline
 90
        3
 70
     0
 43
0.0
 10
20.34172463834875
 20
22.9383025618954
 10
30.00098290123969
 20
20.35011211087112
 10
20.34172463834875
 20
17.76192165984685
  0
ENDBLK
  5
26F
330
26D
100
AcDbEntity
  8
0
100
AcDbBlockEnd
  0
BLOCK
  5
282
330
281
100
AcDbEntity
  8
0
100
AcDbBlockBegin
  2
INS-D5C4R
 70
     0
 10
0.0
 20
0.0
 30
0.0
  3
INS-D5C4R
  1

  0
TEXT
  5
285
330
281
100
AcDbEntity
  8
寸法
  6
Continuous
100
AcDbText
 10
23.70648290123972
 20
-42.41988788912743
 30
0.0
 40
19.982
  1
φ248
 50
90.0
 41
1.041145908602337
 72
     1
 11
23.70648290123972
 21
0.0001121108725641
 31
0.0
100
AcDbText
  0
LINE
  5
286
330
281
100
AcDbEntity
  8
寸法
  6
Continuous
100
AcDbLine
 10
-39.29351709876028
 20
-123.9998878891274
 30
0.0
 11
33.70648290123972
 21
-123.9998878891274
 31
0.0
  0
LINE
  5
287
330
281
100
AcDbEntity
  8
寸法
  6
Continuous
100
AcDbLine
 10
-39.29351709876028
 20
124.0001121108726
 30
0.0
 11
33.70648290123972
 21
124.0001121108726
 31
0.0
  0
LINE
  5
288
330
281
100
AcDbEntity
  8
寸法
  6
Continuous
100
AcDbLine
 10
33.70648290123972
 20
124.0001121108726
 30
0.0
 11
33.70648290123972
 21
-123.9998878891274
 31
0.0
  0
LWPOLYLINE
  5
289
330
281
100
AcDbEntity
  8
寸法
  6
Continuous
100
AcDbPolyline
 90
        3
 70
     0
 43
0.0
 10
31.11829245021363
 20
114.3408538479816
 10
33.70648290123972
 20
124.0001121108726
 10
36.29467335226582
 20
114.3408538479816
  0
LWPOLYLINE
  5
28A
330
281
100
AcDbEntity
  8
寸法
  6
Continuous
100
AcDbPolyline
 90
        3
 70
     0
 43
0.0
 10
36.29467335226582
 20
-114.3406296262365
 10
33.70648290123972
 20
-123.9998878891274
 10
31.11829245021363
 20
-114.3406296262365
  0
ENDBLK
  5
283
330
281
100
AcDbEntity
  8
0
100
AcDbBlockEnd
  0
BLOCK
  5
28C
330
28B
100
AcDbEntity
  8
0
100
AcDbBlockBegin
  2
INS-DD7KB
 70
     0
 10
0.0
 20
0.0
 30
0.0
  3
INS-DD7KB
  1

  0
TEXT
  5
28F
330
28B
100
AcDbEntity
  8
寸法
  6
Continuous
100
AcDbText
 10
-21.19901709875921
 20
-38.93988788912742
 30
0.0
 40
19.982
  1
φ300
 50
90.0
 41
1.041145908602337
 72
     1
 11
-21.19901709875921
 21
0.0001121108725783
 31
0.0
100
AcDbText
  0
LINE
  5
290
330
28B
100
AcDbEntity
  8
寸法
  6
Continuous
100
AcDbLine
 10
44.80098290124079
 20
-149.9998878891274
 30
0.0
 11
-11.19901709875921
 21
-149.9998878891274
 31
0.0
  0
LINE
  5
291
330
28B
100
AcDbEntity
  8
寸法
  6
Continuous
100
AcDbLine
 10
44.80098290124079
 20
150.0001121108726
 30
0.0
 11
-11.19901709875921
 21
150.0001121108726
 31
0.0
  0
LINE
  5
292
330
28B
100
AcDbEntity
  8
寸法
  6
Continuous
100
AcDbLine
 10
-11.19901709875921
 20
150.0001121108726
 30
0.0
 11
-11.19901709875921
 21
-149.9998878891274
 31
0.0
  0
LWPOLYLINE
  5
293
330
28B
100
AcDbEntity
  8
寸法
  6
Continuous
100
AcDbPolyline
 90
        3
 70
     0
 43
0.0
 10
-13.78720754978531
 20
140.3408538479816
 10
-11.19901709875921
 20
150.0001121108726
 10
-8.61082664773312
 20
140.3408538479816
  0
LWPOLYLINE
  5
294
330
28B
100
AcDbEntity
  8
寸法
  6
Continuous
100
AcDbPolyline
 90
        3
 70
     0
 43
0.0
 10
-8.61082664773312
 20
-140.3406296262365
 10
-11.19901709875921
 20
-149.9998878891274
 10
-13.78720754978531
 20
-140.3406296262365
  0
ENDBLK
  5
28D
330
28B
100
AcDbEntity
  8
0
100
AcDbBlockEnd
  0
BLOCK
  5
2A3
330
2A2
100
AcDbEntity
  8
0
100
AcDbBlockBegin
  2
INS-D7Y40
 70
     0
 10
0.0
 20
0.0
 30
0.0
  3
INS-D7Y40
  1

  0
TEXT
  5
2A6
330
2A2
100
AcDbEntity
  8
寸法
  6
Continuous
100
AcDbText
 10
-18.53901709876212
 20
30.05011211087185
 30
0.0
 40
19.982
  1
30
 41
1.089505144794249
 72
     1
 11
0.0009829012378759
 21
30.05011211087185
 31
0.0
100
AcDbText
  0
LINE
  5
2A7
330
2A2
100
AcDbEntity
  8
寸法
  6
Continuous
100
AcDbLine
 10
15.00098290123788
 20
-53.64988788912888
 30
0.0
 11
15.00098290123788
 21
20.35011211087112
 31
0.0
  0
LINE
  5
2A8
330
2A2
100
AcDbEntity
  8
寸法
  6
Continuous
100
AcDbLine
 10
-14.99901709876212
 20
-27.64988788912888
 30
0.0
 11
-14.99901709876212
 21
20.35011211087112
 31
0.0
  0
LINE
  5
2A9
330
2A2
100
AcDbEntity
  8
寸法
  6
Continuous
100
AcDbLine
 10
-14.99901709876212
 20
20.35011211087112
 30
0.0
 11
15.00098290123788
 21
20.35011211087112
 31
0.0
  0
LWPOLYLINE
  5
2AA
330
2A2
100
AcDbEntity
  8
寸法
  6
Continuous
100
AcDbPolyline
 90
        3
 70
     0
 43
0.0
 10
-5.33975883587118
 20
17.76192165984685
 10
-14.99901709876212
 20
20.35011211087112
 10
-5.33975883587118
 20
22.9383025618954
  0
LWPOLYLINE
  5
2AB
330
2A2
100
AcDbEntity
  8
寸法
  6
Continuous
100
AcDbPolyline
 90
        3
 70
     0
 43
0.0
 10
5.341724638346932
 20
22.9383025618954
 10
15.00098290123788
 20
20.35011211087112
 10
5.341724638346932
 20
17.76192165984685
  0
ENDBLK
  5
2A4
330
2A2
100
AcDbEntity
  8
0
100
AcDbBlockEnd
  0
BLOCK
  5
2AD
330
2AC
100
AcDbEntity
  8
0
100
AcDbBlockBegin
  2
INS-DFXSU
 70
     0
 10
0.0
 20
0.0
 30
0.0
  3
INS-DFXSU
  1

  0
TEXT
  5
2B0
330
2AC
100
AcDbEntity
  8
寸法
  6
Continuous
100
AcDbText
 10
-18.5390170987603
 20
30.05011211087185
 30
0.0
 40
19.982
  1
60
 41
1.089505144794249
 72
     1
 11
0.0009829012396949
 21
30.05011211087185
 31
0.0
100
AcDbText
  0
LINE
  5
2B1
330
2AC
100
AcDbEntity
  8
寸法
  6
Continuous
100
AcDbLine
 10
30.00098290123969
 20
-53.64988788912888
 30
0.0
 11
30.00098290123969
 21
20.35011211087112
 31
0.0
  0
LINE
  5
2B2
330
2AC
100
AcDbEntity
  8
寸法
  6
Continuous
100
AcDbLine
 10
-29.99901709876031
 20
-53.64988788912888
 30
0.0
 11
-29.99901709876031
 21
20.35011211087112
 31
0.0
  0
LINE
  5
2B3
330
2AC
100
AcDbEntity
  8
寸法
  6
Continuous
100
AcDbLine
 10
-29.99901709876031
 20
20.35011211087112
 30
0.0
 11
30.00098290123969
 21
20.35011211087112
 31
0.0
  0
LWPOLYLINE
  5
2B4
330
2AC
100
AcDbEntity
  8
寸法
  6
Continuous
100
AcDbPolyline
 90
        3
 70
     0
 43
0.0
 10
-20.33975883586936
 20
17.76192165984685
 10
-29.99901709876031
 20
20.35011211087112
 10
-20.33975883586936
 20
22.9383025618954
  0
LWPOLYLINE
  5
2B5
330
2AC
100
AcDbEntity
  8
寸法
  6
Continuous
100
AcDbPolyline
 90
        3
 70
     0
 43
0.0
 10
20.34172463834875
 20
22.9383025618954
 10
30.00098290123969
 20
20.35011211087112
 10
20.34172463834875
 20
17.76192165984685
  0
ENDBLK
  5
2AE
330
2AC
100
AcDbEntity
  8
0
100
AcDbBlockEnd
  0
BLOCK
  5
2C1
330
2C0
100
AcDbEntity
  8
0
100
AcDbBlockBegin
  2
INS-D7KRU
 70
     0
 10
0.0
 20
0.0
 30
0.0
  3
INS-D7KRU
  1

  0
TEXT
  5
2C4
330
2C0
100
AcDbEntity
  8
寸法
  6
Continuous
100
AcDbText
 10
23.70648290123972
 20
-42.41988788912743
 30
0.0
 40
19.982
  1
φ273
 50
90.0
 41
1.041145908602337
 72
     1
 11
23.70648290123972
 21
0.0001121108725641
 31
0.0
100
AcDbText
  0
LINE
  5
2C5
330
2C0
100
AcDbEntity
  8
寸法
  6
Continuous
100
AcDbLine
 10
-39.29351709876028
 20
-136.4998878891274
 30
0.0
 11
33.70648290123972
 21
-136.4998878891274
 31
0.0
  0
LINE
  5
2C6
330
2C0
100
AcDbEntity
  8
寸法
  6
Continuous
100
AcDbLine
 10
-39.29351709876028
 20
136.5001121108726
 30
0.0
 11
33.70648290123972
 21
136.5001121108726
 31
0.0
  0
LINE
  5
2C7
330
2C0
100
AcDbEntity
  8
寸法
  6
Continuous
100
AcDbLine
 10
33.70648290123972
 20
136.5001121108726
 30
0.0
 11
33.70648290123972
 21
-136.4998878891274
 31
0.0
  0
LWPOLYLINE
  5
2C8
330
2C0
100
AcDbEntity
  8
寸法
  6
Continuous
100
AcDbPolyline
 90
        3
 70
     0
 43
0.0
 10
31.11829245021363
 20
126.8408538479816
 10
33.70648290123972
 20
136.5001121108726
 10
36.29467335226582
 20
126.8408538479816
  0
LWPOLYLINE
  5
2C9
330
2C0
100
AcDbEntity
  8
寸法
  6
Continuous
100
AcDbPolyline
 90
        3
 70
     0
 43
0.0
 10
36.29467335226582
 20
-126.8406296262365
 10
33.70648290123972
 20
-136.4998878891274
 10
31.11829245021363
 20
-126.8406296262365
  0
ENDBLK
  5
2C2
330
2C0
100
AcDbEntity
  8
0
100
AcDbBlockEnd
  0
BLOCK
  5
2CB
330
2CA
100
AcDbEntity
  8
0
100
AcDbBlockBegin
  2
INS-D6A7Z
 70
     0
 10
0.0
 20
0.0
 30
0.0
  3
INS-D6A7Z
  1

  0
TEXT
  5
2CE
330
2CA
100
AcDbEntity
  8
寸法
  6
Continuous
100
AcDbText
 10
-21.19901709875921
 20
-42.41988788912742
 30
0.0
 40
19.982
  1
φ325
 50
90.0
 41
1.041145908602337
 72
     1
 11
-21.19901709875921
 21
0.0001121108725783
 31
0.0
100
AcDbText
  0
LINE
  5
2CF
330
2CA
100
AcDbEntity
  8
寸法
  6
Continuous
100
AcDbLine
 10
44.80098290124079
 20
-162.4998878891274
 30
0.0
 11
-11.19901709875921
 21
-162.4998878891274
 31
0.0
  0
LINE
  5
2D0
330
2CA
100
AcDbEntity
  8
寸法
  6
Continuous
100
AcDbLine
 10
44.80098290124079
 20
162.5001121108726
 30
0.0
 11
-11.19901709875921
 21
162.5001121108726
 31
0.0
  0
LINE
  5
2D1
330
2CA
100
AcDbEntity
  8
寸法
  6
Continuous
100
AcDbLine
 10
-11.19901709875921
 20
162.5001121108726
 30
0.0
 11
-11.19901709875921
 21
-162.4998878891274
 31
0.0
  0
LWPOLYLINE
  5
2D2
330
2CA
100
AcDbEntity
  8
寸法
  6
Continuous
100
AcDbPolyline
 90
        3
 70
     0
 43
0.0
 10
-13.78720754978531
 20
152.8408538479816
 10
-11.19901709875921
 20
162.5001121108726
 10
-8.61082664773312
 20
152.8408538479816
  0
LWPOLYLINE
  5
2D3
330
2CA
100
AcDbEntity
  8
寸法
  6
Continuous
100
AcDbPolyline
 90
        3
 70
     0
 43
0.0
 10
-8.61082664773312
 20
-152.8406296262365
 10
-11.19901709875921
 20
-162.4998878891274
 10
-13.78720754978531
 20
-152.8406296262365
  0
ENDBLK
  5
2CC
330
2CA
100
AcDbEntity
  8
0
100
AcDbBlockEnd
  0
BLOCK
  5
2E2
330
2E1
100
AcDbEntity
  8
0
100
AcDbBlockBegin
  2
INS-D8W38
 70
     0
 10
0.0
 20
0.0
 30
0.0
  3
INS-D8W38
  1

  0
TEXT
  5
2E5
330
2E1
100
AcDbEntity
  8
寸法
  6
Continuous
100
AcDbText
 10
-18.53901709876212
 20
30.05011211087185
 30
0.0
 40
19.982
  1
30
 41
1.089505144794249
 72
     1
 11
0.0009829012378759
 21
30.05011211087185
 31
0.0
100
AcDbText
  0
LINE
  5
2E6
330
2E1
100
AcDbEntity
  8
寸法
  6
Continuous
100
AcDbLine
 10
15.00098290123788
 20
-53.64988788912888
 30
0.0
 11
15.00098290123788
 21
20.35011211087112
 31
0.0
  0
LINE
  5
2E7
330
2E1
100
AcDbEntity
  8
寸法
  6
Continuous
100
AcDbLine
 10
-14.99901709876212
 20
-27.64988788912888
 30
0.0
 11
-14.99901709876212
 21
20.35011211087112
 31
0.0
  0
LINE
  5
2E8
330
2E1
100
AcDbEntity
  8
寸法
  6
Continuous
100
AcDbLine
 10
-14.99901709876212
 20
20.35011211087112
 30
0.0
 11
15.00098290123788
 21
20.35011211087112
 31
0.0
  0
LWPOLYLINE
  5
2E9
330
2E1
100
AcDbEntity
  8
寸法
  6
Continuous
100
AcDbPolyline
 90
        3
 70
     0
 43
0.0
 10
-5.33975883587118
 20
17.76192165984685
 10
-14.99901709876212
 20
20.35011211087112
 10
-5.33975883587118
 20
22.9383025618954
  0
LWPOLYLINE
  5
2EA
330
2E1
100
AcDbEntity
  8
寸法
  6
Continuous
100
AcDbPolyline
 90
        3
 70
     0
 43
0.0
 10
5.341724638346932
 20
22.9383025618954
 10
15.00098290123788
 20
20.35011211087112
 10
5.341724638346932
 20
17.76192165984685
  0
ENDBLK
  5
2E3
330
2E1
100
AcDbEntity
  8
0
100
AcDbBlockEnd
  0
BLOCK
  5
2EC
330
2EB
100
AcDbEntity
  8
0
100
AcDbBlockBegin
  2
INS-DLKI5
 70
     0
 10
0.0
 20
0.0
 30
0.0
  3
INS-DLKI5
  1

  0
TEXT
  5
2EF
330
2EB
100
AcDbEntity
  8
寸法
  6
Continuous
100
AcDbText
 10
-18.5390170987603
 20
30.05011211087185
 30
0.0
 40
19.982
  1
60
 41
1.089505144794249
 72
     1
 11
0.0009829012396949
 21
30.05011211087185
 31
0.0
100
AcDbText
  0
LINE
  5
2F0
330
2EB
100
AcDbEntity
  8
寸法
  6
Continuous
100
AcDbLine
 10
30.00098290123969
 20
-53.64988788912888
 30
0.0
 11
30.00098290123969
 21
20.35011211087112
 31
0.0
  0
LINE
  5
2F1
330
2EB
100
AcDbEntity
  8
寸法
  6
Continuous
100
AcDbLine
 10
-29.99901709876031
 20
-53.64988788912888
 30
0.0
 11
-29.99901709876031
 21
20.35011211087112
 31
0.0
  0
LINE
  5
2F2
330
2EB
100
AcDbEntity
  8
寸法
  6
Continuous
100
AcDbLine
 10
-29.99901709876031
 20
20.35011211087112
 30
0.0
 11
30.00098290123969
 21
20.35011211087112
 31
0.0
  0
LWPOLYLINE
  5
2F3
330
2EB
100
AcDbEntity
  8
寸法
  6
Continuous
100
AcDbPolyline
 90
        3
 70
     0
 43
0.0
 10
-20.33975883586936
 20
17.76192165984685
 10
-29.99901709876031
 20
20.35011211087112
 10
-20.33975883586936
 20
22.9383025618954
  0
LWPOLYLINE
  5
2F4
330
2EB
100
AcDbEntity
  8
寸法
  6
Continuous
100
AcDbPolyline
 90
        3
 70
     0
 43
0.0
 10
20.34172463834875
 20
22.9383025618954
 10
30.00098290123969
 20
20.35011211087112
 10
20.34172463834875
 20
17.76192165984685
  0
ENDBLK
  5
2ED
330
2EB
100
AcDbEntity
  8
0
100
AcDbBlockEnd
  0
BLOCK
  5
300
330
2FF
100
AcDbEntity
  8
0
100
AcDbBlockBegin
  2
INS-DTYNH
 70
     0
 10
0.0
 20
0.0
 30
0.0
  3
INS-DTYNH
  1

  0
TEXT
  5
303
330
2FF
100
AcDbEntity
  8
寸法
  6
Continuous
100
AcDbText
 10
23.70648290123972
 20
-42.41988788912743
 30
0.0
 40
19.982
  1
φ298
 50
90.0
 41
1.041145908602337
 72
     1
 11
23.70648290123972
 21
0.0001121108725641
 31
0.0
100
AcDbText
  0
LINE
  5
304
330
2FF
100
AcDbEntity
  8
寸法
  6
Continuous
100
AcDbLine
 10
-39.29351709876028
 20
-148.9998878891274
 30
0.0
 11
33.70648290123972
 21
-148.9998878891274
 31
0.0
  0
LINE
  5
305
330
2FF
100
AcDbEntity
  8
寸法
  6
Continuous
100
AcDbLine
 10
-39.29351709876028
 20
149.0001121108726
 30
0.0
 11
33.70648290123972
 21
149.0001121108726
 31
0.0
  0
LINE
  5
306
330
2FF
100
AcDbEntity
  8
寸法
  6
Continuous
100
AcDbLine
 10
33.70648290123972
 20
149.0001121108726
 30
0.0
 11
33.70648290123972
 21
-148.9998878891274
 31
0.0
  0
LWPOLYLINE
  5
307
330
2FF
100
AcDbEntity
  8
寸法
  6
Continuous
100
AcDbPolyline
 90
        3
 70
     0
 43
0.0
 10
31.11829245021363
 20
139.3408538479816
 10
33.70648290123972
 20
149.0001121108726
 10
36.29467335226582
 20
139.3408538479816
  0
LWPOLYLINE
  5
308
330
2FF
100
AcDbEntity
  8
寸法
  6
Continuous
100
AcDbPolyline
 90
        3
 70
     0
 43
0.0
 10
36.29467335226582
 20
-139.3406296262365
 10
33.70648290123972
 20
-148.9998878891274
 10
31.11829245021363
 20
-139.3406296262365
  0
ENDBLK
  5
301
330
2FF
100
AcDbEntity
  8
0
100
AcDbBlockEnd
  0
BLOCK
  5
30A
330
309
100
AcDbEntity
  8
0
100
AcDbBlockBegin
  2
INS-DF92C
 70
     0
 10
0.0
 20
0.0
 30
0.0
  3
INS-DF92C
  1

  0
TEXT
  5
30D
330
309
100
AcDbEntity
  8
寸法
  6
Continuous
100
AcDbText
 10
-21.19901709875921
 20
-40.67988788912741
 30
0.0
 40
19.982
  1
φ350
 50
90.0
 41
1.041145908602337
 72
     1
 11
-21.19901709875921
 21
0.0001121108725783
 31
0.0
100
AcDbText
  0
LINE
  5
30E
330
309
100
AcDbEntity
  8
寸法
  6
Continuous
100
AcDbLine
 10
44.80098290124079
 20
-174.9998878891274
 30
0.0
 11
-11.19901709875921
 21
-174.9998878891274
 31
0.0
  0
LINE
  5
30F
330
309
100
AcDbEntity
  8
寸法
  6
Continuous
100
AcDbLine
 10
44.80098290124079
 20
175.0001121108726
 30
0.0
 11
-11.19901709875921
 21
175.0001121108726
 31
0.0
  0
LINE
  5
310
330
309
100
AcDbEntity
  8
寸法
  6
Continuous
100
AcDbLine
 10
-11.19901709875921
 20
175.0001121108726
 30
0.0
 11
-11.19901709875921
 21
-174.9998878891274
 31
0.0
  0
LWPOLYLINE
  5
311
330
309
100
AcDbEntity
  8
寸法
  6
Continuous
100
AcDbPolyline
 90
        3
 70
     0
 43
0.0
 10
-13.78720754978531
 20
165.3408538479816
 10
-11.19901709875921
 20
175.0001121108726
 10
-8.61082664773312
 20
165.3408538479816
  0
LWPOLYLINE
  5
312
330
309
100
AcDbEntity
  8
寸法
  6
Continuous
100
AcDbPolyline
 90
        3
 70
     0
 43
0.0
 10
-8.61082664773312
 20
-165.3406296262365
 10
-11.19901709875921
 20
-174.9998878891274
 10
-13.78720754978531
 20
-165.3406296262365
  0
ENDBLK
  5
30B
330
309
100
AcDbEntity
  8
0
100
AcDbBlockEnd
  0
BLOCK
  5
321
330
320
100
AcDbEntity
  8
0
100
AcDbBlockBegin
  2
INS-D5ABQ
 70
     0
 10
0.0
 20
0.0
 30
0.0
  3
INS-D5ABQ
  1

  0
TEXT
  5
324
330
320
100
AcDbEntity
  8
寸法
  6
Continuous
100
AcDbText
 10
-18.53901709876212
 20
30.05011211087185
 30
0.0
 40
19.982
  1
30
 41
1.089505144794249
 72
     1
 11
0.0009829012378759
 21
30.05011211087185
 31
0.0
100
AcDbText
  0
LINE
  5
325
330
320
100
AcDbEntity
  8
寸法
  6
Continuous
100
AcDbLine
 10
15.00098290123788
 20
-53.64988788912888
 30
0.0
 11
15.00098290123788
 21
20.35011211087112
 31
0.0
  0
LINE
  5
326
330
320
100
AcDbEntity
  8
寸法
  6
Continuous
100
AcDbLine
 10
-14.99901709876212
 20
-27.64988788912888
 30
0.0
 11
-14.99901709876212
 21
20.35011211087112
 31
0.0
  0
LINE
  5
327
330
320
100
AcDbEntity
  8
寸法
  6
Continuous
100
AcDbLine
 10
-14.99901709876212
 20
20.35011211087112
 30
0.0
 11
15.00098290123788
 21
20.35011211087112
 31
0.0
  0
LWPOLYLINE
  5
328
330
320
100
AcDbEntity
  8
寸法
  6
Continuous
100
AcDbPolyline
 90
        3
 70
     0
 43
0.0
 10
-5.33975883587118
 20
17.76192165984685
 10
-14.99901709876212
 20
20.35011211087112
 10
-5.33975883587118
 20
22.9383025618954
  0
LWPOLYLINE
  5
329
330
320
100
AcDbEntity
  8
寸法
  6
Continuous
100
AcDbPolyline
 90
        3
 70
     0
 43
0.0
 10
5.341724638346932
 20
22.9383025618954
 10
15.00098290123788
 20
20.35011211087112
 10
5.341724638346932
 20
17.76192165984685
  0
ENDBLK
  5
322
330
320
100
AcDbEntity
  8
0
100
AcDbBlockEnd
  0
BLOCK
  5
32B
330
32A
100
AcDbEntity
  8
0
100
AcDbBlockBegin
  2
INS-D4P7Z
 70
     0
 10
0.0
 20
0.0
 30
0.0
  3
INS-D4P7Z
  1

  0
TEXT
  5
32E
330
32A
100
AcDbEntity
  8
寸法
  6
Continuous
100
AcDbText
 10
-18.5390170987603
 20
30.05011211087185
 30
0.0
 40
19.982
  1
60
 41
1.089505144794249
 72
     1
 11
0.0009829012396949
 21
30.05011211087185
 31
0.0
100
AcDbText
  0
LINE
  5
32F
330
32A
100
AcDbEntity
  8
寸法
  6
Continuous
100
AcDbLine
 10
30.00098290123969
 20
-53.64988788912888
 30
0.0
 11
30.00098290123969
 21
20.35011211087112
 31
0.0
  0
LINE
  5
330
330
32A
100
AcDbEntity
  8
寸法
  6
Continuous
100
AcDbLine
 10
-29.99901709876031
 20
-53.64988788912888
 30
0.0
 11
-29.99901709876031
 21
20.35011211087112
 31
0.0
  0
LINE
  5
331
330
32A
100
AcDbEntity
  8
寸法
  6
Continuous
100
AcDbLine
 10
-29.99901709876031
 20
20.35011211087112
 30
0.0
 11
30.00098290123969
 21
20.35011211087112
 31
0.0
  0
LWPOLYLINE
  5
332
330
32A
100
AcDbEntity
  8
寸法
  6
Continuous
100
AcDbPolyline
 90
        3
 70
     0
 43
0.0
 10
-20.33975883586936
 20
17.76192165984685
 10
-29.99901709876031
 20
20.35011211087112
 10
-20.33975883586936
 20
22.9383025618954
  0
LWPOLYLINE
  5
333
330
32A
100
AcDbEntity
  8
寸法
  6
Continuous
100
AcDbPolyline
 90
        3
 70
     0
 43
0.0
 10
20.34172463834875
 20
22.9383025618954
 10
30.00098290123969
 20
20.35011211087112
 10
20.34172463834875
 20
17.76192165984685
  0
ENDBLK
  5
32C
330
32A
100
AcDbEntity
  8
0
100
AcDbBlockEnd
  0
BLOCK
  5
33F
330
33E
100
AcDbEntity
  8
0
100
AcDbBlockBegin
  2
INS-D5QZ8
 70
     0
 10
0.0
 20
0.0
 30
0.0
  3
INS-D5QZ8
  1

  0
TEXT
  5
342
330
33E
100
AcDbEntity
  8
寸法
  6
Continuous
100
AcDbText
 10
23.70648290123972
 20
-42.41988788912743
 30
0.0
 40
19.982
  1
φ323
 50
90.0
 41
1.041145908602337
 72
     1
 11
23.70648290123972
 21
0.0001121108725641
 31
0.0
100
AcDbText
  0
LINE
  5
343
330
33E
100
AcDbEntity
  8
寸法
  6
Continuous
100
AcDbLine
 10
-39.29351709876028
 20
-161.4998878891274
 30
0.0
 11
33.70648290123972
 21
-161.4998878891274
 31
0.0
  0
LINE
  5
344
330
33E
100
AcDbEntity
  8
寸法
  6
Continuous
100
AcDbLine
 10
-39.29351709876028
 20
161.5001121108726
 30
0.0
 11
33.70648290123972
 21
161.5001121108726
 31
0.0
  0
LINE
  5
345
330
33E
100
AcDbEntity
  8
寸法
  6
Continuous
100
AcDbLine
 10
33.70648290123972
 20
161.5001121108726
 30
0.0
 11
33.70648290123972
 21
-161.4998878891274
 31
0.0
  0
LWPOLYLINE
  5
346
330
33E
100
AcDbEntity
  8
寸法
  6
Continuous
100
AcDbPolyline
 90
        3
 70
     0
 43
0.0
 10
31.11829245021363
 20
151.8408538479816
 10
33.70648290123972
 20
161.5001121108726
 10
36.29467335226582
 20
151.8408538479816
  0
LWPOLYLINE
  5
347
330
33E
100
AcDbEntity
  8
寸法
  6
Continuous
100
AcDbPolyline
 90
        3
 70
     0
 43
0.0
 10
36.29467335226582
 20
-151.8406296262365
 10
33.70648290123972
 20
-161.4998878891274
 10
31.11829245021363
 20
-151.8406296262365
  0
ENDBLK
  5
340
330
33E
100
AcDbEntity
  8
0
100
AcDbBlockEnd
  0
BLOCK
  5
349
330
348
100
AcDbEntity
  8
0
100
AcDbBlockBegin
  2
INS-D7YC8
 70
     0
 10
0.0
 20
0.0
 30
0.0
  3
INS-D7YC8
  1

  0
TEXT
  5
34C
330
348
100
AcDbEntity
  8
寸法
  6
Continuous
100
AcDbText
 10
-21.19901709875921
 20
-42.41988788912742
 30
0.0
 40
19.982
  1
φ375
 50
90.0
 41
1.041145908602337
 72
     1
 11
-21.19901709875921
 21
0.0001121108725783
 31
0.0
100
AcDbText
  0
LINE
  5
34D
330
348
100
AcDbEntity
  8
寸法
  6
Continuous
100
AcDbLine
 10
44.80098290124079
 20
-187.4998878891274
 30
0.0
 11
-11.19901709875921
 21
-187.4998878891274
 31
0.0
  0
LINE
  5
34E
330
348
100
AcDbEntity
  8
寸法
  6
Continuous
100
AcDbLine
 10
44.80098290124079
 20
187.5001121108726
 30
0.0
 11
-11.19901709875921
 21
187.5001121108726
 31
0.0
  0
LINE
  5
34F
330
348
100
AcDbEntity
  8
寸法
  6
Continuous
100
AcDbLine
 10
-11.19901709875921
 20
187.5001121108726
 30
0.0
 11
-11.19901709875921
 21
-187.4998878891274
 31
0.0
  0
LWPOLYLINE
  5
350
330
348
100
AcDbEntity
  8
寸法
  6
Continuous
100
AcDbPolyline
 90
        3
 70
     0
 43
0.0
 10
-13.78720754978531
 20
177.8408538479816
 10
-11.19901709875921
 20
187.5001121108726
 10
-8.61082664773312
 20
177.8408538479816
  0
LWPOLYLINE
  5
351
330
348
100
AcDbEntity
  8
寸法
  6
Continuous
100
AcDbPolyline
 90
        3
 70
     0
 43
0.0
 10
-8.61082664773312
 20
-177.8406296262365
 10
-11.19901709875921
 20
-187.4998878891274
 10
-13.78720754978531
 20
-177.8406296262365
  0
ENDBLK
  5
34A
330
348
100
AcDbEntity
  8
0
100
AcDbBlockEnd
  0
BLOCK
  5
359
330
358
100
AcDbEntity
  8
0
100
AcDbBlockBegin
  2
INS-D5QUU
 70
     0
 10
0.0
 20
0.0
 30
0.0
  3
INS-D5QUU
  1

  0
TEXT
  5
35C
330
358
100
AcDbEntity
  8
寸法
  6
Continuous
100
AcDbText
 10
-18.53901709876212
 20
30.05011211087185
 30
0.0
 40
19.982
  1
30
 41
1.089505144794249
 72
     1
 11
0.0009829012378759
 21
30.05011211087185
 31
0.0
100
AcDbText
  0
LINE
  5
35D
330
358
100
AcDbEntity
  8
寸法
  6
Continuous
100
AcDbLine
 10
15.00098290123788
 20
-53.64988788912888
 30
0.0
 11
15.00098290123788
 21
20.35011211087112
 31
0.0
  0
LINE
  5
35E
330
358
100
AcDbEntity
  8
寸法
  6
Continuous
100
AcDbLine
 10
-14.99901709876212
 20
-27.64988788912888
 30
0.0
 11
-14.99901709876212
 21
20.35011211087112
 31
0.0
  0
LINE
  5
35F
330
358
100
AcDbEntity
  8
寸法
  6
Continuous
100
AcDbLine
 10
-14.99901709876212
 20
20.35011211087112
 30
0.0
 11
15.00098290123788
 21
20.35011211087112
 31
0.0
  0
LWPOLYLINE
  5
360
330
358
100
AcDbEntity
  8
寸法
  6
Continuous
100
AcDbPolyline
 90
        3
 70
     0
 43
0.0
 10
-5.33975883587118
 20
17.76192165984685
 10
-14.99901709876212
 20
20.35011211087112
 10
-5.33975883587118
 20
22.9383025618954
  0
LWPOLYLINE
  5
361
330
358
100
AcDbEntity
  8
寸法
  6
Continuous
100
AcDbPolyline
 90
        3
 70
     0
 43
0.0
 10
5.341724638346932
 20
22.9383025618954
 10
15.00098290123788
 20
20.35011211087112
 10
5.341724638346932
 20
17.76192165984685
  0
ENDBLK
  5
35A
330
358
100
AcDbEntity
  8
0
100
AcDbBlockEnd
  0
BLOCK
  5
363
330
362
100
AcDbEntity
  8
0
100
AcDbBlockBegin
  2
INS-D404J
 70
     0
 10
0.0
 20
0.0
 30
0.0
  3
INS-D404J
  1

  0
TEXT
  5
366
330
362
100
AcDbEntity
  8
寸法
  6
Continuous
100
AcDbText
 10
-18.5390170987603
 20
30.05011211087185
 30
0.0
 40
19.982
  1
60
 41
1.089505144794249
 72
     1
 11
0.0009829012396949
 21
30.05011211087185
 31
0.0
100
AcDbText
  0
LINE
  5
367
330
362
100
AcDbEntity
  8
寸法
  6
Continuous
100
AcDbLine
 10
30.00098290123969
 20
-53.64988788912888
 30
0.0
 11
30.00098290123969
 21
20.35011211087112
 31
0.0
  0
LINE
  5
368
330
362
100
AcDbEntity
  8
寸法
  6
Continuous
100
AcDbLine
 10
-29.99901709876031
 20
-53.64988788912888
 30
0.0
 11
-29.99901709876031
 21
20.35011211087112
 31
0.0
  0
LINE
  5
369
330
362
100
AcDbEntity
  8
寸法
  6
Continuous
100
AcDbLine
 10
-29.99901709876031
 20
20.35011211087112
 30
0.0
 11
30.00098290123969
 21
20.35011211087112
 31
0.0
  0
LWPOLYLINE
  5
36A
330
362
100
AcDbEntity
  8
寸法
  6
Continuous
100
AcDbPolyline
 90
        3
 70
     0
 43
0.0
 10
-20.33975883586936
 20
17.76192165984685
 10
-29.99901709876031
 20
20.35011211087112
 10
-20.33975883586936
 20
22.9383025618954
  0
LWPOLYLINE
  5
36B
330
362
100
AcDbEntity
  8
寸法
  6
Continuous
100
AcDbPolyline
 90
        3
 70
     0
 43
0.0
 10
20.34172463834875
 20
22.9383025618954
 10
30.00098290123969
 20
20.35011211087112
 10
20.34172463834875
 20
17.76192165984685
  0
ENDBLK
  5
364
330
362
100
AcDbEntity
  8
0
100
AcDbBlockEnd
  0
BLOCK
  5
37E
330
37D
100
AcDbEntity
  8
0
100
AcDbBlockBegin
  2
INS-D6GJL
 70
     0
 10
0.0
 20
0.0
 30
0.0
  3
INS-D6GJL
  1

  0
TEXT
  5
381
330
37D
100
AcDbEntity
  8
寸法
  6
Continuous
100
AcDbText
 10
23.70648290123972
 20
-42.41988788912743
 30
0.0
 40
19.982
  1
φ348
 50
90.0
 41
1.041145908602337
 72
     1
 11
23.70648290123972
 21
0.0001121108725641
 31
0.0
100
AcDbText
  0
LINE
  5
382
330
37D
100
AcDbEntity
  8
寸法
  6
Continuous
100
AcDbLine
 10
-39.29351709876028
 20
-173.9998878891274
 30
0.0
 11
33.70648290123972
 21
-173.9998878891274
 31
0.0
  0
LINE
  5
383
330
37D
100
AcDbEntity
  8
寸法
  6
Continuous
100
AcDbLine
 10
-39.29351709876028
 20
174.0001121108726
 30
0.0
 11
33.70648290123972
 21
174.0001121108726
 31
0.0
  0
LINE
  5
384
330
37D
100
AcDbEntity
  8
寸法
  6
Continuous
100
AcDbLine
 10
33.70648290123972
 20
174.0001121108726
 30
0.0
 11
33.70648290123972
 21
-173.9998878891274
 31
0.0
  0
LWPOLYLINE
  5
385
330
37D
100
AcDbEntity
  8
寸法
  6
Continuous
100
AcDbPolyline
 90
        3
 70
     0
 43
0.0
 10
31.11829245021363
 20
164.3408538479816
 10
33.70648290123972
 20
174.0001121108726
 10
36.29467335226582
 20
164.3408538479816
  0
LWPOLYLINE
  5
386
330
37D
100
AcDbEntity
  8
寸法
  6
Continuous
100
AcDbPolyline
 90
        3
 70
     0
 43
0.0
 10
36.29467335226582
 20
-164.3406296262365
 10
33.70648290123972
 20
-173.9998878891274
 10
31.11829245021363
 20
-164.3406296262365
  0
ENDBLK
  5
37F
330
37D
100
AcDbEntity
  8
0
100
AcDbBlockEnd
  0
BLOCK
  5
388
330
387
100
AcDbEntity
  8
0
100
AcDbBlockBegin
  2
INS-D6IK5
 70
     0
 10
0.0
 20
0.0
 30
0.0
  3
INS-D6IK5
  1

  0
TEXT
  5
38B
330
387
100
AcDbEntity
  8
寸法
  6
Continuous
100
AcDbText
 10
-21.19901709875921
 20
-38.93988788912742
 30
0.0
 40
19.982
  1
φ400
 50
90.0
 41
1.041145908602337
 72
     1
 11
-21.19901709875921
 21
0.0001121108725783
 31
0.0
100
AcDbText
  0
LINE
  5
38C
330
387
100
AcDbEntity
  8
寸法
  6
Continuous
100
AcDbLine
 10
44.80098290124079
 20
-199.9998878891274
 30
0.0
 11
-11.19901709875921
 21
-199.9998878891274
 31
0.0
  0
LINE
  5
38D
330
387
100
AcDbEntity
  8
寸法
  6
Continuous
100
AcDbLine
 10
44.80098290124079
 20
200.0001121108726
 30
0.0
 11
-11.19901709875921
 21
200.0001121108726
 31
0.0
  0
LINE
  5
38E
330
387
100
AcDbEntity
  8
寸法
  6
Continuous
100
AcDbLine
 10
-11.19901709875921
 20
200.0001121108726
 30
0.0
 11
-11.19901709875921
 21
-199.9998878891274
 31
0.0
  0
LWPOLYLINE
  5
38F
330
387
100
AcDbEntity
  8
寸法
  6
Continuous
100
AcDbPolyline
 90
        3
 70
     0
 43
0.0
 10
-13.78720754978531
 20
190.3408538479816
 10
-11.19901709875921
 20
200.0001121108726
 10
-8.61082664773312
 20
190.3408538479816
  0
LWPOLYLINE
  5
390
330
387
100
AcDbEntity
  8
寸法
  6
Continuous
100
AcDbPolyline
 90
        3
 70
     0
 43
0.0
 10
-8.61082664773312
 20
-190.3406296262365
 10
-11.19901709875921
 20
-199.9998878891274
 10
-13.78720754978531
 20
-190.3406296262365
  0
ENDBLK
  5
389
330
387
100
AcDbEntity
  8
0
100
AcDbBlockEnd
  0
BLOCK
  5
398
330
397
100
AcDbEntity
  8
0
100
AcDbBlockBegin
  2
INS-D8ITQ
 70
     0
 10
0.0
 20
0.0
 30
0.0
  3
INS-D8ITQ
  1

  0
TEXT
  5
39B
330
397
100
AcDbEntity
  8
寸法
  6
Continuous
100
AcDbText
 10
-18.53901709876212
 20
30.05011211087185
 30
0.0
 40
19.982
  1
30
 41
1.089505144794249
 72
     1
 11
0.0009829012378759
 21
30.05011211087185
 31
0.0
100
AcDbText
  0
LINE
  5
39C
330
397
100
AcDbEntity
  8
寸法
  6
Continuous
100
AcDbLine
 10
15.00098290123788
 20
-53.64988788912888
 30
0.0
 11
15.00098290123788
 21
20.35011211087112
 31
0.0
  0
LINE
  5
39D
330
397
100
AcDbEntity
  8
寸法
  6
Continuous
100
AcDbLine
 10
-14.99901709876212
 20
-27.64988788912888
 30
0.0
 11
-14.99901709876212
 21
20.35011211087112
 31
0.0
  0
LINE
  5
39E
330
397
100
AcDbEntity
  8
寸法
  6
Continuous
100
AcDbLine
 10
-14.99901709876212
 20
20.35011211087112
 30
0.0
 11
15.00098290123788
 21
20.35011211087112
 31
0.0
  0
LWPOLYLINE
  5
39F
330
397
100
AcDbEntity
  8
寸法
  6
Continuous
100
AcDbPolyline
 90
        3
 70
     0
 43
0.0
 10
-5.33975883587118
 20
17.76192165984685
 10
-14.99901709876212
 20
20.35011211087112
 10
-5.33975883587118
 20
22.9383025618954
  0
LWPOLYLINE
  5
3A0
330
397
100
AcDbEntity
  8
寸法
  6
Continuous
100
AcDbPolyline
 90
        3
 70
     0
 43
0.0
 10
5.341724638346932
 20
22.9383025618954
 10
15.00098290123788
 20
20.35011211087112
 10
5.341724638346932
 20
17.76192165984685
  0
ENDBLK
  5
399
330
397
100
AcDbEntity
  8
0
100
AcDbBlockEnd
  0
BLOCK
  5
3A2
330
3A1
100
AcDbEntity
  8
0
100
AcDbBlockBegin
  2
INS-DA1RF
 70
     0
 10
0.0
 20
0.0
 30
0.0
  3
INS-DA1RF
  1

  0
TEXT
  5
3A5
330
3A1
100
AcDbEntity
  8
寸法
  6
Continuous
100
AcDbText
 10
-18.5390170987603
 20
30.05011211087185
 30
0.0
 40
19.982
  1
60
 41
1.089505144794249
 72
     1
 11
0.0009829012396949
 21
30.05011211087185
 31
0.0
100
AcDbText
  0
LINE
  5
3A6
330
3A1
100
AcDbEntity
  8
寸法
  6
Continuous
100
AcDbLine
 10
30.00098290123969
 20
-53.64988788912888
 30
0.0
 11
30.00098290123969
 21
20.35011211087112
 31
0.0
  0
LINE
  5
3A7
330
3A1
100
AcDbEntity
  8
寸法
  6
Continuous
100
AcDbLine
 10
-29.99901709876031
 20
-53.64988788912888
 30
0.0
 11
-29.99901709876031
 21
20.35011211087112
 31
0.0
  0
LINE
  5
3A8
330
3A1
100
AcDbEntity
  8
寸法
  6
Continuous
100
AcDbLine
 10
-29.99901709876031
 20
20.35011211087112
 30
0.0
 11
30.00098290123969
 21
20.35011211087112
 31
0.0
  0
LWPOLYLINE
  5
3A9
330
3A1
100
AcDbEntity
  8
寸法
  6
Continuous
100
AcDbPolyline
 90
        3
 70
     0
 43
0.0
 10
-20.33975883586936
 20
17.76192165984685
 10
-29.99901709876031
 20
20.35011211087112
 10
-20.33975883586936
 20
22.9383025618954
  0
LWPOLYLINE
  5
3AA
330
3A1
100
AcDbEntity
  8
寸法
  6
Continuous
100
AcDbPolyline
 90
        3
 70
     0
 43
0.0
 10
20.34172463834875
 20
22.9383025618954
 10
30.00098290123969
 20
20.35011211087112
 10
20.34172463834875
 20
17.76192165984685
  0
ENDBLK
  5
3A3
330
3A1
100
AcDbEntity
  8
0
100
AcDbBlockEnd
  0
BLOCK
  5
3BD
330
3BC
100
AcDbEntity
  8
0
100
AcDbBlockBegin
  2
INS-D8XQA
 70
     0
 10
0.0
 20
0.0
 30
0.0
  3
INS-D8XQA
  1

  0
TEXT
  5
3C0
330
3BC
100
AcDbEntity
  8
寸法
  6
Continuous
100
AcDbText
 10
23.70648290123972
 20
-42.41988788912743
 30
0.0
 40
19.982
  1
φ373
 50
90.0
 41
1.041145908602337
 72
     1
 11
23.70648290123972
 21
0.0001121108725641
 31
0.0
100
AcDbText
  0
LINE
  5
3C1
330
3BC
100
AcDbEntity
  8
寸法
  6
Continuous
100
AcDbLine
 10
-39.29351709876028
 20
-186.4998878891274
 30
0.0
 11
33.70648290123972
 21
-186.4998878891274
 31
0.0
  0
LINE
  5
3C2
330
3BC
100
AcDbEntity
  8
寸法
  6
Continuous
100
AcDbLine
 10
-39.29351709876028
 20
186.5001121108726
 30
0.0
 11
33.70648290123972
 21
186.5001121108726
 31
0.0
  0
LINE
  5
3C3
330
3BC
100
AcDbEntity
  8
寸法
  6
Continuous
100
AcDbLine
 10
33.70648290123972
 20
186.5001121108726
 30
0.0
 11
33.70648290123972
 21
-186.4998878891274
 31
0.0
  0
LWPOLYLINE
  5
3C4
330
3BC
100
AcDbEntity
  8
寸法
  6
Continuous
100
AcDbPolyline
 90
        3
 70
     0
 43
0.0
 10
31.11829245021363
 20
176.8408538479816
 10
33.70648290123972
 20
186.5001121108726
 10
36.29467335226582
 20
176.8408538479816
  0
LWPOLYLINE
  5
3C5
330
3BC
100
AcDbEntity
  8
寸法
  6
Continuous
100
AcDbPolyline
 90
        3
 70
     0
 43
0.0
 10
36.29467335226582
 20
-176.8406296262365
 10
33.70648290123972
 20
-186.4998878891274
 10
31.11829245021363
 20
-176.8406296262365
  0
ENDBLK
  5
3BE
330
3BC
100
AcDbEntity
  8
0
100
AcDbBlockEnd
  0
BLOCK
  5
3C7
330
3C6
100
AcDbEntity
  8
0
100
AcDbBlockBegin
  2
INS-D60BS
 70
     0
 10
0.0
 20
0.0
 30
0.0
  3
INS-D60BS
  1

  0
TEXT
  5
3CA
330
3C6
100
AcDbEntity
  8
寸法
  6
Continuous
100
AcDbText
 10
-21.19901709875921
 20
-42.41988788912742
 30
0.0
 40
19.982
  1
φ425
 50
90.0
 41
1.041145908602337
 72
     1
 11
-21.19901709875921
 21
0.0001121108725783
 31
0.0
100
AcDbText
  0
LINE
  5
3CB
330
3C6
100
AcDbEntity
  8
寸法
  6
Continuous
100
AcDbLine
 10
44.80098290124079
 20
-212.4998878891274
 30
0.0
 11
-11.19901709875921
 21
-212.4998878891274
 31
0.0
  0
LINE
  5
3CC
330
3C6
100
AcDbEntity
  8
寸法
  6
Continuous
100
AcDbLine
 10
44.80098290124079
 20
212.5001121108726
 30
0.0
 11
-11.19901709875921
 21
212.5001121108726
 31
0.0
  0
LINE
  5
3CD
330
3C6
100
AcDbEntity
  8
寸法
  6
Continuous
100
AcDbLine
 10
-11.19901709875921
 20
212.5001121108726
 30
0.0
 11
-11.19901709875921
 21
-212.4998878891274
 31
0.0
  0
LWPOLYLINE
  5
3CE
330
3C6
100
AcDbEntity
  8
寸法
  6
Continuous
100
AcDbPolyline
 90
        3
 70
     0
 43
0.0
 10
-13.78720754978531
 20
202.8408538479816
 10
-11.19901709875921
 20
212.5001121108726
 10
-8.61082664773312
 20
202.8408538479816
  0
LWPOLYLINE
  5
3CF
330
3C6
100
AcDbEntity
  8
寸法
  6
Continuous
100
AcDbPolyline
 90
        3
 70
     0
 43
0.0
 10
-8.61082664773312
 20
-202.8406296262365
 10
-11.19901709875921
 20
-212.4998878891274
 10
-13.78720754978531
 20
-202.8406296262365
  0
ENDBLK
  5
3C8
330
3C6
100
AcDbEntity
  8
0
100
AcDbBlockEnd
  0
BLOCK
  5
3D7
330
3D6
100
AcDbEntity
  8
0
100
AcDbBlockBegin
  2
INS-DR30T
 70
     0
 10
0.0
 20
0.0
 30
0.0
  3
INS-DR30T
  1

  0
TEXT
  5
3DA
330
3D6
100
AcDbEntity
  8
寸法
  6
Continuous
100
AcDbText
 10
-18.53901709876212
 20
30.05011211087185
 30
0.0
 40
19.982
  1
30
 41
1.089505144794249
 72
     1
 11
0.0009829012378759
 21
30.05011211087185
 31
0.0
100
AcDbText
  0
LINE
  5
3DB
330
3D6
100
AcDbEntity
  8
寸法
  6
Continuous
100
AcDbLine
 10
15.00098290123788
 20
-53.64988788912888
 30
0.0
 11
15.00098290123788
 21
20.35011211087112
 31
0.0
  0
LINE
  5
3DC
330
3D6
100
AcDbEntity
  8
寸法
  6
Continuous
100
AcDbLine
 10
-14.99901709876212
 20
-27.64988788912888
 30
0.0
 11
-14.99901709876212
 21
20.35011211087112
 31
0.0
  0
LINE
  5
3DD
330
3D6
100
AcDbEntity
  8
寸法
  6
Continuous
100
AcDbLine
 10
-14.99901709876212
 20
20.35011211087112
 30
0.0
 11
15.00098290123788
 21
20.35011211087112
 31
0.0
  0
LWPOLYLINE
  5
3DE
330
3D6
100
AcDbEntity
  8
寸法
  6
Continuous
100
AcDbPolyline
 90
        3
 70
     0
 43
0.0
 10
-5.33975883587118
 20
17.76192165984685
 10
-14.99901709876212
 20
20.35011211087112
 10
-5.33975883587118
 20
22.9383025618954
  0
LWPOLYLINE
  5
3DF
330
3D6
100
AcDbEntity
  8
寸法
  6
Continuous
100
AcDbPolyline
 90
        3
 70
     0
 43
0.0
 10
5.341724638346932
 20
22.9383025618954
 10
15.00098290123788
 20
20.35011211087112
 10
5.341724638346932
 20
17.76192165984685
  0
ENDBLK
  5
3D8
330
3D6
100
AcDbEntity
  8
0
100
AcDbBlockEnd
  0
BLOCK
  5
3E1
330
3E0
100
AcDbEntity
  8
0
100
AcDbBlockBegin
  2
INS-DIV8F
 70
     0
 10
0.0
 20
0.0
 30
0.0
  3
INS-DIV8F
  1

  0
TEXT
  5
3E4
330
3E0
100
AcDbEntity
  8
寸法
  6
Continuous
100
AcDbText
 10
-18.5390170987603
 20
30.05011211087185
 30
0.0
 40
19.982
  1
60
 41
1.089505144794249
 72
     1
 11
0.0009829012396949
 21
30.05011211087185
 31
0.0
100
AcDbText
  0
LINE
  5
3E5
330
3E0
100
AcDbEntity
  8
寸法
  6
Continuous
100
AcDbLine
 10
30.00098290123969
 20
-53.64988788912888
 30
0.0
 11
30.00098290123969
 21
20.35011211087112
 31
0.0
  0
LINE
  5
3E6
330
3E0
100
AcDbEntity
  8
寸法
  6
Continuous
100
AcDbLine
 10
-29.99901709876031
 20
-53.64988788912888
 30
0.0
 11
-29.99901709876031
 21
20.35011211087112
 31
0.0
  0
LINE
  5
3E7
330
3E0
100
AcDbEntity
  8
寸法
  6
Continuous
100
AcDbLine
 10
-29.99901709876031
 20
20.35011211087112
 30
0.0
 11
30.00098290123969
 21
20.35011211087112
 31
0.0
  0
LWPOLYLINE
  5
3E8
330
3E0
100
AcDbEntity
  8
寸法
  6
Continuous
100
AcDbPolyline
 90
        3
 70
     0
 43
0.0
 10
-20.33975883586936
 20
17.76192165984685
 10
-29.99901709876031
 20
20.35011211087112
 10
-20.33975883586936
 20
22.9383025618954
  0
LWPOLYLINE
  5
3E9
330
3E0
100
AcDbEntity
  8
寸法
  6
Continuous
100
AcDbPolyline
 90
        3
 70
     0
 43
0.0
 10
20.34172463834875
 20
22.9383025618954
 10
30.00098290123969
 20
20.35011211087112
 10
20.34172463834875
 20
17.76192165984685
  0
ENDBLK
  5
3E2
330
3E0
100
AcDbEntity
  8
0
100
AcDbBlockEnd
  0
BLOCK
  5
3FC
330
3FB
100
AcDbEntity
  8
0
100
AcDbBlockBegin
  2
INS-DAQT9
 70
     0
 10
0.0
 20
0.0
 30
0.0
  3
INS-DAQT9
  1

  0
TEXT
  5
3FF
330
3FB
100
AcDbEntity
  8
寸法
  6
Continuous
100
AcDbText
 10
23.70648290123972
 20
-42.41988788912743
 30
0.0
 40
19.982
  1
φ398
 50
90.0
 41
1.041145908602337
 72
     1
 11
23.70648290123972
 21
0.0001121108725641
 31
0.0
100
AcDbText
  0
LINE
  5
400
330
3FB
100
AcDbEntity
  8
寸法
  6
Continuous
100
AcDbLine
 10
-39.29351709876028
 20
-198.9998878891274
 30
0.0
 11
33.70648290123972
 21
-198.9998878891274
 31
0.0
  0
LINE
  5
401
330
3FB
100
AcDbEntity
  8
寸法
  6
Continuous
100
AcDbLine
 10
-39.29351709876028
 20
199.0001121108726
 30
0.0
 11
33.70648290123972
 21
199.0001121108726
 31
0.0
  0
LINE
  5
402
330
3FB
100
AcDbEntity
  8
寸法
  6
Continuous
100
AcDbLine
 10
33.70648290123972
 20
199.0001121108726
 30
0.0
 11
33.70648290123972
 21
-198.9998878891274
 31
0.0
  0
LWPOLYLINE
  5
403
330
3FB
100
AcDbEntity
  8
寸法
  6
Continuous
100
AcDbPolyline
 90
        3
 70
     0
 43
0.0
 10
31.11829245021363
 20
189.3408538479816
 10
33.70648290123972
 20
199.0001121108726
 10
36.29467335226582
 20
189.3408538479816
  0
LWPOLYLINE
  5
404
330
3FB
100
AcDbEntity
  8
寸法
  6
Continuous
100
AcDbPolyline
 90
        3
 70
     0
 43
0.0
 10
36.29467335226582
 20
-189.3406296262365
 10
33.70648290123972
 20
-198.9998878891274
 10
31.11829245021363
 20
-189.3406296262365
  0
ENDBLK
  5
3FD
330
3FB
100
AcDbEntity
  8
0
100
AcDbBlockEnd
  0
BLOCK
  5
406
330
405
100
AcDbEntity
  8
0
100
AcDbBlockBegin
  2
INS-D7A45
 70
     0
 10
0.0
 20
0.0
 30
0.0
  3
INS-D7A45
  1

  0
TEXT
  5
409
330
405
100
AcDbEntity
  8
寸法
  6
Continuous
100
AcDbText
 10
-21.19901709875921
 20
-40.67988788912741
 30
0.0
 40
19.982
  1
φ450
 50
90.0
 41
1.041145908602337
 72
     1
 11
-21.19901709875921
 21
0.0001121108725783
 31
0.0
100
AcDbText
  0
LINE
  5
40A
330
405
100
AcDbEntity
  8
寸法
  6
Continuous
100
AcDbLine
 10
44.80098290124079
 20
-224.9998878891274
 30
0.0
 11
-11.19901709875921
 21
-224.9998878891274
 31
0.0
  0
LINE
  5
40B
330
405
100
AcDbEntity
  8
寸法
  6
Continuous
100
AcDbLine
 10
44.80098290124079
 20
225.0001121108726
 30
0.0
 11
-11.19901709875921
 21
225.0001121108726
 31
0.0
  0
LINE
  5
40C
330
405
100
AcDbEntity
  8
寸法
  6
Continuous
100
AcDbLine
 10
-11.19901709875921
 20
225.0001121108726
 30
0.0
 11
-11.19901709875921
 21
-224.9998878891274
 31
0.0
  0
LWPOLYLINE
  5
40D
330
405
100
AcDbEntity
  8
寸法
  6
Continuous
100
AcDbPolyline
 90
        3
 70
     0
 43
0.0
 10
-13.78720754978531
 20
215.3408538479816
 10
-11.19901709875921
 20
225.0001121108726
 10
-8.61082664773312
 20
215.3408538479816
  0
LWPOLYLINE
  5
40E
330
405
100
AcDbEntity
  8
寸法
  6
Continuous
100
AcDbPolyline
 90
        3
 70
     0
 43
0.0
 10
-8.61082664773312
 20
-215.3406296262365
 10
-11.19901709875921
 20
-224.9998878891274
 10
-13.78720754978531
 20
-215.3406296262365
  0
ENDBLK
  5
407
330
405
100
AcDbEntity
  8
0
100
AcDbBlockEnd
  0
BLOCK
  5
416
330
415
100
AcDbEntity
  8
0
100
AcDbBlockBegin
  2
INS-DSWRF
 70
     0
 10
0.0
 20
0.0
 30
0.0
  3
INS-DSWRF
  1

  0
TEXT
  5
419
330
415
100
AcDbEntity
  8
寸法
  6
Continuous
100
AcDbText
 10
-18.53901709876212
 20
30.05011211087185
 30
0.0
 40
19.982
  1
30
 41
1.089505144794249
 72
     1
 11
0.0009829012378759
 21
30.05011211087185
 31
0.0
100
AcDbText
  0
LINE
  5
41A
330
415
100
AcDbEntity
  8
寸法
  6
Continuous
100
AcDbLine
 10
15.00098290123788
 20
-53.64988788912888
 30
0.0
 11
15.00098290123788
 21
20.35011211087112
 31
0.0
  0
LINE
  5
41B
330
415
100
AcDbEntity
  8
寸法
  6
Continuous
100
AcDbLine
 10
-14.99901709876212
 20
-27.64988788912888
 30
0.0
 11
-14.99901709876212
 21
20.35011211087112
 31
0.0
  0
LINE
  5
41C
330
415
100
AcDbEntity
  8
寸法
  6
Continuous
100
AcDbLine
 10
-14.99901709876212
 20
20.35011211087112
 30
0.0
 11
15.00098290123788
 21
20.35011211087112
 31
0.0
  0
LWPOLYLINE
  5
41D
330
415
100
AcDbEntity
  8
寸法
  6
Continuous
100
AcDbPolyline
 90
        3
 70
     0
 43
0.0
 10
-5.33975883587118
 20
17.76192165984685
 10
-14.99901709876212
 20
20.35011211087112
 10
-5.33975883587118
 20
22.9383025618954
  0
LWPOLYLINE
  5
41E
330
415
100
AcDbEntity
  8
寸法
  6
Continuous
100
AcDbPolyline
 90
        3
 70
     0
 43
0.0
 10
5.341724638346932
 20
22.9383025618954
 10
15.00098290123788
 20
20.35011211087112
 10
5.341724638346932
 20
17.76192165984685
  0
ENDBLK
  5
417
330
415
100
AcDbEntity
  8
0
100
AcDbBlockEnd
  0
BLOCK
  5
420
330
41F
100
AcDbEntity
  8
0
100
AcDbBlockBegin
  2
INS-D908L
 70
     0
 10
0.0
 20
0.0
 30
0.0
  3
INS-D908L
  1

  0
TEXT
  5
423
330
41F
100
AcDbEntity
  8
寸法
  6
Continuous
100
AcDbText
 10
-18.5390170987603
 20
30.05011211087185
 30
0.0
 40
19.982
  1
60
 41
1.089505144794249
 72
     1
 11
0.0009829012396949
 21
30.05011211087185
 31
0.0
100
AcDbText
  0
LINE
  5
424
330
41F
100
AcDbEntity
  8
寸法
  6
Continuous
100
AcDbLine
 10
30.00098290123969
 20
-53.64988788912888
 30
0.0
 11
30.00098290123969
 21
20.35011211087112
 31
0.0
  0
LINE
  5
425
330
41F
100
AcDbEntity
  8
寸法
  6
Continuous
100
AcDbLine
 10
-29.99901709876031
 20
-53.64988788912888
 30
0.0
 11
-29.99901709876031
 21
20.35011211087112
 31
0.0
  0
LINE
  5
426
330
41F
100
AcDbEntity
  8
寸法
  6
Continuous
100
AcDbLine
 10
-29.99901709876031
 20
20.35011211087112
 30
0.0
 11
30.00098290123969
 21
20.35011211087112
 31
0.0
  0
LWPOLYLINE
  5
427
330
41F
100
AcDbEntity
  8
寸法
  6
Continuous
100
AcDbPolyline
 90
        3
 70
     0
 43
0.0
 10
-20.33975883586936
 20
17.76192165984685
 10
-29.99901709876031
 20
20.35011211087112
 10
-20.33975883586936
 20
22.9383025618954
  0
LWPOLYLINE
  5
428
330
41F
100
AcDbEntity
  8
寸法
  6
Continuous
100
AcDbPolyline
 90
        3
 70
     0
 43
0.0
 10
20.34172463834875
 20
22.9383025618954
 10
30.00098290123969
 20
20.35011211087112
 10
20.34172463834875
 20
17.76192165984685
  0
ENDBLK
  5
421
330
41F
100
AcDbEntity
  8
0
100
AcDbBlockEnd
  0
BLOCK
  5
43C
330
43B
100
AcDbEntity
  8
0
100
AcDbBlockBegin
  2
INS-D41SA
 70
     0
 10
0.0
 20
0.0
 30
0.0
  3
INS-D41SA
  1

  0
TEXT
  5
43F
330
43B
100
AcDbEntity
  8
寸法
  6
Continuous
100
AcDbText
 10
23.70648290123972
 20
-42.42000000000365
 30
0.0
 40
19.982
  1
φ448
 50
90.0
 41
1.041145908602337
 72
     1
 11
23.70648290123972
 21
-0.0000000000036522
 31
0.0
100
AcDbText
  0
LINE
  5
440
330
43B
100
AcDbEntity
  8
寸法
  6
Continuous
100
AcDbLine
 10
-39.29351709876028
 20
-224.0000000000036
 30
0.0
 11
33.70648290123972
 21
-224.0000000000036
 31
0.0
  0
LINE
  5
441
330
43B
100
AcDbEntity
  8
寸法
  6
Continuous
100
AcDbLine
 10
-39.29351709876028
 20
223.9999999999964
 30
0.0
 11
33.70648290123972
 21
223.9999999999964
 31
0.0
  0
LINE
  5
442
330
43B
100
AcDbEntity
  8
寸法
  6
Continuous
100
AcDbLine
 10
33.70648290123972
 20
223.9999999999964
 30
0.0
 11
33.70648290123972
 21
-224.0000000000036
 31
0.0
  0
LWPOLYLINE
  5
443
330
43B
100
AcDbEntity
  8
寸法
  6
Continuous
100
AcDbPolyline
 90
        3
 70
     0
 43
0.0
 10
31.11829245021363
 20
214.3407417371054
 10
33.70648290123972
 20
223.9999999999964
 10
36.29467335226582
 20
214.3407417371054
  0
LWPOLYLINE
  5
444
330
43B
100
AcDbEntity
  8
寸法
  6
Continuous
100
AcDbPolyline
 90
        3
 70
     0
 43
0.0
 10
36.29467335226582
 20
-214.3407417371127
 10
33.70648290123972
 20
-224.0000000000036
 10
31.11829245021363
 20
-214.3407417371127
  0
ENDBLK
  5
43D
330
43B
100
AcDbEntity
  8
0
100
AcDbBlockEnd
  0
BLOCK
  5
446
330
445
100
AcDbEntity
  8
0
100
AcDbBlockBegin
  2
INS-D50XB
 70
     0
 10
0.0
 20
0.0
 30
0.0
  3
INS-D50XB
  1

  0
TEXT
  5
449
330
445
100
AcDbEntity
  8
寸法
  6
Continuous
100
AcDbText
 10
-21.19901709875921
 20
-42.42000000000363
 30
0.0
 40
19.982
  1
φ466
 50
90.0
 41
1.041145908602337
 72
     1
 11
-21.19901709875921
 21
-0.000000000003638
 31
0.0
100
AcDbText
  0
LINE
  5
44A
330
445
100
AcDbEntity
  8
寸法
  6
Continuous
100
AcDbLine
 10
44.80098290124079
 20
-233.0000000000036
 30
0.0
 11
-11.19901709875921
 21
-233.0000000000036
 31
0.0
  0
LINE
  5
44B
330
445
100
AcDbEntity
  8
寸法
  6
Continuous
100
AcDbLine
 10
44.80098290124079
 20
232.9999999999964
 30
0.0
 11
-11.19901709875921
 21
232.9999999999964
 31
0.0
  0
LINE
  5
44C
330
445
100
AcDbEntity
  8
寸法
  6
Continuous
100
AcDbLine
 10
-11.19901709875921
 20
232.9999999999964
 30
0.0
 11
-11.19901709875921
 21
-233.0000000000036
 31
0.0
  0
LWPOLYLINE
  5
44D
330
445
100
AcDbEntity
  8
寸法
  6
Continuous
100
AcDbPolyline
 90
        3
 70
     0
 43
0.0
 10
-13.78720754978531
 20
223.3407417371054
 10
-11.19901709875921
 20
232.9999999999964
 10
-8.61082664773312
 20
223.3407417371054
  0
LWPOLYLINE
  5
44E
330
445
100
AcDbEntity
  8
寸法
  6
Continuous
100
AcDbPolyline
 90
        3
 70
     0
 43
0.0
 10
-8.61082664773312
 20
-223.3407417371127
 10
-11.19901709875921
 20
-233.0000000000036
 10
-13.78720754978531
 20
-223.3407417371127
  0
ENDBLK
  5
447
330
445
100
AcDbEntity
  8
0
100
AcDbBlockEnd
  0
BLOCK
  5
451
330
450
100
AcDbEntity
  8
0
100
AcDbBlockBegin
  2
INS-D6FZA
 70
     0
 10
0.0
 20
0.0
 30
0.0
  3
INS-D6FZA
  1

  0
TEXT
  5
454
330
450
100
AcDbEntity
  8
寸法
  6
Continuous
100
AcDbText
 10
-18.53901709876212
 20
29.79999999999563
 30
0.0
 40
19.982
  1
30
 41
1.089505144794249
 72
     1
 11
0.0009829012378759
 21
29.79999999999563
 31
0.0
100
AcDbText
  0
LINE
  5
455
330
450
100
AcDbEntity
  8
寸法
  6
Continuous
100
AcDbLine
 10
15.00098290123788
 20
-53.40000000000509
 30
0.0
 11
15.00098290123788
 21
20.09999999999491
 31
0.0
  0
LINE
  5
456
330
450
100
AcDbEntity
  8
寸法
  6
Continuous
100
AcDbLine
 10
-14.99901709876212
 20
-45.40000000000509
 30
0.0
 11
-14.99901709876212
 21
20.09999999999491
 31
0.0
  0
LINE
  5
457
330
450
100
AcDbEntity
  8
寸法
  6
Continuous
100
AcDbLine
 10
-14.99901709876212
 20
20.09999999999491
 30
0.0
 11
15.00098290123788
 21
20.09999999999491
 31
0.0
  0
LWPOLYLINE
  5
458
330
450
100
AcDbEntity
  8
寸法
  6
Continuous
100
AcDbPolyline
 90
        3
 70
     0
 43
0.0
 10
-5.33975883587118
 20
17.51180954897063
 10
-14.99901709876212
 20
20.09999999999491
 10
-5.33975883587118
 20
22.68819045101918
  0
LWPOLYLINE
  5
459
330
450
100
AcDbEntity
  8
寸法
  6
Continuous
100
AcDbPolyline
 90
        3
 70
     0
 43
0.0
 10
5.341724638346932
 20
22.68819045101918
 10
15.00098290123788
 20
20.09999999999491
 10
5.341724638346932
 20
17.51180954897063
  0
ENDBLK
  5
452
330
450
100
AcDbEntity
  8
0
100
AcDbBlockEnd
  0
BLOCK
  5
45B
330
45A
100
AcDbEntity
  8
0
100
AcDbBlockBegin
  2
INS-D7WEX
 70
     0
 10
0.0
 20
0.0
 30
0.0
  3
INS-D7WEX
  1

  0
TEXT
  5
45E
330
45A
100
AcDbEntity
  8
寸法
  6
Continuous
100
AcDbText
 10
-23.5790170987603
 20
30.29999999999563
 30
0.0
 40
19.982
  1
100
 41
1.056781492035411
 72
     1
 11
0.0009829012396949
 21
30.29999999999563
 31
0.0
100
AcDbText
  0
LINE
  5
45F
330
45A
100
AcDbEntity
  8
寸法
  6
Continuous
100
AcDbLine
 10
50.00098290123969
 20
-53.90000000000509
 30
0.0
 11
50.00098290123969
 21
20.59999999999491
 31
0.0
  0
LINE
  5
460
330
45A
100
AcDbEntity
  8
寸法
  6
Continuous
100
AcDbLine
 10
-49.99901709876031
 20
-52.90000000000509
 30
0.0
 11
-49.99901709876031
 21
20.59999999999491
 31
0.0
  0
LINE
  5
461
330
45A
100
AcDbEntity
  8
寸法
  6
Continuous
100
AcDbLine
 10
-49.99901709876031
 20
20.59999999999491
 30
0.0
 11
50.00098290123969
 21
20.59999999999491
 31
0.0
  0
LWPOLYLINE
  5
462
330
45A
100
AcDbEntity
  8
寸法
  6
Continuous
100
AcDbPolyline
 90
        3
 70
     0
 43
0.0
 10
-40.33975883586936
 20
18.01180954897063
 10
-49.99901709876031
 20
20.59999999999491
 10
-40.33975883586936
 20
23.18819045101918
  0
LWPOLYLINE
  5
463
330
45A
100
AcDbEntity
  8
寸法
  6
Continuous
100
AcDbPolyline
 90
        3
 70
     0
 43
0.0
 10
40.34172463834875
 20
23.18819045101918
 10
50.00098290123969
 20
20.59999999999491
 10
40.34172463834875
 20
18.01180954897063
  0
ENDBLK
  5
45C
330
45A
100
AcDbEntity
  8
0
100
AcDbBlockEnd
  0
BLOCK
  5
47F
330
47E
100
AcDbEntity
  8
0
100
AcDbBlockBegin
  2
INS-DSKYL
 70
     0
 10
0.0
 20
0.0
 30
0.0
  3
INS-DSKYL
  1

  0
TEXT
  5
482
330
47E
100
AcDbEntity
  8
寸法
  6
Continuous
100
AcDbText
 10
23.70648290123972
 20
-42.42000000000001
 30
0.0
 40
19.982
  1
φ498
 50
90.0
 41
1.041145908602337
 72
     1
 11
23.70648290123972
 21
-0.0000000000000142
 31
0.0
100
AcDbText
  0
LINE
  5
483
330
47E
100
AcDbEntity
  8
寸法
  6
Continuous
100
AcDbLine
 10
-39.29351709876028
 20
-249.0
 30
0.0
 11
33.70648290123972
 21
-249.0
 31
0.0
  0
LINE
  5
484
330
47E
100
AcDbEntity
  8
寸法
  6
Continuous
100
AcDbLine
 10
-39.29351709876028
 20
249.0
 30
0.0
 11
33.70648290123972
 21
249.0
 31
0.0
  0
LINE
  5
485
330
47E
100
AcDbEntity
  8
寸法
  6
Continuous
100
AcDbLine
 10
33.70648290123972
 20
249.0
 30
0.0
 11
33.70648290123972
 21
-249.0
 31
0.0
  0
LWPOLYLINE
  5
486
330
47E
100
AcDbEntity
  8
寸法
  6
Continuous
100
AcDbPolyline
 90
        3
 70
     0
 43
0.0
 10
31.11829245021363
 20
239.3407417371127
 10
33.70648290123972
 20
249.0
 10
36.29467335226582
 20
239.3407417371127
  0
LWPOLYLINE
  5
487
330
47E
100
AcDbEntity
  8
寸法
  6
Continuous
100
AcDbPolyline
 90
        3
 70
     0
 43
0.0
 10
36.29467335226582
 20
-239.3407417371127
 10
33.70648290123972
 20
-249.0
 10
31.11829245021363
 20
-239.3407417371127
  0
ENDBLK
  5
480
330
47E
100
AcDbEntity
  8
0
100
AcDbBlockEnd
  0
BLOCK
  5
489
330
488
100
AcDbEntity
  8
0
100
AcDbBlockBegin
  2
INS-D69H4
 70
     0
 10
0.0
 20
0.0
 30
0.0
  3
INS-D69H4
  1

  0
TEXT
  5
48C
330
488
100
AcDbEntity
  8
寸法
  6
Continuous
100
AcDbText
 10
-21.19901709875921
 20
-39.06
 30
0.0
 40
19.982
  1
φ516
 50
90.0
 41
1.041145908602337
 72
     1
 11
-21.19901709875921
 21
0.0
 31
0.0
100
AcDbText
  0
LINE
  5
48D
330
488
100
AcDbEntity
  8
寸法
  6
Continuous
100
AcDbLine
 10
44.80098290124079
 20
-258.0
 30
0.0
 11
-11.19901709875921
 21
-258.0
 31
0.0
  0
LINE
  5
48E
330
488
100
AcDbEntity
  8
寸法
  6
Continuous
100
AcDbLine
 10
44.80098290124079
 20
258.0
 30
0.0
 11
-11.19901709875921
 21
258.0
 31
0.0
  0
LINE
  5
48F
330
488
100
AcDbEntity
  8
寸法
  6
Continuous
100
AcDbLine
 10
-11.19901709875921
 20
258.0
 30
0.0
 11
-11.19901709875921
 21
-258.0
 31
0.0
  0
LWPOLYLINE
  5
490
330
488
100
AcDbEntity
  8
寸法
  6
Continuous
100
AcDbPolyline
 90
        3
 70
     0
 43
0.0
 10
-13.78720754978531
 20
248.3407417371127
 10
-11.19901709875921
 20
258.0
 10
-8.61082664773312
 20
248.3407417371127
  0
LWPOLYLINE
  5
491
330
488
100
AcDbEntity
  8
寸法
  6
Continuous
100
AcDbPolyline
 90
        3
 70
     0
 43
0.0
 10
-8.61082664773312
 20
-248.3407417371127
 10
-11.19901709875921
 20
-258.0
 10
-13.78720754978531
 20
-248.3407417371127
  0
ENDBLK
  5
48A
330
488
100
AcDbEntity
  8
0
100
AcDbBlockEnd
  0
BLOCK
  5
494
330
493
100
AcDbEntity
  8
0
100
AcDbBlockBegin
  2
INS-D5FYZ
 70
     0
 10
0.0
 20
0.0
 30
0.0
  3
INS-D5FYZ
  1

  0
TEXT
  5
497
330
493
100
AcDbEntity
  8
寸法
  6
Continuous
100
AcDbText
 10
-18.53901709876212
 20
23.54999999999563
 30
0.0
 40
19.982
  1
30
 41
1.089505144794249
 72
     1
 11
0.0009829012378759
 21
23.54999999999563
 31
0.0
100
AcDbText
  0
LINE
  5
498
330
493
100
AcDbEntity
  8
寸法
  6
Continuous
100
AcDbLine
 10
15.00098290123788
 20
-47.15000000000146
 30
0.0
 11
15.00098290123788
 21
13.84999999999854
 31
0.0
  0
LINE
  5
499
330
493
100
AcDbEntity
  8
寸法
  6
Continuous
100
AcDbLine
 10
-14.99901709876212
 20
-39.15000000000146
 30
0.0
 11
-14.99901709876212
 21
13.84999999999854
 31
0.0
  0
LINE
  5
49A
330
493
100
AcDbEntity
  8
寸法
  6
Continuous
100
AcDbLine
 10
-14.99901709876212
 20
13.84999999999854
 30
0.0
 11
15.00098290123788
 21
13.84999999999854
 31
0.0
  0
LWPOLYLINE
  5
49B
330
493
100
AcDbEntity
  8
寸法
  6
Continuous
100
AcDbPolyline
 90
        3
 70
     0
 43
0.0
 10
-5.33975883587118
 20
11.26180954897427
 10
-14.99901709876212
 20
13.84999999999854
 10
-5.33975883587118
 20
16.43819045102282
  0
LWPOLYLINE
  5
49C
330
493
100
AcDbEntity
  8
寸法
  6
Continuous
100
AcDbPolyline
 90
        3
 70
     0
 43
0.0
 10
5.341724638346932
 20
16.43819045102282
 10
15.00098290123788
 20
13.84999999999854
 10
5.341724638346932
 20
11.26180954897427
  0
ENDBLK
  5
495
330
493
100
AcDbEntity
  8
0
100
AcDbBlockEnd
  0
BLOCK
  5
49E
330
49D
100
AcDbEntity
  8
0
100
AcDbBlockBegin
  2
INS-D6NFV
 70
     0
 10
0.0
 20
0.0
 30
0.0
  3
INS-D6NFV
  1

  0
TEXT
  5
4A1
330
49D
100
AcDbEntity
  8
寸法
  6
Continuous
100
AcDbText
 10
-23.5790170987603
 20
24.04999999999563
 30
0.0
 40
19.982
  1
100
 41
1.056781492035411
 72
     1
 11
0.0009829012396949
 21
24.04999999999563
 31
0.0
100
AcDbText
  0
LINE
  5
4A2
330
49D
100
AcDbEntity
  8
寸法
  6
Continuous
100
AcDbLine
 10
50.00098290123969
 20
-47.65000000000146
 30
0.0
 11
50.00098290123969
 21
14.34999999999854
 31
0.0
  0
LINE
  5
4A3
330
49D
100
AcDbEntity
  8
寸法
  6
Continuous
100
AcDbLine
 10
-49.99901709876031
 20
-46.65000000000146
 30
0.0
 11
-49.99901709876031
 21
14.34999999999854
 31
0.0
  0
LINE
  5
4A4
330
49D
100
AcDbEntity
  8
寸法
  6
Continuous
100
AcDbLine
 10
-49.99901709876031
 20
14.34999999999854
 30
0.0
 11
50.00098290123969
 21
14.34999999999854
 31
0.0
  0
LWPOLYLINE
  5
4A5
330
49D
100
AcDbEntity
  8
寸法
  6
Continuous
100
AcDbPolyline
 90
        3
 70
     0
 43
0.0
 10
-40.33975883586936
 20
11.76180954897427
 10
-49.99901709876031
 20
14.34999999999854
 10
-40.33975883586936
 20
16.93819045102282
  0
LWPOLYLINE
  5
4A6
330
49D
100
AcDbEntity
  8
寸法
  6
Continuous
100
AcDbPolyline
 90
        3
 70
     0
 43
0.0
 10
40.34172463834875
 20
16.93819045102282
 10
50.00098290123969
 20
14.34999999999854
 10
40.34172463834875
 20
11.76180954897427
  0
ENDBLK
  5
49F
330
49D
100
AcDbEntity
  8
0
100
AcDbBlockEnd
  0
ENDSEC
  0
SECTION
  2
ENTITIES
  0
TEXT
  5
B9
330
1F
100
AcDbEntity
  8
03-文字-2
100
AcDbText
 10
-8960.667017098698
 20
-18799.9100000001
 30
0.0
 40
199.82
  1
Tカラー
 41
0.9977648290772398
 72
     1
 11
-8518.492017098699
 21
-18700.0000000001
 31
0.0
100
AcDbText
 73
     2
  0
LINE
  5
BA
330
1F
100
AcDbEntity
  8
シンボル
100
AcDbLine
 10
-9518.49201709876
 20
-18000.0
 30
0.0
 11
-9518.49201709876
 21
-34000.0
 31
0.0
  0
LINE
  5
BB
330
1F
100
AcDbEntity
  8
シンボル
100
AcDbLine
 10
-7518.492017098761
 20
-18000.0
 30
0.0
 11
-7518.492017098761
 21
-34000.0
 31
0.0
  0
LINE
  5
BC
330
1F
100
AcDbEntity
  8
シンボル
100
AcDbLine
 10
-11518.49201709876
 20
-19400.0
 30
0.0
 11
-7518.492017098761
 21
-19400.0
 31
0.0
  0
LINE
  5
BD
330
1F
100
AcDbEntity
  8
シンボル
100
AcDbLine
 10
-11518.49201709876
 20
-18000.0
 30
0.0
 11
-7518.492017098761
 21
-18000.0
 31
0.0
  0
LINE
  5
BE
330
1F
100
AcDbEntity
  8
シンボル
100
AcDbLine
 10
-11518.49201709876
 20
-18000.0
 30
0.0
 11
-11518.49201709876
 21
-34000.0
 31
0.0
  0
LINE
  5
BF
330
1F
100
AcDbEntity
  8
シンボル
100
AcDbLine
 10
-11518.49201709876
 20
-18000.0
 30
0.0
 11
-9518.492017101293
 21
-19400.0
 31
0.0
  0
TEXT
  5
C0
330
1F
100
AcDbEntity
  8
03-文字-2
100
AcDbText
 10
-11123.99201709862
 20
-19899.91000000044
 30
0.0
 40
199.82
  1
管径 φ75
 41
0.997467188737445
 72
     1
 11
-10518.49201709862
 21
-19800.00000000044
 31
0.0
100
AcDbText
 73
     2
  0
LINE
  5
C1
330
1F
100
AcDbEntity
  8
シンボル
100
AcDbLine
 10
-11518.49201709876
 20
-20200.0
 30
0.0
 11
-7518.492017098761
 21
-20200.0
 31
0.0
  0
TEXT
  5
C2
330
1F
100
AcDbEntity
  8
03-文字-2
100
AcDbText
 10
-11158.6777313845
 20
-20699.91000000006
 30
0.0
 40
199.82
  1
管径 φ100
 41
0.997383736138513
 72
     1
 11
-10518.49201709879
 21
-20600.00000000006
 31
0.0
100
AcDbText
 73
     2
  0
LINE
  5
C3
330
1F
100
AcDbEntity
  8
04-ダクトセンター
100
AcDbLine
 10
-8548.49201709876
 20
-19800.0
 30
0.0
 11
-8488.49201709876
 21
-19800.0
 31
0.0
  0
LINE
  5
C4
330
1F
100
AcDbEntity
  8
05-ダクト外線
100
AcDbLine
 10
-8548.49201709876
 20
-19856.0
 30
0.0
 11
-8548.49201709876
 21
-19744.0
 31
0.0
  0
LINE
  5
C5
330
1F
100
AcDbEntity
  8
05-ダクト外線
100
AcDbLine
 10
-8488.49201709876
 20
-19836.5
 30
0.0
 11
-8488.49201709876
 21
-19763.5
 31
0.0
  0
LINE
  5
C6
330
1F
100
AcDbEntity
  8
05-ダクト外線
100
AcDbLine
 10
-8488.49201709876
 20
-19763.5
 30
0.0
 11
-8528.49201709876
 21
-19763.5
 31
0.0
  0
LINE
  5
C7
330
1F
100
AcDbEntity
  8
05-ダクト外線
100
AcDbLine
 10
-8548.49201709876
 20
-19744.0
 30
0.0
 11
-8547.892017098755
 21
-19744.0
 31
0.0
  0
LINE
  5
C8
330
1F
100
AcDbEntity
  8
05-ダクト外線
100
AcDbLine
 10
-8547.892017098755
 20
-19856.0
 30
0.0
 11
-8547.892017098755
 21
-19744.0
 31
0.0
  0
LINE
  5
C9
330
1F
100
AcDbEntity
  8
05-ダクト外線
100
AcDbLine
 10
-8548.49201709876
 20
-19856.0
 30
0.0
 11
-8547.892017098755
 21
-19856.0
 31
0.0
  0
INSERT
  5
CD
330
1F
100
AcDbEntity
  8
寸法
100
AcDbBlockReference
  2
INS-D5I2P
 10
-8448.1985
 20
-19800.0
 30
0.0
  0
INSERT
  5
D7
330
1F
100
AcDbEntity
  8
寸法
100
AcDbBlockReference
  2
INS-DTK0F
 10
-8594.293000000001
 20
-19800.0
 30
0.0
  0
LINE
  5
DE
330
1F
100
AcDbEntity
  8
05-ダクト外線
100
AcDbLine
 10
-8528.49201709876
 20
-19836.5
 30
0.0
 11
-8528.49201709876
 21
-19763.5
 31
0.0
  0
LINE
  5
DF
330
1F
100
AcDbEntity
  8
06-ダクト内線
  6
DASHED2
 48
0.2
100
AcDbLine
 10
-8488.49201709876
 20
-19764.1
 30
0.0
 11
-8529.092017098767
 21
-19764.1
 31
0.0
  0
LINE
  5
E0
330
1F
100
AcDbEntity
  8
06-ダクト内線
  6
DASHED2
 48
0.2
100
AcDbLine
 10
-8529.092017098767
 20
-19835.90000000001
 30
0.0
 11
-8488.49201709876
 21
-19835.90000000001
 31
0.0
  0
LINE
  5
E1
330
1F
100
AcDbEntity
  8
05-ダクト外線
100
AcDbLine
 10
-8547.892017098755
 20
-19761.5
 30
0.0
 11
-8530.49201709876
 21
-19761.5
 31
0.0
  0
LINE
  5
E2
330
1F
100
AcDbEntity
  8
05-ダクト外線
100
AcDbLine
 10
-8547.892017098755
 20
-19838.5
 30
0.0
 11
-8530.49201709876
 21
-19838.5
 31
0.0
  0
ARC
  5
E3
330
1F
100
AcDbEntity
  8
05-ダクト外線
100
AcDbCircle
 10
-8530.49201709876
 20
-19836.5
 30
0.0
 40
2.0
100
AcDbArc
 50
270.0
 51
0.0
  0
ARC
  5
E4
330
1F
100
AcDbEntity
  8
05-ダクト外線
100
AcDbCircle
 10
-8530.49201709876
 20
-19763.5
 30
0.0
 40
2.0
100
AcDbArc
 50
0.0
 51
90.0
  0
LINE
  5
E5
330
1F
100
AcDbEntity
  8
06-ダクト内線
  6
DASHED2
 48
0.2
100
AcDbLine
 10
-8529.092017098767
 20
-19836.5
 30
0.0
 11
-8529.092017098767
 21
-19763.5
 31
0.0
  0
ARC
  5
E6
330
1F
100
AcDbEntity
  8
06-ダクト内線
  6
DASHED2
 48
0.2
100
AcDbCircle
 10
-8530.49201709876
 20
-19763.5
 30
0.0
 40
1.4
100
AcDbArc
 50
0.0
 51
90.0
  0
LINE
  5
E7
330
1F
100
AcDbEntity
  8
06-ダクト内線
  6
DASHED2
 48
0.2
100
AcDbLine
 10
-8548.49201709876
 20
-19762.1
 30
0.0
 11
-8530.49201709876
 21
-19762.1
 31
0.0
  0
ARC
  5
E8
330
1F
100
AcDbEntity
  8
06-ダクト内線
  6
DASHED2
 48
0.2
100
AcDbCircle
 10
-8530.49201709876
 20
-19836.5
 30
0.0
 40
1.4
100
AcDbArc
 50
270.0
 51
0.0
  0
LINE
  5
E9
330
1F
100
AcDbEntity
  8
06-ダクト内線
  6
DASHED2
 48
0.2
100
AcDbLine
 10
-8548.49201709876
 20
-19837.90000000001
 30
0.0
 11
-8530.49201709876
 21
-19837.90000000001
 31
0.0
  0
LINE
  5
EA
330
1F
100
AcDbEntity
  8
05-ダクト外線
100
AcDbLine
 10
-8528.49201709876
 20
-19836.5
 30
0.0
 11
-8488.49201709876
 21
-19836.5
 31
0.0
  0
INSERT
  5
EE
330
1F
100
AcDbEntity
  8
寸法
100
AcDbBlockReference
  2
INS-D9XWX
 10
-8538.492999999999
 20
-19703.35
 30
0.0
  0
INSERT
  5
F8
330
1F
100
AcDbEntity
  8
寸法
100
AcDbBlockReference
  2
INS-DP059
 10
-8504.223
 20
-19703.35
 30
0.0
  0
TEXT
  5
FF
330
1F
100
AcDbEntity
  8
03-文字-2
100
AcDbText
 10
-8815.80451709876
 20
-19973.16889336939
 30
0.0
 40
49.955
  1
Tカラーφ75-0.6t
 41
0.9971781027269427
 72
     1
 11
-8518.49201709876
 21
-19948.19139336939
 31
0.0
100
AcDbText
 73
     2
  0
LINE
  5
100
330
1F
100
AcDbEntity
  8
04-ダクトセンター
100
AcDbLine
 10
-8563.49201709876
 20
-20599.98688788913
 30
0.0
 11
-8473.49201709876
 21
-20599.98688788913
 31
0.0
  0
LINE
  5
101
330
1F
100
AcDbEntity
  8
05-ダクト外線
100
AcDbLine
 10
-8563.49201709876
 20
-20669.98688788913
 30
0.0
 11
-8563.49201709876
 21
-20529.98688788913
 31
0.0
  0
LINE
  5
102
330
1F
100
AcDbEntity
  8
05-ダクト外線
100
AcDbLine
 10
-8473.49201709876
 20
-20648.98688788913
 30
0.0
 11
-8473.49201709876
 21
-20550.98688788913
 31
0.0
  0
LINE
  5
103
330
1F
100
AcDbEntity
  8
05-ダクト外線
100
AcDbLine
 10
-8473.49201709876
 20
-20550.98688788913
 30
0.0
 11
-8533.49201709876
 21
-20550.98688788913
 31
0.0
  0
LINE
  5
104
330
1F
100
AcDbEntity
  8
05-ダクト外線
100
AcDbLine
 10
-8563.49201709876
 20
-20529.98688788913
 30
0.0
 11
-8562.892017098755
 21
-20529.98688788913
 31
0.0
  0
LINE
  5
105
330
1F
100
AcDbEntity
  8
05-ダクト外線
100
AcDbLine
 10
-8562.892017098755
 20
-20669.98688788913
 30
0.0
 11
-8562.892017098755
 21
-20529.98688788913
 31
0.0
  0
LINE
  5
106
330
1F
100
AcDbEntity
  8
05-ダクト外線
100
AcDbLine
 10
-8563.49201709876
 20
-20669.98688788913
 30
0.0
 11
-8562.892017098755
 21
-20669.98688788913
 31
0.0
  0
INSERT
  5
10A
330
1F
100
AcDbEntity
  8
寸法
100
AcDbBlockReference
  2
INS-D528J
 10
-8433.1985
 20
-20599.987
 30
0.0
  0
INSERT
  5
114
330
1F
100
AcDbEntity
  8
寸法
100
AcDbBlockReference
  2
INS-D93L4
 10
-8609.293000000001
 20
-20599.987
 30
0.0
  0
LINE
  5
11B
330
1F
100
AcDbEntity
  8
05-ダクト外線
100
AcDbLine
 10
-8533.49201709876
 20
-20648.98688788913
 30
0.0
 11
-8533.49201709876
 21
-20550.98688788913
 31
0.0
  0
LINE
  5
11C
330
1F
100
AcDbEntity
  8
06-ダクト内線
  6
DASHED2
 48
0.2
100
AcDbLine
 10
-8473.49201709876
 20
-20551.58688788913
 30
0.0
 11
-8534.092017098767
 21
-20551.58688788913
 31
0.0
  0
LINE
  5
11D
330
1F
100
AcDbEntity
  8
06-ダクト内線
  6
DASHED2
 48
0.2
100
AcDbLine
 10
-8534.092017098767
 20
-20648.38688788913
 30
0.0
 11
-8473.49201709876
 21
-20648.38688788913
 31
0.0
  0
LINE
  5
11E
330
1F
100
AcDbEntity
  8
05-ダクト外線
100
AcDbLine
 10
-8562.892017098755
 20
-20548.98688788913
 30
0.0
 11
-8535.49201709876
 21
-20548.98688788913
 31
0.0
  0
LINE
  5
11F
330
1F
100
AcDbEntity
  8
05-ダクト外線
100
AcDbLine
 10
-8562.892017098755
 20
-20650.98688788913
 30
0.0
 11
-8535.49201709876
 21
-20650.98688788913
 31
0.0
  0
ARC
  5
120
330
1F
100
AcDbEntity
  8
05-ダクト外線
100
AcDbCircle
 10
-8535.49201709876
 20
-20648.98688788913
 30
0.0
 40
2.0
100
AcDbArc
 50
270.0
 51
0.0
  0
ARC
  5
121
330
1F
100
AcDbEntity
  8
05-ダクト外線
100
AcDbCircle
 10
-8535.49201709876
 20
-20550.98688788913
 30
0.0
 40
2.0
100
AcDbArc
 50
0.0
 51
90.0
  0
LINE
  5
122
330
1F
100
AcDbEntity
  8
06-ダクト内線
  6
DASHED2
 48
0.2
100
AcDbLine
 10
-8534.092017098767
 20
-20648.98688788913
 30
0.0
 11
-8534.092017098767
 21
-20550.98688788913
 31
0.0
  0
ARC
  5
123
330
1F
100
AcDbEntity
  8
06-ダクト内線
  6
DASHED2
 48
0.2
100
AcDbCircle
 10
-8535.49201709876
 20
-20550.98688788913
 30
0.0
 40
1.4
100
AcDbArc
 50
0.0
 51
90.0
  0
LINE
  5
124
330
1F
100
AcDbEntity
  8
06-ダクト内線
  6
DASHED2
 48
0.2
100
AcDbLine
 10
-8563.49201709876
 20
-20549.58688788913
 30
0.0
 11
-8535.49201709876
 21
-20549.58688788913
 31
0.0
  0
ARC
  5
125
330
1F
100
AcDbEntity
  8
06-ダクト内線
  6
DASHED2
 48
0.2
100
AcDbCircle
 10
-8535.49201709876
 20
-20648.98688788913
 30
0.0
 40
1.4
100
AcDbArc
 50
270.0
 51
0.0
  0
LINE
  5
126
330
1F
100
AcDbEntity
  8
06-ダクト内線
  6
DASHED2
 48
0.2
100
AcDbLine
 10
-8563.49201709876
 20
-20650.38688788913
 30
0.0
 11
-8535.49201709876
 21
-20650.38688788913
 31
0.0
  0
LINE
  5
127
330
1F
100
AcDbEntity
  8
05-ダクト外線
100
AcDbLine
 10
-8533.49201709876
 20
-20648.98688788913
 30
0.0
 11
-8473.49201709876
 21
-20648.98688788913
 31
0.0
  0
INSERT
  5
12B
330
1F
100
AcDbEntity
  8
寸法
100
AcDbBlockReference
  2
INS-D3YVV
 10
-8548.492999999999
 20
-20490.087
 30
0.0
  0
INSERT
  5
135
330
1F
100
AcDbEntity
  8
寸法
100
AcDbBlockReference
  2
INS-DD057
 10
-8503.493
 20
-20490.087
 30
0.0
  0
TEXT
  5
13C
330
1F
100
AcDbEntity
  8
03-文字-2
100
AcDbText
 10
-8829.27086325259
 20
-20773.15578125869
 30
0.0
 40
49.955
  1
Tカラーφ100-0.6t
 41
0.9971562090994912
 72
     1
 11
-8523.492017098744
 21
-20748.17828125869
 31
0.0
100
AcDbText
 73
     2
  0
LINE
  5
13D
330
1F
100
AcDbEntity
  8
シンボル
100
AcDbLine
 10
-11518.49201709876
 20
-21000.0
 30
0.0
 11
-7518.492017098761
 21
-21000.0
 31
0.0
  0
TEXT
  5
13E
330
1F
100
AcDbEntity
  8
03-文字-2
100
AcDbText
 10
-11192.64915995599
 20
-21499.91000000029
 30
0.0
 40
199.82
  1
管径 φ125
 41
0.997383736138513
 72
     1
 11
-10518.49201709885
 21
-21400.00000000029
 31
0.0
100
AcDbText
 73
     2
  0
LINE
  5
13F
330
1F
100
AcDbEntity
  8
04-ダクトセンター
100
AcDbLine
 10
-8563.49201709876
 20
-21399.98688788913
 30
0.0
 11
-8473.49201709876
 21
-21399.98688788913
 31
0.0
  0
LINE
  5
140
330
1F
100
AcDbEntity
  8
05-ダクト外線
100
AcDbLine
 10
-8563.49201709876
 20
-21482.48688788913
 30
0.0
 11
-8563.49201709876
 21
-21317.48688788913
 31
0.0
  0
LINE
  5
141
330
1F
100
AcDbEntity
  8
05-ダクト外線
100
AcDbLine
 10
-8473.49201709876
 20
-21461.48688788913
 30
0.0
 11
-8473.49201709876
 21
-21338.48688788913
 31
0.0
  0
LINE
  5
142
330
1F
100
AcDbEntity
  8
05-ダクト外線
100
AcDbLine
 10
-8473.49201709876
 20
-21338.48688788913
 30
0.0
 11
-8533.49201709876
 21
-21338.48688788913
 31
0.0
  0
LINE
  5
143
330
1F
100
AcDbEntity
  8
05-ダクト外線
100
AcDbLine
 10
-8563.49201709876
 20
-21317.48688788913
 30
0.0
 11
-8562.892017098755
 21
-21317.48688788913
 31
0.0
  0
LINE
  5
144
330
1F
100
AcDbEntity
  8
05-ダクト外線
100
AcDbLine
 10
-8562.892017098755
 20
-21482.48688788913
 30
0.0
 11
-8562.892017098755
 21
-21317.48688788913
 31
0.0
  0
LINE
  5
145
330
1F
100
AcDbEntity
  8
05-ダクト外線
100
AcDbLine
 10
-8563.49201709876
 20
-21482.48688788913
 30
0.0
 11
-8562.892017098755
 21
-21482.48688788913
 31
0.0
  0
INSERT
  5
149
330
1F
100
AcDbEntity
  8
寸法
100
AcDbBlockReference
  2
INS-D7IGM
 10
-8433.1985
 20
-21399.987
 30
0.0
  0
INSERT
  5
153
330
1F
100
AcDbEntity
  8
寸法
100
AcDbBlockReference
  2
INS-D9F98
 10
-8609.293000000001
 20
-21399.987
 30
0.0
  0
LINE
  5
15A
330
1F
100
AcDbEntity
  8
05-ダクト外線
100
AcDbLine
 10
-8533.49201709876
 20
-21461.48688788913
 30
0.0
 11
-8533.49201709876
 21
-21338.48688788913
 31
0.0
  0
LINE
  5
15B
330
1F
100
AcDbEntity
  8
06-ダクト内線
  6
DASHED2
 48
0.2
100
AcDbLine
 10
-8473.49201709876
 20
-21339.08688788913
 30
0.0
 11
-8534.092017098767
 21
-21339.08688788913
 31
0.0
  0
LINE
  5
15C
330
1F
100
AcDbEntity
  8
06-ダクト内線
  6
DASHED2
 48
0.2
100
AcDbLine
 10
-8534.092017098767
 20
-21460.88688788913
 30
0.0
 11
-8473.49201709876
 21
-21460.88688788913
 31
0.0
  0
LINE
  5
15D
330
1F
100
AcDbEntity
  8
05-ダクト外線
100
AcDbLine
 10
-8562.892017098755
 20
-21336.48688788913
 30
0.0
 11
-8535.49201709876
 21
-21336.48688788913
 31
0.0
  0
LINE
  5
15E
330
1F
100
AcDbEntity
  8
05-ダクト外線
100
AcDbLine
 10
-8562.892017098755
 20
-21463.48688788913
 30
0.0
 11
-8535.49201709876
 21
-21463.48688788913
 31
0.0
  0
ARC
  5
15F
330
1F
100
AcDbEntity
  8
05-ダクト外線
100
AcDbCircle
 10
-8535.49201709876
 20
-21461.48688788913
 30
0.0
 40
2.0
100
AcDbArc
 50
270.0
 51
0.0
  0
ARC
  5
160
330
1F
100
AcDbEntity
  8
05-ダクト外線
100
AcDbCircle
 10
-8535.49201709876
 20
-21338.48688788913
 30
0.0
 40
2.0
100
AcDbArc
 50
0.0
 51
90.0
  0
LINE
  5
161
330
1F
100
AcDbEntity
  8
06-ダクト内線
  6
DASHED2
 48
0.2
100
AcDbLine
 10
-8534.092017098767
 20
-21461.48688788913
 30
0.0
 11
-8534.092017098767
 21
-21338.48688788913
 31
0.0
  0
ARC
  5
162
330
1F
100
AcDbEntity
  8
06-ダクト内線
  6
DASHED2
 48
0.2
100
AcDbCircle
 10
-8535.49201709876
 20
-21338.48688788913
 30
0.0
 40
1.4
100
AcDbArc
 50
0.0
 51
90.0
  0
LINE
  5
163
330
1F
100
AcDbEntity
  8
06-ダクト内線
  6
DASHED2
 48
0.2
100
AcDbLine
 10
-8563.49201709876
 20
-21337.08688788913
 30
0.0
 11
-8535.49201709876
 21
-21337.08688788913
 31
0.0
  0
ARC
  5
164
330
1F
100
AcDbEntity
  8
06-ダクト内線
  6
DASHED2
 48
0.2
100
AcDbCircle
 10
-8535.49201709876
 20
-21461.48688788913
 30
0.0
 40
1.4
100
AcDbArc
 50
270.0
 51
0.0
  0
LINE
  5
165
330
1F
100
AcDbEntity
  8
06-ダクト内線
  6
DASHED2
 48
0.2
100
AcDbLine
 10
-8563.49201709876
 20
-21462.88688788913
 30
0.0
 11
-8535.49201709876
 21
-21462.88688788913
 31
0.0
  0
LINE
  5
166
330
1F
100
AcDbEntity
  8
05-ダクト外線
100
AcDbLine
 10
-8533.49201709876
 20
-21461.48688788913
 30
0.0
 11
-8473.49201709876
 21
-21461.48688788913
 31
0.0
  0
INSERT
  5
16A
330
1F
100
AcDbEntity
  8
寸法
100
AcDbBlockReference
  2
INS-D65RV
 10
-8548.492999999999
 20
-21283.837
 30
0.0
  0
INSERT
  5
174
330
1F
100
AcDbEntity
  8
寸法
100
AcDbBlockReference
  2
INS-DD3QD
 10
-8503.493
 20
-21283.837
 30
0.0
  0
LINE
  5
17B
330
1F
100
AcDbEntity
  8
シンボル
100
AcDbLine
 10
-11518.49201709876
 20
-21800.0
 30
0.0
 11
-7518.492017098761
 21
-21800.0
 31
0.0
  0
TEXT
  5
17C
330
1F
100
AcDbEntity
  8
03-文字-2
100
AcDbText
 10
-11175.66344567026
 20
-22299.9099999997
 30
0.0
 40
199.82
  1
管径 φ150
 41
0.997383736138513
 72
     1
 11
-10518.49201709883
 21
-22199.9999999997
 31
0.0
100
AcDbText
 73
     2
  0
LINE
  5
17D
330
1F
100
AcDbEntity
  8
04-ダクトセンター
100
AcDbLine
 10
-8573.49201709876
 20
-22199.98688788913
 30
0.0
 11
-8483.49201709876
 21
-22199.98688788913
 31
0.0
  0
LINE
  5
17E
330
1F
100
AcDbEntity
  8
05-ダクト外線
100
AcDbLine
 10
-8573.49201709876
 20
-22299.98688788913
 30
0.0
 11
-8573.49201709876
 21
-22099.98688788913
 31
0.0
  0
LINE
  5
17F
330
1F
100
AcDbEntity
  8
05-ダクト外線
100
AcDbLine
 10
-8483.49201709876
 20
-22273.98688788913
 30
0.0
 11
-8483.49201709876
 21
-22125.98688788913
 31
0.0
  0
LINE
  5
180
330
1F
100
AcDbEntity
  8
05-ダクト外線
100
AcDbLine
 10
-8483.49201709876
 20
-22125.98688788913
 30
0.0
 11
-8543.49201709876
 21
-22125.98688788913
 31
0.0
  0
LINE
  5
181
330
1F
100
AcDbEntity
  8
05-ダクト外線
100
AcDbLine
 10
-8573.49201709876
 20
-22099.98688788913
 30
0.0
 11
-8572.892017098755
 21
-22099.98688788913
 31
0.0
  0
LINE
  5
182
330
1F
100
AcDbEntity
  8
05-ダクト外線
100
AcDbLine
 10
-8572.892017098755
 20
-22299.98688788913
 30
0.0
 11
-8572.892017098755
 21
-22099.98688788913
 31
0.0
  0
LINE
  5
183
330
1F
100
AcDbEntity
  8
05-ダクト外線
100
AcDbLine
 10
-8573.49201709876
 20
-22299.98688788913
 30
0.0
 11
-8572.892017098755
 21
-22299.98688788913
 31
0.0
  0
INSERT
  5
187
330
1F
100
AcDbEntity
  8
寸法
100
AcDbBlockReference
  2
INS-D8II4
 10
-8443.1985
 20
-22199.987
 30
0.0
  0
INSERT
  5
191
330
1F
100
AcDbEntity
  8
寸法
100
AcDbBlockReference
  2
INS-DPJQ7
 10
-8619.293000000001
 20
-22199.987
 30
0.0
  0
LINE
  5
198
330
1F
100
AcDbEntity
  8
05-ダクト外線
100
AcDbLine
 10
-8543.49201709876
 20
-22273.98688788913
 30
0.0
 11
-8543.49201709876
 21
-22125.98688788913
 31
0.0
  0
LINE
  5
199
330
1F
100
AcDbEntity
  8
06-ダクト内線
  6
DASHED2
 48
0.2
100
AcDbLine
 10
-8483.49201709876
 20
-22126.58688788913
 30
0.0
 11
-8544.092017098767
 21
-22126.58688788913
 31
0.0
  0
LINE
  5
19A
330
1F
100
AcDbEntity
  8
06-ダクト内線
  6
DASHED2
 48
0.2
100
AcDbLine
 10
-8544.092017098767
 20
-22273.38688788913
 30
0.0
 11
-8483.49201709876
 21
-22273.38688788913
 31
0.0
  0
LINE
  5
19B
330
1F
100
AcDbEntity
  8
05-ダクト外線
100
AcDbLine
 10
-8572.892017098755
 20
-22123.98688788913
 30
0.0
 11
-8545.49201709876
 21
-22123.98688788913
 31
0.0
  0
LINE
  5
19C
330
1F
100
AcDbEntity
  8
05-ダクト外線
100
AcDbLine
 10
-8572.892017098755
 20
-22275.98688788913
 30
0.0
 11
-8545.49201709876
 21
-22275.98688788913
 31
0.0
  0
ARC
  5
19D
330
1F
100
AcDbEntity
  8
05-ダクト外線
100
AcDbCircle
 10
-8545.49201709876
 20
-22273.98688788913
 30
0.0
 40
2.0
100
AcDbArc
 50
270.0
 51
0.0
  0
ARC
  5
19E
330
1F
100
AcDbEntity
  8
05-ダクト外線
100
AcDbCircle
 10
-8545.49201709876
 20
-22125.98688788913
 30
0.0
 40
2.0
100
AcDbArc
 50
0.0
 51
90.0
  0
LINE
  5
19F
330
1F
100
AcDbEntity
  8
06-ダクト内線
  6
DASHED2
 48
0.2
100
AcDbLine
 10
-8544.092017098767
 20
-22273.98688788913
 30
0.0
 11
-8544.092017098767
 21
-22125.98688788913
 31
0.0
  0
ARC
  5
1A0
330
1F
100
AcDbEntity
  8
06-ダクト内線
  6
DASHED2
 48
0.2
100
AcDbCircle
 10
-8545.49201709876
 20
-22125.98688788913
 30
0.0
 40
1.4
100
AcDbArc
 50
0.0
 51
90.0
  0
LINE
  5
1A1
330
1F
100
AcDbEntity
  8
06-ダクト内線
  6
DASHED2
 48
0.2
100
AcDbLine
 10
-8573.49201709876
 20
-22124.58688788913
 30
0.0
 11
-8545.49201709876
 21
-22124.58688788913
 31
0.0
  0
ARC
  5
1A2
330
1F
100
AcDbEntity
  8
06-ダクト内線
  6
DASHED2
 48
0.2
100
AcDbCircle
 10
-8545.49201709876
 20
-22273.98688788913
 30
0.0
 40
1.4
100
AcDbArc
 50
270.0
 51
0.0
  0
LINE
  5
1A3
330
1F
100
AcDbEntity
  8
06-ダクト内線
  6
DASHED2
 48
0.2
100
AcDbLine
 10
-8573.49201709876
 20
-22275.38688788913
 30
0.0
 11
-8545.49201709876
 21
-22275.38688788913
 31
0.0
  0
LINE
  5
1A4
330
1F
100
AcDbEntity
  8
05-ダクト外線
100
AcDbLine
 10
-8543.49201709876
 20
-22273.98688788913
 30
0.0
 11
-8483.49201709876
 21
-22273.98688788913
 31
0.0
  0
INSERT
  5
1A8
330
1F
100
AcDbEntity
  8
寸法
100
AcDbBlockReference
  2
INS-D5NHP
 10
-8558.492999999999
 20
-22065.087
 30
0.0
  0
INSERT
  5
1B2
330
1F
100
AcDbEntity
  8
寸法
100
AcDbBlockReference
  2
INS-D5EKQ
 10
-8513.493
 20
-22065.087
 30
0.0
  0
TEXT
  5
1B9
330
1F
100
AcDbEntity
  8
03-文字-2
100
AcDbText
 10
-8843.565094021595
 20
-22398.15578126005
 30
0.0
 40
49.955
  1
Tカラーφ150-0.6t
 41
0.9971562090994912
 72
     1
 11
-8533.492017098517
 21
-22373.17828126005
 31
0.0
100
AcDbText
 73
     2
  0
LINE
  5
1BA
330
1F
100
AcDbEntity
  8
シンボル
100
AcDbLine
 10
-11518.49201709876
 20
-22600.0
 30
0.0
 11
-7518.492017098761
 21
-22600.0
 31
0.0
  0
TEXT
  5
1BB
330
1F
100
AcDbEntity
  8
03-文字-2
100
AcDbText
 10
-8837.85932479108
 20
-21585.65578125778
 30
0.0
 40
49.955
  1
Tカラーφ125-0.6t
 41
0.9971562090994912
 72
     1
 11
-8523.492017098772
 21
-21560.67828125778
 31
0.0
100
AcDbText
 73
     2
  0
TEXT
  5
1BC
330
1F
100
AcDbEntity
  8
03-文字-2
100
AcDbText
 10
-11192.64915995599
 20
-23099.90999999991
 30
0.0
 40
199.82
  1
管径 φ175
 41
0.997383736138513
 72
     1
 11
-10518.49201709885
 21
-22999.99999999991
 31
0.0
100
AcDbText
 73
     2
  0
LINE
  5
1BD
330
1F
100
AcDbEntity
  8
04-ダクトセンター
100
AcDbLine
 10
-8573.49201709876
 20
-22999.98688788913
 30
0.0
 11
-8483.49201709876
 21
-22999.98688788913
 31
0.0
  0
LINE
  5
1BE
330
1F
100
AcDbEntity
  8
05-ダクト外線
100
AcDbLine
 10
-8573.49201709876
 20
-23112.48688788913
 30
0.0
 11
-8573.49201709876
 21
-22887.48688788913
 31
0.0
  0
LINE
  5
1BF
330
1F
100
AcDbEntity
  8
05-ダクト外線
100
AcDbLine
 10
-8483.49201709876
 20
-23086.48688788913
 30
0.0
 11
-8483.49201709876
 21
-22913.48688788913
 31
0.0
  0
LINE
  5
1C0
330
1F
100
AcDbEntity
  8
05-ダクト外線
100
AcDbLine
 10
-8483.49201709876
 20
-22913.48688788913
 30
0.0
 11
-8543.49201709876
 21
-22913.48688788913
 31
0.0
  0
LINE
  5
1C1
330
1F
100
AcDbEntity
  8
05-ダクト外線
100
AcDbLine
 10
-8573.49201709876
 20
-22887.48688788913
 30
0.0
 11
-8572.892017098755
 21
-22887.48688788913
 31
0.0
  0
LINE
  5
1C2
330
1F
100
AcDbEntity
  8
05-ダクト外線
100
AcDbLine
 10
-8572.892017098755
 20
-23112.48688788913
 30
0.0
 11
-8572.892017098755
 21
-22887.48688788913
 31
0.0
  0
LINE
  5
1C3
330
1F
100
AcDbEntity
  8
05-ダクト外線
100
AcDbLine
 10
-8573.49201709876
 20
-23112.48688788913
 30
0.0
 11
-8572.892017098755
 21
-23112.48688788913
 31
0.0
  0
INSERT
  5
1C7
330
1F
100
AcDbEntity
  8
寸法
100
AcDbBlockReference
  2
INS-D643D
 10
-8443.1985
 20
-22999.987
 30
0.0
  0
INSERT
  5
1D1
330
1F
100
AcDbEntity
  8
寸法
100
AcDbBlockReference
  2
INS-D8TXR
 10
-8619.293000000001
 20
-22999.987
 30
0.0
  0
LINE
  5
1D8
330
1F
100
AcDbEntity
  8
05-ダクト外線
100
AcDbLine
 10
-8543.49201709876
 20
-23086.48688788913
 30
0.0
 11
-8543.49201709876
 21
-22913.48688788913
 31
0.0
  0
LINE
  5
1D9
330
1F
100
AcDbEntity
  8
06-ダクト内線
  6
DASHED2
 48
0.2
100
AcDbLine
 10
-8483.49201709876
 20
-22914.08688788913
 30
0.0
 11
-8544.092017098767
 21
-22914.08688788913
 31
0.0
  0
LINE
  5
1DA
330
1F
100
AcDbEntity
  8
06-ダクト内線
  6
DASHED2
 48
0.2
100
AcDbLine
 10
-8544.092017098767
 20
-23085.88688788913
 30
0.0
 11
-8483.49201709876
 21
-23085.88688788913
 31
0.0
  0
LINE
  5
1DB
330
1F
100
AcDbEntity
  8
05-ダクト外線
100
AcDbLine
 10
-8572.892017098755
 20
-22911.48688788913
 30
0.0
 11
-8545.49201709876
 21
-22911.48688788913
 31
0.0
  0
LINE
  5
1DC
330
1F
100
AcDbEntity
  8
05-ダクト外線
100
AcDbLine
 10
-8572.892017098755
 20
-23088.48688788913
 30
0.0
 11
-8545.49201709876
 21
-23088.48688788913
 31
0.0
  0
ARC
  5
1DD
330
1F
100
AcDbEntity
  8
05-ダクト外線
100
AcDbCircle
 10
-8545.49201709876
 20
-23086.48688788913
 30
0.0
 40
2.0
100
AcDbArc
 50
270.0
 51
0.0
  0
ARC
  5
1DE
330
1F
100
AcDbEntity
  8
05-ダクト外線
100
AcDbCircle
 10
-8545.49201709876
 20
-22913.48688788913
 30
0.0
 40
2.0
100
AcDbArc
 50
0.0
 51
90.0
  0
LINE
  5
1DF
330
1F
100
AcDbEntity
  8
06-ダクト内線
  6
DASHED2
 48
0.2
100
AcDbLine
 10
-8544.092017098767
 20
-23086.48688788913
 30
0.0
 11
-8544.092017098767
 21
-22913.48688788913
 31
0.0
  0
ARC
  5
1E0
330
1F
100
AcDbEntity
  8
06-ダクト内線
  6
DASHED2
 48
0.2
100
AcDbCircle
 10
-8545.49201709876
 20
-22913.48688788913
 30
0.0
 40
1.4
100
AcDbArc
 50
0.0
 51
90.0
  0
LINE
  5
1E1
330
1F
100
AcDbEntity
  8
06-ダクト内線
  6
DASHED2
 48
0.2
100
AcDbLine
 10
-8573.49201709876
 20
-22912.08688788913
 30
0.0
 11
-8545.49201709876
 21
-22912.08688788913
 31
0.0
  0
ARC
  5
1E2
330
1F
100
AcDbEntity
  8
06-ダクト内線
  6
DASHED2
 48
0.2
100
AcDbCircle
 10
-8545.49201709876
 20
-23086.48688788913
 30
0.0
 40
1.4
100
AcDbArc
 50
270.0
 51
0.0
  0
LINE
  5
1E3
330
1F
100
AcDbEntity
  8
06-ダクト内線
  6
DASHED2
 48
0.2
100
AcDbLine
 10
-8573.49201709876
 20
-23087.88688788913
 30
0.0
 11
-8545.49201709876
 21
-23087.88688788913
 31
0.0
  0
LINE
  5
1E4
330
1F
100
AcDbEntity
  8
05-ダクト外線
100
AcDbLine
 10
-8543.49201709876
 20
-23086.48688788913
 30
0.0
 11
-8483.49201709876
 21
-23086.48688788913
 31
0.0
  0
INSERT
  5
1E8
330
1F
100
AcDbEntity
  8
寸法
100
AcDbBlockReference
  2
INS-D5M90
 10
-8558.492999999999
 20
-22858.837
 30
0.0
  0
INSERT
  5
1F2
330
1F
100
AcDbEntity
  8
寸法
100
AcDbBlockReference
  2
INS-D7JIB
 10
-8513.493
 20
-22858.837
 30
0.0
  0
TEXT
  5
1F9
330
1F
100
AcDbEntity
  8
03-文字-2
100
AcDbText
 10
-8847.859324791534
 20
-23210.65578125843
 30
0.0
 40
49.955
  1
Tカラーφ175-0.6t
 41
0.9971562090994912
 72
     1
 11
-8533.492017099226
 21
-23185.67828125842
 31
0.0
100
AcDbText
 73
     2
  0
LINE
  5
1FA
330
1F
100
AcDbEntity
  8
シンボル
100
AcDbLine
 10
-11518.49201709876
 20
-23400.0
 30
0.0
 11
-7518.492017098761
 21
-23400.0
 31
0.0
  0
TEXT
  5
1FB
330
1F
100
AcDbEntity
  8
03-文字-2
100
AcDbText
 10
-11191.4777313845
 20
-23899.90999999941
 30
0.0
 40
199.82
  1
管径 φ200
 41
0.997383736138513
 72
     1
 11
-10518.49201709879
 21
-23799.99999999941
 31
0.0
100
AcDbText
 73
     2
  0
LINE
  5
1FC
330
1F
100
AcDbEntity
  8
04-ダクトセンター
100
AcDbLine
 10
-8573.49201709876
 20
-23799.98688788913
 30
0.0
 11
-8483.49201709876
 21
-23799.98688788913
 31
0.0
  0
LINE
  5
1FD
330
1F
100
AcDbEntity
  8
05-ダクト外線
100
AcDbLine
 10
-8573.49201709876
 20
-23924.98688788913
 30
0.0
 11
-8573.49201709876
 21
-23674.98688788913
 31
0.0
  0
LINE
  5
1FE
330
1F
100
AcDbEntity
  8
05-ダクト外線
100
AcDbLine
 10
-8483.49201709876
 20
-23898.98688788913
 30
0.0
 11
-8483.49201709876
 21
-23700.98688788913
 31
0.0
  0
LINE
  5
1FF
330
1F
100
AcDbEntity
  8
05-ダクト外線
100
AcDbLine
 10
-8483.49201709876
 20
-23700.98688788913
 30
0.0
 11
-8543.49201709876
 21
-23700.98688788913
 31
0.0
  0
LINE
  5
200
330
1F
100
AcDbEntity
  8
05-ダクト外線
100
AcDbLine
 10
-8573.49201709876
 20
-23674.98688788913
 30
0.0
 11
-8572.892017098755
 21
-23674.98688788913
 31
0.0
  0
LINE
  5
201
330
1F
100
AcDbEntity
  8
05-ダクト外線
100
AcDbLine
 10
-8572.892017098755
 20
-23924.98688788913
 30
0.0
 11
-8572.892017098755
 21
-23674.98688788913
 31
0.0
  0
LINE
  5
202
330
1F
100
AcDbEntity
  8
05-ダクト外線
100
AcDbLine
 10
-8573.49201709876
 20
-23924.98688788913
 30
0.0
 11
-8572.892017098755
 21
-23924.98688788913
 31
0.0
  0
INSERT
  5
206
330
1F
100
AcDbEntity
  8
寸法
100
AcDbBlockReference
  2
INS-D82CP
 10
-8443.1985
 20
-23799.987
 30
0.0
  0
INSERT
  5
210
330
1F
100
AcDbEntity
  8
寸法
100
AcDbBlockReference
  2
INS-D4GTE
 10
-8619.293000000001
 20
-23799.987
 30
0.0
  0
LINE
  5
217
330
1F
100
AcDbEntity
  8
05-ダクト外線
100
AcDbLine
 10
-8543.49201709876
 20
-23898.98688788913
 30
0.0
 11
-8543.49201709876
 21
-23700.98688788913
 31
0.0
  0
LINE
  5
218
330
1F
100
AcDbEntity
  8
06-ダクト内線
  6
DASHED2
 48
0.2
100
AcDbLine
 10
-8483.49201709876
 20
-23701.58688788913
 30
0.0
 11
-8544.092017098767
 21
-23701.58688788913
 31
0.0
  0
LINE
  5
219
330
1F
100
AcDbEntity
  8
06-ダクト内線
  6
DASHED2
 48
0.2
100
AcDbLine
 10
-8544.092017098767
 20
-23898.38688788913
 30
0.0
 11
-8483.49201709876
 21
-23898.38688788913
 31
0.0
  0
LINE
  5
21A
330
1F
100
AcDbEntity
  8
05-ダクト外線
100
AcDbLine
 10
-8572.892017098755
 20
-23698.98688788913
 30
0.0
 11
-8545.49201709876
 21
-23698.98688788913
 31
0.0
  0
LINE
  5
21B
330
1F
100
AcDbEntity
  8
05-ダクト外線
100
AcDbLine
 10
-8572.892017098755
 20
-23900.98688788913
 30
0.0
 11
-8545.49201709876
 21
-23900.98688788913
 31
0.0
  0
ARC
  5
21C
330
1F
100
AcDbEntity
  8
05-ダクト外線
100
AcDbCircle
 10
-8545.49201709876
 20
-23898.98688788913
 30
0.0
 40
2.0
100
AcDbArc
 50
270.0
 51
0.0
  0
ARC
  5
21D
330
1F
100
AcDbEntity
  8
05-ダクト外線
100
AcDbCircle
 10
-8545.49201709876
 20
-23700.98688788913
 30
0.0
 40
2.0
100
AcDbArc
 50
0.0
 51
90.0
  0
LINE
  5
21E
330
1F
100
AcDbEntity
  8
06-ダクト内線
  6
DASHED2
 48
0.2
100
AcDbLine
 10
-8544.092017098767
 20
-23898.98688788913
 30
0.0
 11
-8544.092017098767
 21
-23700.98688788913
 31
0.0
  0
ARC
  5
21F
330
1F
100
AcDbEntity
  8
06-ダクト内線
  6
DASHED2
 48
0.2
100
AcDbCircle
 10
-8545.49201709876
 20
-23700.98688788913
 30
0.0
 40
1.4
100
AcDbArc
 50
0.0
 51
90.0
  0
LINE
  5
220
330
1F
100
AcDbEntity
  8
06-ダクト内線
  6
DASHED2
 48
0.2
100
AcDbLine
 10
-8573.49201709876
 20
-23699.58688788913
 30
0.0
 11
-8545.49201709876
 21
-23699.58688788913
 31
0.0
  0
ARC
  5
221
330
1F
100
AcDbEntity
  8
06-ダクト内線
  6
DASHED2
 48
0.2
100
AcDbCircle
 10
-8545.49201709876
 20
-23898.98688788913
 30
0.0
 40
1.4
100
AcDbArc
 50
270.0
 51
0.0
  0
LINE
  5
222
330
1F
100
AcDbEntity
  8
06-ダクト内線
  6
DASHED2
 48
0.2
100
AcDbLine
 10
-8573.49201709876
 20
-23900.38688788913
 30
0.0
 11
-8545.49201709876
 21
-23900.38688788913
 31
0.0
  0
LINE
  5
223
330
1F
100
AcDbEntity
  8
05-ダクト外線
100
AcDbLine
 10
-8543.49201709876
 20
-23898.98688788913
 30
0.0
 11
-8483.49201709876
 21
-23898.98688788913
 31
0.0
  0
INSERT
  5
227
330
1F
100
AcDbEntity
  8
寸法
100
AcDbBlockReference
  2
INS-D6616
 10
-8558.492999999999
 20
-23646.337
 30
0.0
  0
INSERT
  5
231
330
1F
100
AcDbEntity
  8
寸法
100
AcDbBlockReference
  2
INS-D82OP
 10
-8513.493
 20
-23646.337
 30
0.0
  0
TEXT
  5
238
330
1F
100
AcDbEntity
  8
03-文字-2
100
AcDbText
 10
-8847.563170944188
 20
-24023.15578125901
 30
0.0
 40
49.955
  1
Tカラーφ200-0.6t
 41
0.9971562090994912
 72
     1
 11
-8533.492017098033
 21
-23998.17828125901
 31
0.0
100
AcDbText
 73
     2
  0
LINE
  5
239
330
1F
100
AcDbEntity
  8
シンボル
100
AcDbLine
 10
-11518.49201709876
 20
-24200.0
 30
0.0
 11
-7518.492017098761
 21
-24200.0
 31
0.0
  0
TEXT
  5
23A
330
1F
100
AcDbEntity
  8
03-文字-2
100
AcDbText
 10
-11225.44915995588
 20
-24699.91000000012
 30
0.0
 40
199.82
  1
管径 φ225
 41
0.997383736138513
 72
     1
 11
-10518.49201709874
 21
-24600.00000000012
 31
0.0
100
AcDbText
 73
     2
  0
LINE
  5
23B
330
1F
100
AcDbEntity
  8
04-ダクトセンター
100
AcDbLine
 10
-8573.49201709876
 20
-24599.98688788913
 30
0.0
 11
-8483.49201709876
 21
-24599.98688788913
 31
0.0
  0
LINE
  5
23C
330
1F
100
AcDbEntity
  8
05-ダクト外線
100
AcDbLine
 10
-8573.49201709876
 20
-24737.48688788913
 30
0.0
 11
-8573.49201709876
 21
-24462.48688788913
 31
0.0
  0
LINE
  5
23D
330
1F
100
AcDbEntity
  8
05-ダクト外線
100
AcDbLine
 10
-8483.49201709876
 20
-24711.48688788913
 30
0.0
 11
-8483.49201709876
 21
-24488.48688788913
 31
0.0
  0
LINE
  5
23E
330
1F
100
AcDbEntity
  8
05-ダクト外線
100
AcDbLine
 10
-8483.49201709876
 20
-24488.48688788913
 30
0.0
 11
-8543.49201709876
 21
-24488.48688788913
 31
0.0
  0
LINE
  5
23F
330
1F
100
AcDbEntity
  8
05-ダクト外線
100
AcDbLine
 10
-8573.49201709876
 20
-24462.48688788913
 30
0.0
 11
-8572.892017098755
 21
-24462.48688788913
 31
0.0
  0
LINE
  5
240
330
1F
100
AcDbEntity
  8
05-ダクト外線
100
AcDbLine
 10
-8572.892017098755
 20
-24737.48688788913
 30
0.0
 11
-8572.892017098755
 21
-24462.48688788913
 31
0.0
  0
LINE
  5
241
330
1F
100
AcDbEntity
  8
05-ダクト外線
100
AcDbLine
 10
-8573.49201709876
 20
-24737.48688788913
 30
0.0
 11
-8572.892017098755
 21
-24737.48688788913
 31
0.0
  0
INSERT
  5
245
330
1F
100
AcDbEntity
  8
寸法
100
AcDbBlockReference
  2
INS-DEYHC
 10
-8443.1985
 20
-24599.987
 30
0.0
  0
INSERT
  5
24F
330
1F
100
AcDbEntity
  8
寸法
100
AcDbBlockReference
  2
INS-D608M
 10
-8619.293000000001
 20
-24599.987
 30
0.0
  0
LINE
  5
256
330
1F
100
AcDbEntity
  8
05-ダクト外線
100
AcDbLine
 10
-8543.49201709876
 20
-24711.48688788913
 30
0.0
 11
-8543.49201709876
 21
-24488.48688788913
 31
0.0
  0
LINE
  5
257
330
1F
100
AcDbEntity
  8
06-ダクト内線
  6
DASHED2
 48
0.2
100
AcDbLine
 10
-8483.49201709876
 20
-24489.08688788913
 30
0.0
 11
-8544.092017098767
 21
-24489.08688788913
 31
0.0
  0
LINE
  5
258
330
1F
100
AcDbEntity
  8
06-ダクト内線
  6
DASHED2
 48
0.2
100
AcDbLine
 10
-8544.092017098767
 20
-24710.88688788913
 30
0.0
 11
-8483.49201709876
 21
-24710.88688788913
 31
0.0
  0
LINE
  5
259
330
1F
100
AcDbEntity
  8
05-ダクト外線
100
AcDbLine
 10
-8572.892017098755
 20
-24486.48688788913
 30
0.0
 11
-8545.49201709876
 21
-24486.48688788913
 31
0.0
  0
LINE
  5
25A
330
1F
100
AcDbEntity
  8
05-ダクト外線
100
AcDbLine
 10
-8572.892017098755
 20
-24713.48688788913
 30
0.0
 11
-8545.49201709876
 21
-24713.48688788913
 31
0.0
  0
ARC
  5
25B
330
1F
100
AcDbEntity
  8
05-ダクト外線
100
AcDbCircle
 10
-8545.49201709876
 20
-24711.48688788913
 30
0.0
 40
2.0
100
AcDbArc
 50
270.0
 51
0.0
  0
ARC
  5
25C
330
1F
100
AcDbEntity
  8
05-ダクト外線
100
AcDbCircle
 10
-8545.49201709876
 20
-24488.48688788913
 30
0.0
 40
2.0
100
AcDbArc
 50
0.0
 51
90.0
  0
LINE
  5
25D
330
1F
100
AcDbEntity
  8
06-ダクト内線
  6
DASHED2
 48
0.2
100
AcDbLine
 10
-8544.092017098767
 20
-24711.48688788913
 30
0.0
 11
-8544.092017098767
 21
-24488.48688788913
 31
0.0
  0
ARC
  5
25E
330
1F
100
AcDbEntity
  8
06-ダクト内線
  6
DASHED2
 48
0.2
100
AcDbCircle
 10
-8545.49201709876
 20
-24488.48688788913
 30
0.0
 40
1.4
100
AcDbArc
 50
0.0
 51
90.0
  0
LINE
  5
25F
330
1F
100
AcDbEntity
  8
06-ダクト内線
  6
DASHED2
 48
0.2
100
AcDbLine
 10
-8573.49201709876
 20
-24487.08688788913
 30
0.0
 11
-8545.49201709876
 21
-24487.08688788913
 31
0.0
  0
ARC
  5
260
330
1F
100
AcDbEntity
  8
06-ダクト内線
  6
DASHED2
 48
0.2
100
AcDbCircle
 10
-8545.49201709876
 20
-24711.48688788913
 30
0.0
 40
1.4
100
AcDbArc
 50
270.0
 51
0.0
  0
LINE
  5
261
330
1F
100
AcDbEntity
  8
06-ダクト内線
  6
DASHED2
 48
0.2
100
AcDbLine
 10
-8573.49201709876
 20
-24712.88688788913
 30
0.0
 11
-8545.49201709876
 21
-24712.88688788913
 31
0.0
  0
LINE
  5
262
330
1F
100
AcDbEntity
  8
05-ダクト外線
100
AcDbLine
 10
-8543.49201709876
 20
-24711.48688788913
 30
0.0
 11
-8483.49201709876
 21
-24711.48688788913
 31
0.0
  0
INSERT
  5
266
330
1F
100
AcDbEntity
  8
寸法
100
AcDbBlockReference
  2
INS-DB2TE
 10
-8558.492999999999
 20
-24433.837
 30
0.0
  0
INSERT
  5
270
330
1F
100
AcDbEntity
  8
寸法
100
AcDbBlockReference
  2
INS-DF67R
 10
-8513.493
 20
-24433.837
 30
0.0
  0
TEXT
  5
277
330
1F
100
AcDbEntity
  8
03-文字-2
100
AcDbText
 10
-8856.151632483336
 20
-24835.65578125564
 30
0.0
 40
49.955
  1
Tカラーφ225-0.6t
 41
0.9971562090994912
 72
     1
 11
-8533.49201709872
 21
-24810.67828125564
 31
0.0
100
AcDbText
 73
     2
  0
LINE
  5
278
330
1F
100
AcDbEntity
  8
シンボル
100
AcDbLine
 10
-11518.49201709876
 20
-25000.0
 30
0.0
 11
-7518.492017098761
 21
-25000.0
 31
0.0
  0
TEXT
  5
279
330
1F
100
AcDbEntity
  8
03-文字-2
100
AcDbText
 10
-11208.46344567025
 20
-25499.91000000005
 30
0.0
 40
199.82
  1
管径 φ250
 41
0.997383736138513
 72
     1
 11
-10518.49201709882
 21
-25400.00000000005
 31
0.0
100
AcDbText
 73
     2
  0
LINE
  5
27A
330
1F
100
AcDbEntity
  8
04-ダクトセンター
100
AcDbLine
 10
-8573.49201709876
 20
-25399.98688788913
 30
0.0
 11
-8483.49201709876
 21
-25399.98688788913
 31
0.0
  0
LINE
  5
27B
330
1F
100
AcDbEntity
  8
05-ダクト外線
100
AcDbLine
 10
-8573.49201709876
 20
-25549.98688788913
 30
0.0
 11
-8573.49201709876
 21
-25249.98688788913
 31
0.0
  0
LINE
  5
27C
330
1F
100
AcDbEntity
  8
05-ダクト外線
100
AcDbLine
 10
-8483.49201709876
 20
-25523.98688788913
 30
0.0
 11
-8483.49201709876
 21
-25275.98688788913
 31
0.0
  0
LINE
  5
27D
330
1F
100
AcDbEntity
  8
05-ダクト外線
100
AcDbLine
 10
-8483.49201709876
 20
-25275.98688788913
 30
0.0
 11
-8543.49201709876
 21
-25275.98688788913
 31
0.0
  0
LINE
  5
27E
330
1F
100
AcDbEntity
  8
05-ダクト外線
100
AcDbLine
 10
-8573.49201709876
 20
-25249.98688788913
 30
0.0
 11
-8572.892017098755
 21
-25249.98688788913
 31
0.0
  0
LINE
  5
27F
330
1F
100
AcDbEntity
  8
05-ダクト外線
100
AcDbLine
 10
-8572.892017098755
 20
-25549.98688788913
 30
0.0
 11
-8572.892017098755
 21
-25249.98688788913
 31
0.0
  0
LINE
  5
280
330
1F
100
AcDbEntity
  8
05-ダクト外線
100
AcDbLine
 10
-8573.49201709876
 20
-25549.98688788913
 30
0.0
 11
-8572.892017098755
 21
-25549.98688788913
 31
0.0
  0
INSERT
  5
284
330
1F
100
AcDbEntity
  8
寸法
100
AcDbBlockReference
  2
INS-D5C4R
 10
-8443.1985
 20
-25399.987
 30
0.0
  0
INSERT
  5
28E
330
1F
100
AcDbEntity
  8
寸法
100
AcDbBlockReference
  2
INS-DD7KB
 10
-8619.293000000001
 20
-25399.987
 30
0.0
  0
LINE
  5
295
330
1F
100
AcDbEntity
  8
05-ダクト外線
100
AcDbLine
 10
-8543.49201709876
 20
-25523.98688788913
 30
0.0
 11
-8543.49201709876
 21
-25275.98688788913
 31
0.0
  0
LINE
  5
296
330
1F
100
AcDbEntity
  8
06-ダクト内線
  6
DASHED2
 48
0.2
100
AcDbLine
 10
-8483.49201709876
 20
-25276.58688788913
 30
0.0
 11
-8544.092017098767
 21
-25276.58688788913
 31
0.0
  0
LINE
  5
297
330
1F
100
AcDbEntity
  8
06-ダクト内線
  6
DASHED2
 48
0.2
100
AcDbLine
 10
-8544.092017098767
 20
-25523.38688788913
 30
0.0
 11
-8483.49201709876
 21
-25523.38688788913
 31
0.0
  0
LINE
  5
298
330
1F
100
AcDbEntity
  8
05-ダクト外線
100
AcDbLine
 10
-8572.892017098755
 20
-25273.98688788913
 30
0.0
 11
-8545.49201709876
 21
-25273.98688788913
 31
0.0
  0
LINE
  5
299
330
1F
100
AcDbEntity
  8
05-ダクト外線
100
AcDbLine
 10
-8572.892017098755
 20
-25525.98688788913
 30
0.0
 11
-8545.49201709876
 21
-25525.98688788913
 31
0.0
  0
ARC
  5
29A
330
1F
100
AcDbEntity
  8
05-ダクト外線
100
AcDbCircle
 10
-8545.49201709876
 20
-25523.98688788913
 30
0.0
 40
2.0
100
AcDbArc
 50
270.0
 51
0.0
  0
ARC
  5
29B
330
1F
100
AcDbEntity
  8
05-ダクト外線
100
AcDbCircle
 10
-8545.49201709876
 20
-25275.98688788913
 30
0.0
 40
2.0
100
AcDbArc
 50
0.0
 51
90.0
  0
LINE
  5
29C
330
1F
100
AcDbEntity
  8
06-ダクト内線
  6
DASHED2
 48
0.2
100
AcDbLine
 10
-8544.092017098767
 20
-25523.98688788913
 30
0.0
 11
-8544.092017098767
 21
-25275.98688788913
 31
0.0
  0
ARC
  5
29D
330
1F
100
AcDbEntity
  8
06-ダクト内線
  6
DASHED2
 48
0.2
100
AcDbCircle
 10
-8545.49201709876
 20
-25275.98688788913
 30
0.0
 40
1.4
100
AcDbArc
 50
0.0
 51
90.0
  0
LINE
  5
29E
330
1F
100
AcDbEntity
  8
06-ダクト内線
  6
DASHED2
 48
0.2
100
AcDbLine
 10
-8573.49201709876
 20
-25274.58688788913
 30
0.0
 11
-8545.49201709876
 21
-25274.58688788913
 31
0.0
  0
ARC
  5
29F
330
1F
100
AcDbEntity
  8
06-ダクト内線
  6
DASHED2
 48
0.2
100
AcDbCircle
 10
-8545.49201709876
 20
-25523.98688788913
 30
0.0
 40
1.4
100
AcDbArc
 50
270.0
 51
0.0
  0
LINE
  5
2A0
330
1F
100
AcDbEntity
  8
06-ダクト内線
  6
DASHED2
 48
0.2
100
AcDbLine
 10
-8573.49201709876
 20
-25525.38688788913
 30
0.0
 11
-8545.49201709876
 21
-25525.38688788913
 31
0.0
  0
LINE
  5
2A1
330
1F
100
AcDbEntity
  8
05-ダクト外線
100
AcDbLine
 10
-8543.49201709876
 20
-25523.98688788913
 30
0.0
 11
-8483.49201709876
 21
-25523.98688788913
 31
0.0
  0
INSERT
  5
2A5
330
1F
100
AcDbEntity
  8
寸法
100
AcDbBlockReference
  2
INS-D7Y40
 10
-8558.492999999999
 20
-25221.337
 30
0.0
  0
INSERT
  5
2AF
330
1F
100
AcDbEntity
  8
寸法
100
AcDbBlockReference
  2
INS-DFXSU
 10
-8513.493
 20
-25221.337
 30
0.0
  0
TEXT
  5
2B6
330
1F
100
AcDbEntity
  8
03-文字-2
100
AcDbText
 10
-8851.857401715151
 20
-25648.15578126159
 30
0.0
 40
49.955
  1
Tカラーφ250-0.6t
 41
0.9971562090994912
 72
     1
 11
-8533.492017099767
 21
-25623.17828126159
 31
0.0
100
AcDbText
 73
     2
  0
LINE
  5
2B7
330
1F
100
AcDbEntity
  8
シンボル
100
AcDbLine
 10
-11518.49201709876
 20
-25800.0
 30
0.0
 11
-7518.492017098761
 21
-25800.0
 31
0.0
  0
TEXT
  5
2B8
330
1F
100
AcDbEntity
  8
03-文字-2
100
AcDbText
 10
-11225.44915995612
 20
-26299.91000000001
 30
0.0
 40
199.82
  1
管径 φ275
 41
0.997383736138513
 72
     1
 11
-10518.49201709897
 21
-26200.00000000001
 31
0.0
100
AcDbText
 73
     2
  0
LINE
  5
2B9
330
1F
100
AcDbEntity
  8
04-ダクトセンター
100
AcDbLine
 10
-8573.49201709876
 20
-26199.98688788913
 30
0.0
 11
-8483.49201709876
 21
-26199.98688788913
 31
0.0
  0
LINE
  5
2BA
330
1F
100
AcDbEntity
  8
05-ダクト外線
100
AcDbLine
 10
-8573.49201709876
 20
-26362.48688788913
 30
0.0
 11
-8573.49201709876
 21
-26037.48688788913
 31
0.0
  0
LINE
  5
2BB
330
1F
100
AcDbEntity
  8
05-ダクト外線
100
AcDbLine
 10
-8483.49201709876
 20
-26336.48688788913
 30
0.0
 11
-8483.49201709876
 21
-26063.48688788913
 31
0.0
  0
LINE
  5
2BC
330
1F
100
AcDbEntity
  8
05-ダクト外線
100
AcDbLine
 10
-8483.49201709876
 20
-26063.48688788913
 30
0.0
 11
-8543.49201709876
 21
-26063.48688788913
 31
0.0
  0
LINE
  5
2BD
330
1F
100
AcDbEntity
  8
05-ダクト外線
100
AcDbLine
 10
-8573.49201709876
 20
-26037.48688788913
 30
0.0
 11
-8572.892017098755
 21
-26037.48688788913
 31
0.0
  0
LINE
  5
2BE
330
1F
100
AcDbEntity
  8
05-ダクト外線
100
AcDbLine
 10
-8572.892017098755
 20
-26362.48688788913
 30
0.0
 11
-8572.892017098755
 21
-26037.48688788913
 31
0.0
  0
LINE
  5
2BF
330
1F
100
AcDbEntity
  8
05-ダクト外線
100
AcDbLine
 10
-8573.49201709876
 20
-26362.48688788913
 30
0.0
 11
-8572.892017098755
 21
-26362.48688788913
 31
0.0
  0
INSERT
  5
2C3
330
1F
100
AcDbEntity
  8
寸法
100
AcDbBlockReference
  2
INS-D7KRU
 10
-8443.1985
 20
-26199.987
 30
0.0
  0
INSERT
  5
2CD
330
1F
100
AcDbEntity
  8
寸法
100
AcDbBlockReference
  2
INS-D6A7Z
 10
-8619.293000000001
 20
-26199.987
 30
0.0
  0
LINE
  5
2D4
330
1F
100
AcDbEntity
  8
05-ダクト外線
100
AcDbLine
 10
-8543.49201709876
 20
-26336.48688788913
 30
0.0
 11
-8543.49201709876
 21
-26063.48688788913
 31
0.0
  0
LINE
  5
2D5
330
1F
100
AcDbEntity
  8
06-ダクト内線
  6
DASHED2
 48
0.2
100
AcDbLine
 10
-8483.49201709876
 20
-26064.08688788913
 30
0.0
 11
-8544.092017098767
 21
-26064.08688788913
 31
0.0
  0
LINE
  5
2D6
330
1F
100
AcDbEntity
  8
06-ダクト内線
  6
DASHED2
 48
0.2
100
AcDbLine
 10
-8544.092017098767
 20
-26335.88688788913
 30
0.0
 11
-8483.49201709876
 21
-26335.88688788913
 31
0.0
  0
LINE
  5
2D7
330
1F
100
AcDbEntity
  8
05-ダクト外線
100
AcDbLine
 10
-8572.892017098755
 20
-26061.48688788913
 30
0.0
 11
-8545.49201709876
 21
-26061.48688788913
 31
0.0
  0
LINE
  5
2D8
330
1F
100
AcDbEntity
  8
05-ダクト外線
100
AcDbLine
 10
-8572.892017098755
 20
-26338.48688788913
 30
0.0
 11
-8545.49201709876
 21
-26338.48688788913
 31
0.0
  0
ARC
  5
2D9
330
1F
100
AcDbEntity
  8
05-ダクト外線
100
AcDbCircle
 10
-8545.49201709876
 20
-26336.48688788913
 30
0.0
 40
2.0
100
AcDbArc
 50
270.0
 51
0.0
  0
ARC
  5
2DA
330
1F
100
AcDbEntity
  8
05-ダクト外線
100
AcDbCircle
 10
-8545.49201709876
 20
-26063.48688788913
 30
0.0
 40
2.0
100
AcDbArc
 50
0.0
 51
90.0
  0
LINE
  5
2DB
330
1F
100
AcDbEntity
  8
06-ダクト内線
  6
DASHED2
 48
0.2
100
AcDbLine
 10
-8544.092017098767
 20
-26336.48688788913
 30
0.0
 11
-8544.092017098767
 21
-26063.48688788913
 31
0.0
  0
ARC
  5
2DC
330
1F
100
AcDbEntity
  8
06-ダクト内線
  6
DASHED2
 48
0.2
100
AcDbCircle
 10
-8545.49201709876
 20
-26063.48688788913
 30
0.0
 40
1.4
100
AcDbArc
 50
0.0
 51
90.0
  0
LINE
  5
2DD
330
1F
100
AcDbEntity
  8
06-ダクト内線
  6
DASHED2
 48
0.2
100
AcDbLine
 10
-8573.49201709876
 20
-26062.08688788913
 30
0.0
 11
-8545.49201709876
 21
-26062.08688788913
 31
0.0
  0
ARC
  5
2DE
330
1F
100
AcDbEntity
  8
06-ダクト内線
  6
DASHED2
 48
0.2
100
AcDbCircle
 10
-8545.49201709876
 20
-26336.48688788913
 30
0.0
 40
1.4
100
AcDbArc
 50
270.0
 51
0.0
  0
LINE
  5
2DF
330
1F
100
AcDbEntity
  8
06-ダクト内線
  6
DASHED2
 48
0.2
100
AcDbLine
 10
-8573.49201709876
 20
-26337.88688788913
 30
0.0
 11
-8545.49201709876
 21
-26337.88688788913
 31
0.0
  0
LINE
  5
2E0
330
1F
100
AcDbEntity
  8
05-ダクト外線
100
AcDbLine
 10
-8543.49201709876
 20
-26336.48688788913
 30
0.0
 11
-8483.49201709876
 21
-26336.48688788913
 31
0.0
  0
INSERT
  5
2E4
330
1F
100
AcDbEntity
  8
寸法
100
AcDbBlockReference
  2
INS-D8W38
 10
-8558.492999999999
 20
-26008.837
 30
0.0
  0
INSERT
  5
2EE
330
1F
100
AcDbEntity
  8
寸法
100
AcDbBlockReference
  2
INS-DLKI5
 10
-8513.493
 20
-26008.837
 30
0.0
  0
TEXT
  5
2F5
330
1F
100
AcDbEntity
  8
03-文字-2
100
AcDbText
 10
-8856.151632483128
 20
-26460.65578125712
 30
0.0
 40
49.955
  1
Tカラーφ275-0.6t
 41
0.9971562090994912
 72
     1
 11
-8533.492017098513
 21
-26435.67828125712
 31
0.0
100
AcDbText
 73
     2
  0
LINE
  5
2F6
330
1F
100
AcDbEntity
  8
シンボル
100
AcDbLine
 10
-11518.49201709876
 20
-26600.0
 30
0.0
 11
-7518.492017098761
 21
-26600.0
 31
0.0
  0
TEXT
  5
2F7
330
1F
100
AcDbEntity
  8
03-文字-2
100
AcDbText
 10
-11191.47773138412
 20
-27199.90999999927
 30
0.0
 40
199.82
  1
管径 φ300
 41
0.997383736138513
 72
     1
 11
-10518.4920170984
 21
-27099.99999999927
 31
0.0
100
AcDbText
 73
     2
  0
LINE
  5
2F8
330
1F
100
AcDbEntity
  8
04-ダクトセンター
100
AcDbLine
 10
-8573.49201709876
 20
-27099.98688788913
 30
0.0
 11
-8483.49201709876
 21
-27099.98688788913
 31
0.0
  0
LINE
  5
2F9
330
1F
100
AcDbEntity
  8
05-ダクト外線
100
AcDbLine
 10
-8573.49201709876
 20
-27274.98688788913
 30
0.0
 11
-8573.49201709876
 21
-26924.98688788913
 31
0.0
  0
LINE
  5
2FA
330
1F
100
AcDbEntity
  8
05-ダクト外線
100
AcDbLine
 10
-8483.49201709876
 20
-27248.98688788913
 30
0.0
 11
-8483.49201709876
 21
-26950.98688788913
 31
0.0
  0
LINE
  5
2FB
330
1F
100
AcDbEntity
  8
05-ダクト外線
100
AcDbLine
 10
-8483.49201709876
 20
-26950.98688788913
 30
0.0
 11
-8543.49201709876
 21
-26950.98688788913
 31
0.0
  0
LINE
  5
2FC
330
1F
100
AcDbEntity
  8
05-ダクト外線
100
AcDbLine
 10
-8573.49201709876
 20
-26924.98688788913
 30
0.0
 11
-8572.892017098755
 21
-26924.98688788913
 31
0.0
  0
LINE
  5
2FD
330
1F
100
AcDbEntity
  8
05-ダクト外線
100
AcDbLine
 10
-8572.892017098755
 20
-27274.98688788913
 30
0.0
 11
-8572.892017098755
 21
-26924.98688788913
 31
0.0
  0
LINE
  5
2FE
330
1F
100
AcDbEntity
  8
05-ダクト外線
100
AcDbLine
 10
-8573.49201709876
 20
-27274.98688788913
 30
0.0
 11
-8572.892017098755
 21
-27274.98688788913
 31
0.0
  0
INSERT
  5
302
330
1F
100
AcDbEntity
  8
寸法
100
AcDbBlockReference
  2
INS-DTYNH
 10
-8443.1985
 20
-27099.987
 30
0.0
  0
INSERT
  5
30C
330
1F
100
AcDbEntity
  8
寸法
100
AcDbBlockReference
  2
INS-DF92C
 10
-8619.293000000001
 20
-27099.987
 30
0.0
  0
LINE
  5
313
330
1F
100
AcDbEntity
  8
05-ダクト外線
100
AcDbLine
 10
-8543.49201709876
 20
-27248.98688788913
 30
0.0
 11
-8543.49201709876
 21
-26950.98688788913
 31
0.0
  0
LINE
  5
314
330
1F
100
AcDbEntity
  8
06-ダクト内線
  6
DASHED2
 48
0.2
100
AcDbLine
 10
-8483.49201709876
 20
-26951.58688788913
 30
0.0
 11
-8544.092017098767
 21
-26951.58688788913
 31
0.0
  0
LINE
  5
315
330
1F
100
AcDbEntity
  8
06-ダクト内線
  6
DASHED2
 48
0.2
100
AcDbLine
 10
-8544.092017098767
 20
-27248.38688788913
 30
0.0
 11
-8483.49201709876
 21
-27248.38688788913
 31
0.0
  0
LINE
  5
316
330
1F
100
AcDbEntity
  8
05-ダクト外線
100
AcDbLine
 10
-8572.892017098755
 20
-26948.98688788913
 30
0.0
 11
-8545.49201709876
 21
-26948.98688788913
 31
0.0
  0
LINE
  5
317
330
1F
100
AcDbEntity
  8
05-ダクト外線
100
AcDbLine
 10
-8572.892017098755
 20
-27250.98688788913
 30
0.0
 11
-8545.49201709876
 21
-27250.98688788913
 31
0.0
  0
ARC
  5
318
330
1F
100
AcDbEntity
  8
05-ダクト外線
100
AcDbCircle
 10
-8545.49201709876
 20
-27248.98688788913
 30
0.0
 40
2.0
100
AcDbArc
 50
270.0
 51
0.0
  0
ARC
  5
319
330
1F
100
AcDbEntity
  8
05-ダクト外線
100
AcDbCircle
 10
-8545.49201709876
 20
-26950.98688788913
 30
0.0
 40
2.0
100
AcDbArc
 50
0.0
 51
90.0
  0
LINE
  5
31A
330
1F
100
AcDbEntity
  8
06-ダクト内線
  6
DASHED2
 48
0.2
100
AcDbLine
 10
-8544.092017098767
 20
-27248.98688788913
 30
0.0
 11
-8544.092017098767
 21
-26950.98688788913
 31
0.0
  0
ARC
  5
31B
330
1F
100
AcDbEntity
  8
06-ダクト内線
  6
DASHED2
 48
0.2
100
AcDbCircle
 10
-8545.49201709876
 20
-26950.98688788913
 30
0.0
 40
1.4
100
AcDbArc
 50
0.0
 51
90.0
  0
LINE
  5
31C
330
1F
100
AcDbEntity
  8
06-ダクト内線
  6
DASHED2
 48
0.2
100
AcDbLine
 10
-8573.49201709876
 20
-26949.58688788913
 30
0.0
 11
-8545.49201709876
 21
-26949.58688788913
 31
0.0
  0
ARC
  5
31D
330
1F
100
AcDbEntity
  8
06-ダクト内線
  6
DASHED2
 48
0.2
100
AcDbCircle
 10
-8545.49201709876
 20
-27248.98688788913
 30
0.0
 40
1.4
100
AcDbArc
 50
270.0
 51
0.0
  0
LINE
  5
31E
330
1F
100
AcDbEntity
  8
06-ダクト内線
  6
DASHED2
 48
0.2
100
AcDbLine
 10
-8573.49201709876
 20
-27250.38688788913
 30
0.0
 11
-8545.49201709876
 21
-27250.38688788913
 31
0.0
  0
LINE
  5
31F
330
1F
100
AcDbEntity
  8
05-ダクト外線
100
AcDbLine
 10
-8543.49201709876
 20
-27248.98688788913
 30
0.0
 11
-8483.49201709876
 21
-27248.98688788913
 31
0.0
  0
INSERT
  5
323
330
1F
100
AcDbEntity
  8
寸法
100
AcDbBlockReference
  2
INS-D5ABQ
 10
-8558.492999999999
 20
-26896.337
 30
0.0
  0
INSERT
  5
32D
330
1F
100
AcDbEntity
  8
寸法
100
AcDbBlockReference
  2
INS-D4P7Z
 10
-8513.493
 20
-26896.337
 30
0.0
  0
TEXT
  5
334
330
1F
100
AcDbEntity
  8
03-文字-2
100
AcDbText
 10
-8847.563170944592
 20
-27373.15578125917
 30
0.0
 40
49.955
  1
Tカラーφ300-0.6t
 41
0.9971562090994912
 72
     1
 11
-8533.492017098437
 21
-27348.17828125917
 31
0.0
100
AcDbText
 73
     2
  0
LINE
  5
335
330
1F
100
AcDbEntity
  8
シンボル
100
AcDbLine
 10
-11518.49201709876
 20
-27600.0
 30
0.0
 11
-7518.492017098761
 21
-27600.0
 31
0.0
  0
TEXT
  5
336
330
1F
100
AcDbEntity
  8
03-文字-2
100
AcDbText
 10
-11225.4491599564
 20
-28199.910000001
 30
0.0
 40
199.82
  1
管径 φ325
 41
0.997383736138513
 72
     1
 11
-10518.49201709926
 21
-28100.000000001
 31
0.0
100
AcDbText
 73
     2
  0
LINE
  5
337
330
1F
100
AcDbEntity
  8
04-ダクトセンター
100
AcDbLine
 10
-8583.49201709876
 20
-28099.98688788913
 30
0.0
 11
-8493.49201709876
 21
-28099.98688788913
 31
0.0
  0
LINE
  5
338
330
1F
100
AcDbEntity
  8
05-ダクト外線
100
AcDbLine
 10
-8583.49201709876
 20
-28287.48688788913
 30
0.0
 11
-8583.49201709876
 21
-27912.48688788913
 31
0.0
  0
LINE
  5
339
330
1F
100
AcDbEntity
  8
05-ダクト外線
100
AcDbLine
 10
-8493.49201709876
 20
-28261.48688788913
 30
0.0
 11
-8493.49201709876
 21
-27938.48688788913
 31
0.0
  0
LINE
  5
33A
330
1F
100
AcDbEntity
  8
05-ダクト外線
100
AcDbLine
 10
-8493.49201709876
 20
-27938.48688788913
 30
0.0
 11
-8553.49201709876
 21
-27938.48688788913
 31
0.0
  0
LINE
  5
33B
330
1F
100
AcDbEntity
  8
05-ダクト外線
100
AcDbLine
 10
-8583.49201709876
 20
-27912.48688788913
 30
0.0
 11
-8582.692017098772
 21
-27912.48688788913
 31
0.0
  0
LINE
  5
33C
330
1F
100
AcDbEntity
  8
05-ダクト外線
100
AcDbLine
 10
-8582.692017098772
 20
-28287.48688788913
 30
0.0
 11
-8582.692017098772
 21
-27912.48688788913
 31
0.0
  0
LINE
  5
33D
330
1F
100
AcDbEntity
  8
05-ダクト外線
100
AcDbLine
 10
-8583.49201709876
 20
-28287.48688788913
 30
0.0
 11
-8582.692017098772
 21
-28287.48688788913
 31
0.0
  0
INSERT
  5
341
330
1F
100
AcDbEntity
  8
寸法
100
AcDbBlockReference
  2
INS-D5QZ8
 10
-8453.1985
 20
-28099.987
 30
0.0
  0
INSERT
  5
34B
330
1F
100
AcDbEntity
  8
寸法
100
AcDbBlockReference
  2
INS-D7YC8
 10
-8629.293000000001
 20
-28099.987
 30
0.0
  0
LINE
  5
352
330
1F
100
AcDbEntity
  8
05-ダクト外線
100
AcDbLine
 10
-8553.49201709876
 20
-28261.48688788913
 30
0.0
 11
-8553.49201709876
 21
-27938.48688788913
 31
0.0
  0
LINE
  5
353
330
1F
100
AcDbEntity
  8
05-ダクト外線
100
AcDbLine
 10
-8582.692017098772
 20
-27936.48688788913
 30
0.0
 11
-8555.49201709876
 21
-27936.48688788913
 31
0.0
  0
LINE
  5
354
330
1F
100
AcDbEntity
  8
05-ダクト外線
100
AcDbLine
 10
-8582.692017098772
 20
-28263.48688788913
 30
0.0
 11
-8555.49201709876
 21
-28263.48688788913
 31
0.0
  0
ARC
  5
355
330
1F
100
AcDbEntity
  8
05-ダクト外線
100
AcDbCircle
 10
-8555.49201709876
 20
-28261.48688788913
 30
0.0
 40
2.0
100
AcDbArc
 50
270.0
 51
0.0
  0
ARC
  5
356
330
1F
100
AcDbEntity
  8
05-ダクト外線
100
AcDbCircle
 10
-8555.49201709876
 20
-27938.48688788913
 30
0.0
 40
2.0
100
AcDbArc
 50
0.0
 51
90.0
  0
LINE
  5
357
330
1F
100
AcDbEntity
  8
05-ダクト外線
100
AcDbLine
 10
-8553.49201709876
 20
-28261.48688788913
 30
0.0
 11
-8493.49201709876
 21
-28261.48688788913
 31
0.0
  0
INSERT
  5
35B
330
1F
100
AcDbEntity
  8
寸法
100
AcDbBlockReference
  2
INS-D5QUU
 10
-8568.492999999999
 20
-27883.837
 30
0.0
  0
INSERT
  5
365
330
1F
100
AcDbEntity
  8
寸法
100
AcDbBlockReference
  2
INS-D404J
 10
-8523.493
 20
-27883.837
 30
0.0
  0
TEXT
  5
36C
330
1F
100
AcDbEntity
  8
03-文字-2
100
AcDbText
 10
-8856.151632483336
 20
-28385.65578125815
 30
0.0
 40
49.955
  1
Tカラーφ325-0.8t
 41
0.9971562090994912
 72
     1
 11
-8533.49201709872
 21
-28360.67828125815
 31
0.0
100
AcDbText
 73
     2
  0
LINE
  5
36D
330
1F
100
AcDbEntity
  8
シンボル
100
AcDbLine
 10
-11518.49201709876
 20
-28600.0
 30
0.0
 11
-7518.492017098761
 21
-28600.0
 31
0.0
  0
LINE
  5
36E
330
1F
100
AcDbEntity
  8
06-ダクト内線
  6
DASHED2
 62
    20
 48
0.2
100
AcDbLine
 10
-8583.49201709876
 20
-27937.28688788913
 30
0.0
 11
-8555.49201709876
 21
-27937.28688788913
 31
0.0
  0
ARC
  5
36F
330
1F
100
AcDbEntity
  8
06-ダクト内線
  6
DASHED2
 62
    20
 48
0.2
100
AcDbCircle
 10
-8555.49201709876
 20
-27938.48688788913
 30
0.0
 40
1.2
100
AcDbArc
 50
0.0
 51
90.0
  0
LINE
  5
370
330
1F
100
AcDbEntity
  8
06-ダクト内線
  6
DASHED2
 62
    20
 48
0.2
100
AcDbLine
 10
-8554.292017098749
 20
-28261.48688788913
 30
0.0
 11
-8554.292017098749
 21
-27938.48688788913
 31
0.0
  0
LINE
  5
371
330
1F
100
AcDbEntity
  8
06-ダクト内線
  6
DASHED2
 62
    20
 48
0.2
100
AcDbLine
 10
-8493.49201709876
 20
-27939.28688788913
 30
0.0
 11
-8554.292017098749
 21
-27939.28688788913
 31
0.0
  0
LINE
  5
372
330
1F
100
AcDbEntity
  8
06-ダクト内線
  6
DASHED2
 62
    20
 48
0.2
100
AcDbLine
 10
-8554.292017098749
 20
-28260.68688788913
 30
0.0
 11
-8493.49201709876
 21
-28260.68688788913
 31
0.0
  0
ARC
  5
373
330
1F
100
AcDbEntity
  8
06-ダクト内線
  6
DASHED2
 62
    20
 48
0.2
100
AcDbCircle
 10
-8555.49201709876
 20
-28261.48688788913
 30
0.0
 40
1.2
100
AcDbArc
 50
270.0
 51
0.0
  0
LINE
  5
374
330
1F
100
AcDbEntity
  8
06-ダクト内線
  6
DASHED2
 62
    20
 48
0.2
100
AcDbLine
 10
-8583.49201709876
 20
-28262.68688788913
 30
0.0
 11
-8555.49201709876
 21
-28262.68688788913
 31
0.0
  0
TEXT
  5
375
330
1F
100
AcDbEntity
  8
03-文字-2
100
AcDbText
 10
-11208.46344566989
 20
-29199.91000000099
 30
0.0
 40
199.82
  1
管径 φ350
 41
0.997383736138513
 72
     1
 11
-10518.49201709846
 21
-29100.00000000099
 31
0.0
100
AcDbText
 73
     2
  0
LINE
  5
376
330
1F
100
AcDbEntity
  8
04-ダクトセンター
100
AcDbLine
 10
-8583.49201709876
 20
-29099.98688788913
 30
0.0
 11
-8493.49201709876
 21
-29099.98688788913
 31
0.0
  0
LINE
  5
377
330
1F
100
AcDbEntity
  8
05-ダクト外線
100
AcDbLine
 10
-8583.49201709876
 20
-29299.98688788913
 30
0.0
 11
-8583.49201709876
 21
-28899.98688788913
 31
0.0
  0
LINE
  5
378
330
1F
100
AcDbEntity
  8
05-ダクト外線
100
AcDbLine
 10
-8493.49201709876
 20
-29273.98688788913
 30
0.0
 11
-8493.49201709876
 21
-28925.98688788913
 31
0.0
  0
LINE
  5
379
330
1F
100
AcDbEntity
  8
05-ダクト外線
100
AcDbLine
 10
-8493.49201709876
 20
-28925.98688788913
 30
0.0
 11
-8553.49201709876
 21
-28925.98688788913
 31
0.0
  0
LINE
  5
37A
330
1F
100
AcDbEntity
  8
05-ダクト外線
100
AcDbLine
 10
-8583.49201709876
 20
-28899.98688788913
 30
0.0
 11
-8582.692017098772
 21
-28899.98688788913
 31
0.0
  0
LINE
  5
37B
330
1F
100
AcDbEntity
  8
05-ダクト外線
100
AcDbLine
 10
-8582.692017098772
 20
-29299.98688788913
 30
0.0
 11
-8582.692017098772
 21
-28899.98688788913
 31
0.0
  0
LINE
  5
37C
330
1F
100
AcDbEntity
  8
05-ダクト外線
100
AcDbLine
 10
-8583.49201709876
 20
-29299.98688788913
 30
0.0
 11
-8582.692017098772
 21
-29299.98688788913
 31
0.0
  0
INSERT
  5
380
330
1F
100
AcDbEntity
  8
寸法
100
AcDbBlockReference
  2
INS-D6GJL
 10
-8453.1985
 20
-29099.987
 30
0.0
  0
INSERT
  5
38A
330
1F
100
AcDbEntity
  8
寸法
100
AcDbBlockReference
  2
INS-D6IK5
 10
-8629.293000000001
 20
-29099.987
 30
0.0
  0
LINE
  5
391
330
1F
100
AcDbEntity
  8
05-ダクト外線
100
AcDbLine
 10
-8553.49201709876
 20
-29273.98688788913
 30
0.0
 11
-8553.49201709876
 21
-28925.98688788913
 31
0.0
  0
LINE
  5
392
330
1F
100
AcDbEntity
  8
05-ダクト外線
100
AcDbLine
 10
-8582.692017098772
 20
-28923.98688788913
 30
0.0
 11
-8555.49201709876
 21
-28923.98688788913
 31
0.0
  0
LINE
  5
393
330
1F
100
AcDbEntity
  8
05-ダクト外線
100
AcDbLine
 10
-8582.692017098772
 20
-29275.98688788913
 30
0.0
 11
-8555.49201709876
 21
-29275.98688788913
 31
0.0
  0
ARC
  5
394
330
1F
100
AcDbEntity
  8
05-ダクト外線
100
AcDbCircle
 10
-8555.49201709876
 20
-29273.98688788913
 30
0.0
 40
2.0
100
AcDbArc
 50
270.0
 51
0.0
  0
ARC
  5
395
330
1F
100
AcDbEntity
  8
05-ダクト外線
100
AcDbCircle
 10
-8555.49201709876
 20
-28925.98688788913
 30
0.0
 40
2.0
100
AcDbArc
 50
0.0
 51
90.0
  0
LINE
  5
396
330
1F
100
AcDbEntity
  8
05-ダクト外線
100
AcDbLine
 10
-8553.49201709876
 20
-29273.98688788913
 30
0.0
 11
-8493.49201709876
 21
-29273.98688788913
 31
0.0
  0
INSERT
  5
39A
330
1F
100
AcDbEntity
  8
寸法
100
AcDbBlockReference
  2
INS-D8ITQ
 10
-8568.492999999999
 20
-28871.337
 30
0.0
  0
INSERT
  5
3A4
330
1F
100
AcDbEntity
  8
寸法
100
AcDbBlockReference
  2
INS-DA1RF
 10
-8523.493
 20
-28871.337
 30
0.0
  0
TEXT
  5
3AB
330
1F
100
AcDbEntity
  8
03-文字-2
100
AcDbText
 10
-8851.85740171422
 20
-29398.15578125742
 30
0.0
 40
49.955
  1
Tカラーφ350-0.8t
 41
0.9971562090994912
 72
     1
 11
-8533.492017098835
 21
-29373.17828125742
 31
0.0
100
AcDbText
 73
     2
  0
LINE
  5
3AC
330
1F
100
AcDbEntity
  8
シンボル
100
AcDbLine
 10
-11518.49201709876
 20
-29600.0
 30
0.0
 11
-7518.492017098761
 21
-29600.0
 31
0.0
  0
LINE
  5
3AD
330
1F
100
AcDbEntity
  8
06-ダクト内線
  6
DASHED2
 62
    20
 48
0.2
100
AcDbLine
 10
-8583.49201709876
 20
-28924.78688788913
 30
0.0
 11
-8555.49201709876
 21
-28924.78688788913
 31
0.0
  0
ARC
  5
3AE
330
1F
100
AcDbEntity
  8
06-ダクト内線
  6
DASHED2
 62
    20
 48
0.2
100
AcDbCircle
 10
-8555.49201709876
 20
-28925.98688788913
 30
0.0
 40
1.2
100
AcDbArc
 50
0.0
 51
90.0
  0
LINE
  5
3AF
330
1F
100
AcDbEntity
  8
06-ダクト内線
  6
DASHED2
 62
    20
 48
0.2
100
AcDbLine
 10
-8554.292017098749
 20
-29273.98688788913
 30
0.0
 11
-8554.292017098749
 21
-28925.98688788913
 31
0.0
  0
LINE
  5
3B0
330
1F
100
AcDbEntity
  8
06-ダクト内線
  6
DASHED2
 62
    20
 48
0.2
100
AcDbLine
 10
-8493.49201709876
 20
-28926.78688788913
 30
0.0
 11
-8554.292017098749
 21
-28926.78688788913
 31
0.0
  0
LINE
  5
3B1
330
1F
100
AcDbEntity
  8
06-ダクト内線
  6
DASHED2
 62
    20
 48
0.2
100
AcDbLine
 10
-8554.292017098749
 20
-29273.18688788913
 30
0.0
 11
-8493.49201709876
 21
-29273.18688788913
 31
0.0
  0
ARC
  5
3B2
330
1F
100
AcDbEntity
  8
06-ダクト内線
  6
DASHED2
 62
    20
 48
0.2
100
AcDbCircle
 10
-8555.49201709876
 20
-29273.98688788913
 30
0.0
 40
1.2
100
AcDbArc
 50
270.0
 51
0.0
  0
LINE
  5
3B3
330
1F
100
AcDbEntity
  8
06-ダクト内線
  6
DASHED2
 62
    20
 48
0.2
100
AcDbLine
 10
-8583.49201709876
 20
-29275.18688788913
 30
0.0
 11
-8555.49201709876
 21
-29275.18688788913
 31
0.0
  0
TEXT
  5
3B4
330
1F
100
AcDbEntity
  8
03-文字-2
100
AcDbText
 10
-11225.44915995594
 20
-30199.90999999892
 30
0.0
 40
199.82
  1
管径 φ375
 41
0.997383736138513
 72
     1
 11
-10518.49201709879
 21
-30099.99999999892
 31
0.0
100
AcDbText
 73
     2
  0
LINE
  5
3B5
330
1F
100
AcDbEntity
  8
04-ダクトセンター
100
AcDbLine
 10
-8583.49201709876
 20
-30099.98688788913
 30
0.0
 11
-8493.49201709876
 21
-30099.98688788913
 31
0.0
  0
LINE
  5
3B6
330
1F
100
AcDbEntity
  8
05-ダクト外線
100
AcDbLine
 10
-8583.49201709876
 20
-30312.48688788913
 30
0.0
 11
-8583.49201709876
 21
-29887.48688788913
 31
0.0
  0
LINE
  5
3B7
330
1F
100
AcDbEntity
  8
05-ダクト外線
100
AcDbLine
 10
-8493.49201709876
 20
-30286.48688788913
 30
0.0
 11
-8493.49201709876
 21
-29913.48688788913
 31
0.0
  0
LINE
  5
3B8
330
1F
100
AcDbEntity
  8
05-ダクト外線
100
AcDbLine
 10
-8493.49201709876
 20
-29913.48688788913
 30
0.0
 11
-8553.49201709876
 21
-29913.48688788913
 31
0.0
  0
LINE
  5
3B9
330
1F
100
AcDbEntity
  8
05-ダクト外線
100
AcDbLine
 10
-8583.49201709876
 20
-29887.48688788913
 30
0.0
 11
-8582.692017098772
 21
-29887.48688788913
 31
0.0
  0
LINE
  5
3BA
330
1F
100
AcDbEntity
  8
05-ダクト外線
100
AcDbLine
 10
-8582.692017098772
 20
-30312.48688788913
 30
0.0
 11
-8582.692017098772
 21
-29887.48688788913
 31
0.0
  0
LINE
  5
3BB
330
1F
100
AcDbEntity
  8
05-ダクト外線
100
AcDbLine
 10
-8583.49201709876
 20
-30312.48688788913
 30
0.0
 11
-8582.692017098772
 21
-30312.48688788913
 31
0.0
  0
INSERT
  5
3BF
330
1F
100
AcDbEntity
  8
寸法
100
AcDbBlockReference
  2
INS-D8XQA
 10
-8453.1985
 20
-30099.987
 30
0.0
  0
INSERT
  5
3C9
330
1F
100
AcDbEntity
  8
寸法
100
AcDbBlockReference
  2
INS-D60BS
 10
-8629.293000000001
 20
-30099.987
 30
0.0
  0
LINE
  5
3D0
330
1F
100
AcDbEntity
  8
05-ダクト外線
100
AcDbLine
 10
-8553.49201709876
 20
-30286.48688788913
 30
0.0
 11
-8553.49201709876
 21
-29913.48688788913
 31
0.0
  0
LINE
  5
3D1
330
1F
100
AcDbEntity
  8
05-ダクト外線
100
AcDbLine
 10
-8582.692017098772
 20
-29911.48688788913
 30
0.0
 11
-8555.49201709876
 21
-29911.48688788913
 31
0.0
  0
LINE
  5
3D2
330
1F
100
AcDbEntity
  8
05-ダクト外線
100
AcDbLine
 10
-8582.692017098772
 20
-30288.48688788913
 30
0.0
 11
-8555.49201709876
 21
-30288.48688788913
 31
0.0
  0
ARC
  5
3D3
330
1F
100
AcDbEntity
  8
05-ダクト外線
100
AcDbCircle
 10
-8555.49201709876
 20
-30286.48688788913
 30
0.0
 40
2.0
100
AcDbArc
 50
270.0
 51
0.0
  0
ARC
  5
3D4
330
1F
100
AcDbEntity
  8
05-ダクト外線
100
AcDbCircle
 10
-8555.49201709876
 20
-29913.48688788913
 30
0.0
 40
2.0
100
AcDbArc
 50
0.0
 51
90.0
  0
LINE
  5
3D5
330
1F
100
AcDbEntity
  8
05-ダクト外線
100
AcDbLine
 10
-8553.49201709876
 20
-30286.48688788913
 30
0.0
 11
-8493.49201709876
 21
-30286.48688788913
 31
0.0
  0
INSERT
  5
3D9
330
1F
100
AcDbEntity
  8
寸法
100
AcDbBlockReference
  2
INS-DR30T
 10
-8568.492999999999
 20
-29858.837
 30
0.0
  0
INSERT
  5
3E3
330
1F
100
AcDbEntity
  8
寸法
100
AcDbBlockReference
  2
INS-DIV8F
 10
-8523.493
 20
-29858.837
 30
0.0
  0
TEXT
  5
3EA
330
1F
100
AcDbEntity
  8
03-文字-2
100
AcDbText
 10
-8856.151632483336
 20
-30410.65578125932
 30
0.0
 40
49.955
  1
Tカラーφ375-0.8t
 41
0.9971562090994912
 72
     1
 11
-8533.49201709872
 21
-30385.67828125932
 31
0.0
100
AcDbText
 73
     2
  0
LINE
  5
3EB
330
1F
100
AcDbEntity
  8
シンボル
100
AcDbLine
 10
-11518.49201709876
 20
-30600.0
 30
0.0
 11
-7518.492017098761
 21
-30600.0
 31
0.0
  0
LINE
  5
3EC
330
1F
100
AcDbEntity
  8
06-ダクト内線
  6
DASHED2
 62
    20
 48
0.2
100
AcDbLine
 10
-8583.49201709876
 20
-29912.28688788913
 30
0.0
 11
-8555.49201709876
 21
-29912.28688788913
 31
0.0
  0
ARC
  5
3ED
330
1F
100
AcDbEntity
  8
06-ダクト内線
  6
DASHED2
 62
    20
 48
0.2
100
AcDbCircle
 10
-8555.49201709876
 20
-29913.48688788913
 30
0.0
 40
1.2
100
AcDbArc
 50
0.0
 51
90.0
  0
LINE
  5
3EE
330
1F
100
AcDbEntity
  8
06-ダクト内線
  6
DASHED2
 62
    20
 48
0.2
100
AcDbLine
 10
-8554.292017098749
 20
-30286.48688788913
 30
0.0
 11
-8554.292017098749
 21
-29913.48688788913
 31
0.0
  0
LINE
  5
3EF
330
1F
100
AcDbEntity
  8
06-ダクト内線
  6
DASHED2
 62
    20
 48
0.2
100
AcDbLine
 10
-8493.49201709876
 20
-29914.28688788913
 30
0.0
 11
-8554.292017098749
 21
-29914.28688788913
 31
0.0
  0
LINE
  5
3F0
330
1F
100
AcDbEntity
  8
06-ダクト内線
  6
DASHED2
 62
    20
 48
0.2
100
AcDbLine
 10
-8554.292017098749
 20
-30285.68688788913
 30
0.0
 11
-8493.49201709876
 21
-30285.68688788913
 31
0.0
  0
ARC
  5
3F1
330
1F
100
AcDbEntity
  8
06-ダクト内線
  6
DASHED2
 62
    20
 48
0.2
100
AcDbCircle
 10
-8555.49201709876
 20
-30286.48688788913
 30
0.0
 40
1.2
100
AcDbArc
 50
270.0
 51
0.0
  0
LINE
  5
3F2
330
1F
100
AcDbEntity
  8
06-ダクト内線
  6
DASHED2
 62
    20
 48
0.2
100
AcDbLine
 10
-8583.49201709876
 20
-30287.68688788913
 30
0.0
 11
-8555.49201709876
 21
-30287.68688788913
 31
0.0
  0
TEXT
  5
3F3
330
1F
100
AcDbEntity
  8
03-文字-2
100
AcDbText
 10
-11191.47773138474
 20
-31199.90999999996
 30
0.0
 40
199.82
  1
管径 φ400
 41
0.997383736138513
 72
     1
 11
-10518.49201709902
 21
-31099.99999999996
 31
0.0
100
AcDbText
 73
     2
  0
LINE
  5
3F4
330
1F
100
AcDbEntity
  8
04-ダクトセンター
100
AcDbLine
 10
-8583.49201709876
 20
-31099.98688788913
 30
0.0
 11
-8493.49201709876
 21
-31099.98688788913
 31
0.0
  0
LINE
  5
3F5
330
1F
100
AcDbEntity
  8
05-ダクト外線
100
AcDbLine
 10
-8583.49201709876
 20
-31324.98688788913
 30
0.0
 11
-8583.49201709876
 21
-30874.98688788913
 31
0.0
  0
LINE
  5
3F6
330
1F
100
AcDbEntity
  8
05-ダクト外線
100
AcDbLine
 10
-8493.49201709876
 20
-31298.98688788913
 30
0.0
 11
-8493.49201709876
 21
-30900.98688788913
 31
0.0
  0
LINE
  5
3F7
330
1F
100
AcDbEntity
  8
05-ダクト外線
100
AcDbLine
 10
-8493.49201709876
 20
-30900.98688788913
 30
0.0
 11
-8553.49201709876
 21
-30900.98688788913
 31
0.0
  0
LINE
  5
3F8
330
1F
100
AcDbEntity
  8
05-ダクト外線
100
AcDbLine
 10
-8583.49201709876
 20
-30874.98688788913
 30
0.0
 11
-8582.692017098772
 21
-30874.98688788913
 31
0.0
  0
LINE
  5
3F9
330
1F
100
AcDbEntity
  8
05-ダクト外線
100
AcDbLine
 10
-8582.692017098772
 20
-31324.98688788913
 30
0.0
 11
-8582.692017098772
 21
-30874.98688788913
 31
0.0
  0
LINE
  5
3FA
330
1F
100
AcDbEntity
  8
05-ダクト外線
100
AcDbLine
 10
-8583.49201709876
 20
-31324.98688788913
 30
0.0
 11
-8582.692017098772
 21
-31324.98688788913
 31
0.0
  0
INSERT
  5
3FE
330
1F
100
AcDbEntity
  8
寸法
100
AcDbBlockReference
  2
INS-DAQT9
 10
-8453.1985
 20
-31099.987
 30
0.0
  0
INSERT
  5
408
330
1F
100
AcDbEntity
  8
寸法
100
AcDbBlockReference
  2
INS-D7A45
 10
-8629.293000000001
 20
-31099.987
 30
0.0
  0
LINE
  5
40F
330
1F
100
AcDbEntity
  8
05-ダクト外線
100
AcDbLine
 10
-8553.49201709876
 20
-31298.98688788913
 30
0.0
 11
-8553.49201709876
 21
-30900.98688788913
 31
0.0
  0
LINE
  5
410
330
1F
100
AcDbEntity
  8
05-ダクト外線
100
AcDbLine
 10
-8582.692017098772
 20
-30898.98688788913
 30
0.0
 11
-8555.49201709876
 21
-30898.98688788913
 31
0.0
  0
LINE
  5
411
330
1F
100
AcDbEntity
  8
05-ダクト外線
100
AcDbLine
 10
-8582.692017098772
 20
-31300.98688788913
 30
0.0
 11
-8555.49201709876
 21
-31300.98688788913
 31
0.0
  0
ARC
  5
412
330
1F
100
AcDbEntity
  8
05-ダクト外線
100
AcDbCircle
 10
-8555.49201709876
 20
-31298.98688788913
 30
0.0
 40
2.0
100
AcDbArc
 50
270.0
 51
0.0
  0
ARC
  5
413
330
1F
100
AcDbEntity
  8
05-ダクト外線
100
AcDbCircle
 10
-8555.49201709876
 20
-30900.98688788913
 30
0.0
 40
2.0
100
AcDbArc
 50
0.0
 51
90.0
  0
LINE
  5
414
330
1F
100
AcDbEntity
  8
05-ダクト外線
100
AcDbLine
 10
-8553.49201709876
 20
-31298.98688788913
 30
0.0
 11
-8493.49201709876
 21
-31298.98688788913
 31
0.0
  0
INSERT
  5
418
330
1F
100
AcDbEntity
  8
寸法
100
AcDbBlockReference
  2
INS-DSWRF
 10
-8568.492999999999
 20
-30846.337
 30
0.0
  0
INSERT
  5
422
330
1F
100
AcDbEntity
  8
寸法
100
AcDbBlockReference
  2
INS-D908L
 10
-8523.493
 20
-30846.337
 30
0.0
  0
TEXT
  5
429
330
1F
100
AcDbEntity
  8
03-文字-2
100
AcDbText
 10
-8847.563170945523
 20
-31423.15578126115
 30
0.0
 40
49.955
  1
Tカラーφ400-0.8t
 41
0.9971562090994912
 72
     1
 11
-8533.492017099368
 21
-31398.17828126115
 31
0.0
100
AcDbText
 73
     2
  0
LINE
  5
42A
330
1F
100
AcDbEntity
  8
シンボル
100
AcDbLine
 10
-11518.49201709876
 20
-31600.0
 30
0.0
 11
-7518.492017098761
 21
-31600.0
 31
0.0
  0
LINE
  5
42B
330
1F
100
AcDbEntity
  8
06-ダクト内線
  6
DASHED2
 62
    20
 48
0.2
100
AcDbLine
 10
-8583.49201709876
 20
-30899.78688788913
 30
0.0
 11
-8555.49201709876
 21
-30899.78688788913
 31
0.0
  0
ARC
  5
42C
330
1F
100
AcDbEntity
  8
06-ダクト内線
  6
DASHED2
 62
    20
 48
0.2
100
AcDbCircle
 10
-8555.49201709876
 20
-30900.98688788913
 30
0.0
 40
1.2
100
AcDbArc
 50
0.0
 51
90.0
  0
LINE
  5
42D
330
1F
100
AcDbEntity
  8
06-ダクト内線
  6
DASHED2
 62
    20
 48
0.2
100
AcDbLine
 10
-8554.292017098749
 20
-31298.98688788913
 30
0.0
 11
-8554.292017098749
 21
-30900.98688788913
 31
0.0
  0
LINE
  5
42E
330
1F
100
AcDbEntity
  8
06-ダクト内線
  6
DASHED2
 62
    20
 48
0.2
100
AcDbLine
 10
-8493.49201709876
 20
-30901.78688788913
 30
0.0
 11
-8554.292017098749
 21
-30901.78688788913
 31
0.0
  0
LINE
  5
42F
330
1F
100
AcDbEntity
  8
06-ダクト内線
  6
DASHED2
 62
    20
 48
0.2
100
AcDbLine
 10
-8554.292017098749
 20
-31298.18688788913
 30
0.0
 11
-8493.49201709876
 21
-31298.18688788913
 31
0.0
  0
ARC
  5
430
330
1F
100
AcDbEntity
  8
06-ダクト内線
  6
DASHED2
 62
    20
 48
0.2
100
AcDbCircle
 10
-8555.49201709876
 20
-31298.98688788913
 30
0.0
 40
1.2
100
AcDbArc
 50
270.0
 51
0.0
  0
LINE
  5
431
330
1F
100
AcDbEntity
  8
06-ダクト内線
  6
DASHED2
 62
    20
 48
0.2
100
AcDbLine
 10
-8583.49201709876
 20
-31300.18688788913
 30
0.0
 11
-8555.49201709876
 21
-31300.18688788913
 31
0.0
  0
LINE
  5
432
330
1F
100
AcDbEntity
  8
シンボル
100
AcDbLine
 10
-11518.49201709876
 20
-32800.0
 30
0.0
 11
-7518.492017098761
 21
-32800.0
 31
0.0
  0
TEXT
  5
433
330
1F
100
AcDbEntity
  8
03-文字-2
100
AcDbText
 10
-11208.46344567025
 20
-32299.90999999997
 30
0.0
 40
199.82
  1
管径 φ450
 41
0.997383736138513
 72
     1
 11
-10518.49201709882
 21
-32199.99999999997
 31
0.0
100
AcDbText
 73
     2
  0
TEXT
  5
434
330
1F
100
AcDbEntity
  8
03-文字-2
100
AcDbText
 10
-8851.85740171453
 20
-32548.15578125462
 30
0.0
 40
49.955
  1
Tカラーφ450-0.8t
 41
0.9971562090994912
 72
     1
 11
-8533.492017099145
 21
-32523.17828125462
 31
0.0
100
AcDbText
 73
     2
  0
LINE
  5
435
330
1F
100
AcDbEntity
  8
04-ダクトセンター
100
AcDbLine
 10
-8583.49201709876
 20
-32200.0
 30
0.0
 11
-8453.49201709876
 21
-32200.0
 31
0.0
  0
LINE
  5
436
330
1F
100
AcDbEntity
  8
05-ダクト外線
100
AcDbLine
 10
-8583.49201709876
 20
-32433.0
 30
0.0
 11
-8583.49201709876
 21
-31967.0
 31
0.0
  0
LINE
  5
437
330
1F
100
AcDbEntity
  8
05-ダクト外線
100
AcDbLine
 10
-8453.49201709876
 20
-32424.0
 30
0.0
 11
-8453.49201709876
 21
-31976.0
 31
0.0
  0
LINE
  5
438
330
1F
100
AcDbEntity
  8
05-ダクト外線
100
AcDbLine
 10
-8583.49201709876
 20
-31967.0
 30
0.0
 11
-8582.692017098772
 21
-31967.0
 31
0.0
  0
LINE
  5
439
330
1F
100
AcDbEntity
  8
05-ダクト外線
100
AcDbLine
 10
-8582.692017098772
 20
-32433.0
 30
0.0
 11
-8582.692017098772
 21
-31967.0
 31
0.0
  0
LINE
  5
43A
330
1F
100
AcDbEntity
  8
05-ダクト外線
100
AcDbLine
 10
-8583.49201709876
 20
-32433.0
 30
0.0
 11
-8582.692017098772
 21
-32433.0
 31
0.0
  0
INSERT
  5
43E
330
1F
100
AcDbEntity
  8
寸法
100
AcDbBlockReference
  2
INS-D41SA
 10
-8413.1985
 20
-32200.0
 30
0.0
  0
INSERT
  5
448
330
1F
100
AcDbEntity
  8
寸法
100
AcDbBlockReference
  2
INS-D50XB
 10
-8629.293000000001
 20
-32200.0
 30
0.0
  0
LINE
  5
44F
330
1F
100
AcDbEntity
  8
05-ダクト外線
100
AcDbLine
 10
-8553.49201709876
 20
-32425.0
 30
0.0
 11
-8553.49201709876
 21
-31975.0
 31
0.0
  0
INSERT
  5
453
330
1F
100
AcDbEntity
  8
寸法
100
AcDbBlockReference
  2
INS-D6FZA
 10
-8568.492999999999
 20
-31920.6
 30
0.0
  0
INSERT
  5
45D
330
1F
100
AcDbEntity
  8
寸法
100
AcDbBlockReference
  2
INS-D7WEX
 10
-8503.493
 20
-31921.1
 30
0.0
  0
LINE
  5
464
330
1F
100
AcDbEntity
  8
05-ダクト外線
100
AcDbLine
 10
-8563.49201709876
 20
-32425.0
 30
0.0
 11
-8563.49201709876
 21
-31975.0
 31
0.0
  0
LINE
  5
465
330
1F
100
AcDbEntity
  8
05-ダクト外線
100
AcDbLine
 10
-8582.692017098772
 20
-32425.0
 30
0.0
 11
-8563.49201709876
 21
-32425.0
 31
0.0
  0
LINE
  5
466
330
1F
100
AcDbEntity
  8
05-ダクト外線
100
AcDbLine
 10
-8582.692017098772
 20
-31975.0
 30
0.0
 11
-8563.49201709876
 21
-31975.0
 31
0.0
  0
ARC
  5
467
330
1F
100
AcDbEntity
  8
05-ダクト外線
100
AcDbCircle
 10
-8558.49201709876
 20
-31975.0
 30
0.0
 40
5.0
100
AcDbArc
 50
0.0
 51
180.0
  0
LINE
  5
468
330
1F
100
AcDbEntity
  8
05-ダクト外線
100
AcDbLine
 10
-8553.49201709876
 20
-31976.0
 30
0.0
 11
-8453.49201709876
 21
-31976.0
 31
0.0
  0
ARC
  5
469
330
1F
100
AcDbEntity
  8
05-ダクト外線
100
AcDbCircle
 10
-8558.49201709876
 20
-32425.0
 30
0.0
 40
5.0
100
AcDbArc
 50
180.0
 51
0.0
  0
LINE
  5
46A
330
1F
100
AcDbEntity
  8
05-ダクト外線
100
AcDbLine
 10
-8553.49201709876
 20
-32424.0
 30
0.0
 11
-8453.49201709876
 21
-32424.0
 31
0.0
  0
LINE
  5
46B
330
1F
100
AcDbEntity
  8
06-ダクト内線
  6
DASHED2
 62
    20
 48
0.2
100
AcDbLine
 10
-8583.49201709876
 20
-32424.2
 30
0.0
 11
-8562.692017098772
 21
-32424.2
 31
0.0
  0
ARC
  5
46C
330
1F
100
AcDbEntity
  8
06-ダクト内線
  6
DASHED2
 62
    20
 48
0.2
100
AcDbCircle
 10
-8558.49201709876
 20
-32425.0
 30
0.0
 40
4.2
100
AcDbArc
 50
180.0
 51
0.0
  0
LINE
  5
46D
330
1F
100
AcDbEntity
  8
06-ダクト内線
  6
DASHED2
 62
    20
 48
0.2
100
AcDbLine
 10
-8562.692017098772
 20
-32425.0
 30
0.0
 11
-8562.692017098772
 21
-32424.2
 31
0.0
  0
LINE
  5
46E
330
1F
100
AcDbEntity
  8
06-ダクト内線
  6
DASHED2
 62
    20
 48
0.2
100
AcDbLine
 10
-8554.292017098749
 20
-32425.0
 30
0.0
 11
-8554.292017098749
 21
-32423.2
 31
0.0
  0
LINE
  5
46F
330
1F
100
AcDbEntity
  8
06-ダクト内線
  6
DASHED2
 62
    20
 48
0.2
100
AcDbLine
 10
-8554.292017098749
 20
-32423.2
 30
0.0
 11
-8453.49201709876
 21
-32423.2
 31
0.0
  0
LINE
  5
470
330
1F
100
AcDbEntity
  8
06-ダクト内線
  6
DASHED2
 62
    20
 48
0.2
100
AcDbLine
 10
-8583.49201709876
 20
-31975.80000000001
 30
0.0
 11
-8562.692017098772
 21
-31975.80000000001
 31
0.0
  0
LINE
  5
471
330
1F
100
AcDbEntity
  8
06-ダクト内線
  6
DASHED2
 62
    20
 48
0.2
100
AcDbLine
 10
-8562.692017098772
 20
-31975.0
 30
0.0
 11
-8562.692017098772
 21
-31975.80000000001
 31
0.0
  0
ARC
  5
472
330
1F
100
AcDbEntity
  8
06-ダクト内線
  6
DASHED2
 62
    20
 48
0.2
100
AcDbCircle
 10
-8558.49201709876
 20
-31975.0
 30
0.0
 40
4.2
100
AcDbArc
 50
0.0
 51
180.0
  0
LINE
  5
473
330
1F
100
AcDbEntity
  8
06-ダクト内線
  6
DASHED2
 62
    20
 48
0.2
100
AcDbLine
 10
-8554.292017098749
 20
-31975.0
 30
0.0
 11
-8554.292017098749
 21
-31976.80000000001
 31
0.0
  0
LINE
  5
474
330
1F
100
AcDbEntity
  8
06-ダクト内線
  6
DASHED2
 62
    20
 48
0.2
100
AcDbLine
 10
-8554.292017098749
 20
-31976.80000000001
 30
0.0
 11
-8453.49201709876
 21
-31976.80000000001
 31
0.0
  0
LINE
  5
475
330
1F
100
AcDbEntity
  8
シンボル
100
AcDbLine
 10
-11518.49201709876
 20
-34000.0
 30
0.0
 11
-7518.492017098761
 21
-34000.0
 31
0.0
  0
TEXT
  5
476
330
1F
100
AcDbEntity
  8
03-文字-2
100
AcDbText
 10
-11191.47773138427
 20
-33499.90999999909
 30
0.0
 40
199.82
  1
管径 φ500
 41
0.997383736138513
 72
     1
 11
-10518.49201709856
 21
-33399.99999999908
 31
0.0
100
AcDbText
 73
     2
  0
TEXT
  5
477
330
1F
100
AcDbEntity
  8
03-文字-2
100
AcDbText
 10
-8847.56317094502
 20
-33773.15578126402
 30
0.0
 40
49.955
  1
Tカラーφ500-0.8t
 41
0.9971562090994912
 72
     1
 11
-8533.492017098866
 21
-33748.17828126402
 31
0.0
100
AcDbText
 73
     2
  0
LINE
  5
478
330
1F
100
AcDbEntity
  8
04-ダクトセンター
100
AcDbLine
 10
-8583.49201709876
 20
-33400.0
 30
0.0
 11
-8453.49201709876
 21
-33400.0
 31
0.0
  0
LINE
  5
479
330
1F
100
AcDbEntity
  8
05-ダクト外線
100
AcDbLine
 10
-8583.49201709876
 20
-33658.0
 30
0.0
 11
-8583.49201709876
 21
-33142.0
 31
0.0
  0
LINE
  5
47A
330
1F
100
AcDbEntity
  8
05-ダクト外線
100
AcDbLine
 10
-8453.49201709876
 20
-33649.0
 30
0.0
 11
-8453.49201709876
 21
-33151.0
 31
0.0
  0
LINE
  5
47B
330
1F
100
AcDbEntity
  8
05-ダクト外線
100
AcDbLine
 10
-8583.49201709876
 20
-33142.0
 30
0.0
 11
-8582.692017098772
 21
-33142.0
 31
0.0
  0
LINE
  5
47C
330
1F
100
AcDbEntity
  8
05-ダクト外線
100
AcDbLine
 10
-8582.692017098772
 20
-33658.0
 30
0.0
 11
-8582.692017098772
 21
-33142.0
 31
0.0
  0
LINE
  5
47D
330
1F
100
AcDbEntity
  8
05-ダクト外線
100
AcDbLine
 10
-8583.49201709876
 20
-33658.0
 30
0.0
 11
-8582.692017098772
 21
-33658.0
 31
0.0
  0
INSERT
  5
481
330
1F
100
AcDbEntity
  8
寸法
100
AcDbBlockReference
  2
INS-DSKYL
 10
-8413.1985
 20
-33400.0
 30
0.0
  0
INSERT
  5
48B
330
1F
100
AcDbEntity
  8
寸法
100
AcDbBlockReference
  2
INS-D69H4
 10
-8629.293000000001
 20
-33400.0
 30
0.0
  0
LINE
  5
492
330
1F
100
AcDbEntity
  8
05-ダクト外線
100
AcDbLine
 10
-8553.49201709876
 20
-33650.0
 30
0.0
 11
-8553.49201709876
 21
-33150.0
 31
0.0
  0
INSERT
  5
496
330
1F
100
AcDbEntity
  8
寸法
100
AcDbBlockReference
  2
INS-D5FYZ
 10
-8568.492999999999
 20
-33101.85
 30
0.0
  0
INSERT
  5
4A0
330
1F
100
AcDbEntity
  8
寸法
100
AcDbBlockReference
  2
INS-D6NFV
 10
-8503.493
 20
-33102.35
 30
0.0
  0
LINE
  5
4A7
330
1F
100
AcDbEntity
  8
05-ダクト外線
100
AcDbLine
 10
-8563.49201709876
 20
-33650.0
 30
0.0
 11
-8563.49201709876
 21
-33150.0
 31
0.0
  0
LINE
  5
4A8
330
1F
100
AcDbEntity
  8
05-ダクト外線
100
AcDbLine
 10
-8582.692017098772
 20
-33650.0
 30
0.0
 11
-8563.49201709876
 21
-33650.0
 31
0.0
  0
LINE
  5
4A9
330
1F
100
AcDbEntity
  8
05-ダクト外線
100
AcDbLine
 10
-8582.692017098772
 20
-33150.0
 30
0.0
 11
-8563.49201709876
 21
-33150.0
 31
0.0
  0
ARC
  5
4AA
330
1F
100
AcDbEntity
  8
05-ダクト外線
100
AcDbCircle
 10
-8558.49201709876
 20
-33150.0
 30
0.0
 40
5.0
100
AcDbArc
 50
0.0
 51
180.0
  0
LINE
  5
4AB
330
1F
100
AcDbEntity
  8
05-ダクト外線
100
AcDbLine
 10
-8553.49201709876
 20
-33151.0
 30
0.0
 11
-8453.49201709876
 21
-33151.0
 31
0.0
  0
ARC
  5
4AC
330
1F
100
AcDbEntity
  8
05-ダクト外線
100
AcDbCircle
 10
-8558.49201709876
 20
-33650.0
 30
0.0
 40
5.0
100
AcDbArc
 50
180.0
 51
0.0
  0
LINE
  5
4AD
330
1F
100
AcDbEntity
  8
05-ダクト外線
100
AcDbLine
 10
-8553.49201709876
 20
-33649.0
 30
0.0
 11
-8453.49201709876
 21
-33649.0
 31
0.0
  0
LINE
  5
4AE
330
1F
100
AcDbEntity
  8
06-ダクト内線
  6
DASHED2
 62
    20
 48
0.2
100
AcDbLine
 10
-8583.49201709876
 20
-33649.2
 30
0.0
 11
-8562.692017098772
 21
-33649.2
 31
0.0
  0
ARC
  5
4AF
330
1F
100
AcDbEntity
  8
06-ダクト内線
  6
DASHED2
 62
    20
 48
0.2
100
AcDbCircle
 10
-8558.49201709876
 20
-33650.0
 30
0.0
 40
4.2
100
AcDbArc
 50
180.0
 51
0.0
  0
LINE
  5
4B0
330
1F
100
AcDbEntity
  8
06-ダクト内線
  6
DASHED2
 62
    20
 48
0.2
100
AcDbLine
 10
-8562.692017098772
 20
-33650.0
 30
0.0
 11
-8562.692017098772
 21
-33649.2
 31
0.0
  0
LINE
  5
4B1
330
1F
100
AcDbEntity
  8
06-ダクト内線
  6
DASHED2
 62
    20
 48
0.2
100
AcDbLine
 10
-8554.292017098749
 20
-33650.0
 30
0.0
 11
-8554.292017098749
 21
-33648.2
 31
0.0
  0
LINE
  5
4B2
330
1F
100
AcDbEntity
  8
06-ダクト内線
  6
DASHED2
 62
    20
 48
0.2
100
AcDbLine
 10
-8554.292017098749
 20
-33648.2
 30
0.0
 11
-8453.49201709876
 21
-33648.2
 31
0.0
  0
LINE
  5
4B3
330
1F
100
AcDbEntity
  8
06-ダクト内線
  6
DASHED2
 62
    20
 48
0.2
100
AcDbLine
 10
-8583.49201709876
 20
-33150.8
 30
0.0
 11
-8562.692017098772
 21
-33150.8
 31
0.0
  0
LINE
  5
4B4
330
1F
100
AcDbEntity
  8
06-ダクト内線
  6
DASHED2
 62
    20
 48
0.2
100
AcDbLine
 10
-8562.692017098772
 20
-33150.0
 30
0.0
 11
-8562.692017098772
 21
-33150.8
 31
0.0
  0
ARC
  5
4B5
330
1F
100
AcDbEntity
  8
06-ダクト内線
  6
DASHED2
 62
    20
 48
0.2
100
AcDbCircle
 10
-8558.49201709876
 20
-33150.0
 30
0.0
 40
4.2
100
AcDbArc
 50
0.0
 51
180.0
  0
LINE
  5
4B6
330
1F
100
AcDbEntity
  8
06-ダクト内線
  6
DASHED2
 62
    20
 48
0.2
100
AcDbLine
 10
-8554.292017098749
 20
-33150.0
 30
0.0
 11
-8554.292017098749
 21
-33151.8
 31
0.0
  0
LINE
  5
4B7
330
1F
100
AcDbEntity
  8
06-ダクト内線
  6
DASHED2
 62
    20
 48
0.2
100
AcDbLine
 10
-8554.292017098749
 20
-33151.8
 30
0.0
 11
-8453.49201709876
 21
-33151.8
 31
0.0
  0
ENDSEC
  0
SECTION
  2
OBJECTS
  0
DICTIONARY
  5
C
330
0
100
AcDbDictionary
281
     1
  3
ACAD_GROUP
350
D
  3
ACAD_LAYOUT
350
1A
  3
ACAD_MATERIAL
350
43
  3
ACAD_MLEADERSTYLE
350
6B
  3
ACAD_MLINESTYLE
350
17
  3
ACAD_PLOTSETTINGS
350
19
  3
ACAD_PLOTSTYLENAME
350
E
  3
ACAD_SCALELIST
350
47
  3
ACAD_TABLESTYLE
350
69
  3
ACAD_VISUALSTYLE
350
2A
  3
AcDbVariableDictionary
350
4B8
  3
DWGPROPS
350
4C0
  0
DICTIONARY
  5
4C1
330
8
100
AcDbDictionary
280
     1
281
     1
  3
ACAD_XREC_ROUNDTRIP
360
4C2
  0
DICTIONARY
  5
D
102
{ACAD_REACTORS
330
C
102
}
330
C
100
AcDbDictionary
281
     1
  0
DICTIONARY
  5
1A
102
{ACAD_REACTORS
330
C
102
}
330
C
100
AcDbDictionary
281
     1
  3
Layout1
350
1E
  3
Model
350
22
  0
DICTIONARY
  5
43
102
{ACAD_REACTORS
330
C
102
}
330
C
100
AcDbDictionary
281
     1
  3
ByBlock
350
45
  3
ByLayer
350
44
  3
Global
350
46
  0
DICTIONARY
  5
6B
102
{ACAD_REACTORS
330
C
102
}
330
C
100
AcDbDictionary
281
     1
  3
Standard
350
6C
  0
DICTIONARY
  5
17
102
{ACAD_REACTORS
330
C
102
}
330
C
100
AcDbDictionary
281
     1
  3
Standard
350
18
  0
DICTIONARY
  5
19
102
{ACAD_REACTORS
330
C
102
}
330
C
100
AcDbDictionary
281
     1
  0
ACDBDICTIONARYWDFLT
  5
E
102
{ACAD_REACTORS
330
C
102
}
330
C
100
AcDbDictionary
281
     1
  3
Normal
350
F
100
AcDbDictionaryWithDefault
340
F
  0
DICTIONARY
  5
47
102
{ACAD_REACTORS
330
C
102
}
330
C
100
AcDbDictionary
281
     1
  3
A0
350
48
  3
A1
350
49
  3
A2
350
4A
  3
A3
350
4B
  3
A4
350
4C
  3
A5
350
4D
  3
A6
350
4E
  3
A7
350
4F
  3
A8
350
50
  3
A9
350
51
  3
B0
350
52
  3
B1
350
53
  3
B2
350
54
  3
B3
350
55
  3
B4
350
56
  3
B5
350
57
  3
B6
350
58
  3
B7
350
59
  3
B8
350
5A
  3
B9
350
5B
  3
C0
350
5C
  3
C1
350
5D
  3
C2
350
5E
  3
C3
350
5F
  3
C4
350
60
  3
C5
350
61
  3
C6
350
62
  3
C7
350
63
  3
C8
350
64
  3
C9
350
65
  3
D0
350
66
  3
D1
350
67
  3
D2
350
68
  0
DICTIONARY
  5
69
102
{ACAD_REACTORS
330
C
102
}
330
C
100
AcDbDictionary
281
     1
  3
Standard
350
6A
  0
DICTIONARY
  5
2A
102
{ACAD_REACTORS
330
C
102
}
330
C
100
AcDbDictionary
281
     1
  3
2dWireframe
350
2F
  3
Basic
350
32
  3
Brighten
350
36
  3
ColorChange
350
3A
  3
Conceptual
350
34
  3
Dim
350
35
  3
EdgeColorOff
350
3D
  3
Facepattern
350
39
  3
Flat
350
2B
  3
FlatWithEdges
350
2C
  3
Gouraud
350
2D
  3
GouraudWithEdges
350
2E
  3
Hidden
350
31
  3
JitterOff
350
3B
  3
Linepattern
350
38
  3
OverhangOff
350
3C
  3
Realistic
350
33
  3
Shaded
350
42
  3
Shaded with edges
350
41
  3
Shades of Gray
350
3E
  3
Sketchy
350
3F
  3
Thicken
350
37
  3
Wireframe
350
30
  3
X-Ray
350
40
  0
DICTIONARY
  5
4B8
102
{ACAD_REACTORS
330
C
102
}
330
C
100
AcDbDictionary
281
     1
  3
CANNOSCALE
350
4C3
  3
CMLEADERSTYLE
350
4BA
  3
CTABLESTYLE
350
4B9
  3
DIMASSOC
350
4BE
  3
HIDETEXT
350
4BF
  3
MSLTSCALE
350
4C4
  3
XCLIPFRAME
350
4BB
  0
XRECORD
  5
4C0
102
{ACAD_REACTORS
330
C
102
}
330
C
100
AcDbXrecord
280
     1
  1
DWGPROPS COOKIE
  2

  3

  4

  6

  7

  8
kakz194
  9

300
=
301
=
302
=
303
=
304
=
305
=
306
=
307
=
308
=
309
=
 40
0.0
 41
2460341.72380787
 42
2460341.348809317
  1

 90
        0
  0
XRECORD
  5
4C2
102
{ACAD_REACTORS
330
4C1
102
}
330
4C1
100
AcDbXrecord
280
     1
102
VTR_0.000_0.000_1.000_1.000_VISUALSTYLE
340
2F
102
VTR_0.000_0.000_1.000_1.000_GRIDDISPLAY
 70
     3
102
VTR_0.000_0.000_1.000_1.000_GRIDMAJOR
 70
     5
102
VTR_0.000_0.000_1.000_1.000_DEFAULTLIGHTING
280
     1
102
VTR_0.000_0.000_1.000_1.000_DEFAULTLIGHTINGTYPE
 70
     1
102
VTR_0.000_0.000_1.000_1.000_BRIGHTNESS
141
0.0
102
VTR_0.000_0.000_1.000_1.000_CONTRAST
142
0.0
  0
LAYOUT
  5
1E
102
{ACAD_REACTORS
330
1A
102
}
330
1A
100
AcDbPlotSettings
  1

  2
none_device
  4

  6

 40
0.0
 41
0.0
 42
0.0
 43
0.0
 44
0.0
 45
0.0
 46
0.0
 47
0.0
 48
0.0
 49
0.0
140
0.0
141
0.0
142
1.0
143
1.0
 70
   688
 72
     0
 73
     0
 74
     5
  7

 75
    16
147
1.0
148
0.0
149
0.0
100
AcDbLayout
  1
Layout1
 70
     1
 71
     1
 10
0.0
 20
0.0
 11
12.0
 21
9.0
 12
0.0
 22
0.0
 32
0.0
 14
0.0
 24
0.0
 34
0.0
 15
12.0
 25
9.0
 35
0.0
146
0.0
 13
0.0
 23
0.0
 33
0.0
 16
1.0
 26
0.0
 36
0.0
 17
0.0
 27
1.0
 37
0.0
 76
     0
330
1B
  0
LAYOUT
  5
22
102
{ACAD_REACTORS
330
1A
102
}
330
1A
100
AcDbPlotSettings
  1

  2
none_device
  4
ISO_A1_(594.00_x_841.00_MM)
  6

 40
0.0
 41
0.0
 42
0.0
 43
0.0
 44
594.0
 45
841.0
 46
0.0
 47
0.0
 48
0.0
 49
0.0
140
0.0
141
0.0
142
1.0
143
1.0
 70
  1712
 72
     1
 73
     1
 74
     0
  7

 75
    16
147
1.0
148
0.0
149
0.0
100
AcDbLayout
  1
Model
 70
     1
 71
     0
 10
0.0
 20
0.0
 11
30276.0
 21
21384.0
 12
0.0
 22
0.0
 32
0.0
 14
0.0
 24
0.0
 34
0.0
 15
25230.0
 25
17820.0
 35
0.0
146
0.0
 13
0.0
 23
0.0
 33
0.0
 16
1.0
 26
0.0
 36
0.0
 17
0.0
 27
1.0
 37
0.0
 76
     0
330
1F
331
29
  0
MATERIAL
  5
45
102
{ACAD_REACTORS
330
43
102
}
102
{ACAD_XDICTIONARY
360
4F7
102
}
330
43
100
AcDbMaterial
  1
ByBlock
  0
MATERIAL
  5
44
102
{ACAD_REACTORS
330
43
102
}
102
{ACAD_XDICTIONARY
360
4F5
102
}
330
43
100
AcDbMaterial
  1
ByLayer
  0
MATERIAL
  5
46
102
{ACAD_REACTORS
330
43
102
}
102
{ACAD_XDICTIONARY
360
4F9
102
}
330
43
100
AcDbMaterial
  1
Global
  0
MLEADERSTYLE
  5
6C
102
{ACAD_REACTORS
330
6B
102
}
102
{ACAD_XDICTIONARY
360
4FC
102
}
330
6B
100
AcDbMLeaderStyle
170
     2
171
     1
172
     0
 90
        2
 40
0.0
 41
0.0
173
     1
 91
-1056964608
340
14
 92
       -2
290
     1
 42
0.09
291
     1
 43
0.36
  3
Standard
341
0
 44
0.18
300

342
11
174
     1
178
     6
175
     1
176
     0
 93
-1056964608
 45
0.18
292
     0
297
     0
 46
0.18
343
0
 94
-1056964608
 47
1.0
 49
1.0
140
1.0
293
     1
141
0.0
294
     1
177
     0
142
1.0
295
     0
296
     0
143
0.125
1001
ACAD_MLEADERVER
1070
     2
  0
MLINESTYLE
  5
18
102
{ACAD_REACTORS
330
17
102
}
330
17
100
AcDbMlineStyle
  2
Standard
 70
     0
  3

 62
   256
 51
90.0
 52
90.0
 71
     2
 49
0.5
 62
   256
  6
BYLAYER
 49
-0.5
 62
   256
  6
BYLAYER
  0
ACDBPLACEHOLDER
  5
F
102
{ACAD_REACTORS
330
E
102
}
330
E
  0
SCALE
  5
48
102
{ACAD_REACTORS
330
47
102
}
330
47
100
AcDbScale
 70
     0
300
1:1
140
1.0
141
1.0
290
     1
  0
SCALE
  5
49
102
{ACAD_REACTORS
330
47
102
}
330
47
100
AcDbScale
 70
     0
300
1:2
140
1.0
141
2.0
290
     0
  0
SCALE
  5
4A
102
{ACAD_REACTORS
330
47
102
}
330
47
100
AcDbScale
 70
     0
300
1:4
140
1.0
141
4.0
290
     0
  0
SCALE
  5
4B
102
{ACAD_REACTORS
330
47
102
}
330
47
100
AcDbScale
 70
     0
300
1:5
140
1.0
141
5.0
290
     0
  0
SCALE
  5
4C
102
{ACAD_REACTORS
330
47
102
}
330
47
100
AcDbScale
 70
     0
300
1:8
140
1.0
141
8.0
290
     0
  0
SCALE
  5
4D
102
{ACAD_REACTORS
330
47
102
}
330
47
100
AcDbScale
 70
     0
300
1:10
140
1.0
141
10.0
290
     0
  0
SCALE
  5
4E
102
{ACAD_REACTORS
330
47
102
}
330
47
100
AcDbScale
 70
     0
300
1:16
140
1.0
141
16.0
290
     0
  0
SCALE
  5
4F
102
{ACAD_REACTORS
330
47
102
}
330
47
100
AcDbScale
 70
     0
300
1:20
140
1.0
141
20.0
290
     0
  0
SCALE
  5
50
102
{ACAD_REACTORS
330
47
102
}
330
47
100
AcDbScale
 70
     0
300
1:30
140
1.0
141
30.0
290
     0
  0
SCALE
  5
51
102
{ACAD_REACTORS
330
47
102
}
330
47
100
AcDbScale
 70
     0
300
1:40
140
1.0
141
40.0
290
     0
  0
SCALE
  5
52
102
{ACAD_REACTORS
330
47
102
}
330
47
100
AcDbScale
 70
     0
300
1:50
140
1.0
141
50.0
290
     0
  0
SCALE
  5
53
102
{ACAD_REACTORS
330
47
102
}
330
47
100
AcDbScale
 70
     0
300
1:100
140
1.0
141
100.0
290
     0
  0
SCALE
  5
54
102
{ACAD_REACTORS
330
47
102
}
330
47
100
AcDbScale
 70
     0
300
2:1
140
2.0
141
1.0
290
     0
  0
SCALE
  5
55
102
{ACAD_REACTORS
330
47
102
}
330
47
100
AcDbScale
 70
     0
300
4:1
140
4.0
141
1.0
290
     0
  0
SCALE
  5
56
102
{ACAD_REACTORS
330
47
102
}
330
47
100
AcDbScale
 70
     0
300
8:1
140
8.0
141
1.0
290
     0
  0
SCALE
  5
57
102
{ACAD_REACTORS
330
47
102
}
330
47
100
AcDbScale
 70
     0
300
10:1
140
10.0
141
1.0
290
     0
  0
SCALE
  5
58
102
{ACAD_REACTORS
330
47
102
}
330
47
100
AcDbScale
 70
     0
300
100:1
140
100.0
141
1.0
290
     0
  0
SCALE
  5
59
102
{ACAD_REACTORS
330
47
102
}
330
47
100
AcDbScale
 70
     0
300
1/128" = 1'-0"
140
0.0078125
141
12.0
290
     0
  0
SCALE
  5
5A
102
{ACAD_REACTORS
330
47
102
}
330
47
100
AcDbScale
 70
     0
300
1/64" = 1'-0"
140
0.015625
141
12.0
290
     0
  0
SCALE
  5
5B
102
{ACAD_REACTORS
330
47
102
}
330
47
100
AcDbScale
 70
     0
300
1/32" = 1'-0"
140
0.03125
141
12.0
290
     0
  0
SCALE
  5
5C
102
{ACAD_REACTORS
330
47
102
}
330
47
100
AcDbScale
 70
     0
300
1/16" = 1'-0"
140
0.0625
141
12.0
290
     0
  0
SCALE
  5
5D
102
{ACAD_REACTORS
330
47
102
}
330
47
100
AcDbScale
 70
     0
300
3/32" = 1'-0"
140
0.09375
141
12.0
290
     0
  0
SCALE
  5
5E
102
{ACAD_REACTORS
330
47
102
}
330
47
100
AcDbScale
 70
     0
300
1/8" = 1'-0"
140
0.125
141
12.0
290
     0
  0
SCALE
  5
5F
102
{ACAD_REACTORS
330
47
102
}
330
47
100
AcDbScale
 70
     0
300
3/16" = 1'-0"
140
0.1875
141
12.0
290
     0
  0
SCALE
  5
60
102
{ACAD_REACTORS
330
47
102
}
330
47
100
AcDbScale
 70
     0
300
1/4" = 1'-0"
140
0.25
141
12.0
290
     0
  0
SCALE
  5
61
102
{ACAD_REACTORS
330
47
102
}
330
47
100
AcDbScale
 70
     0
300
3/8" = 1'-0"
140
0.375
141
12.0
290
     0
  0
SCALE
  5
62
102
{ACAD_REACTORS
330
47
102
}
330
47
100
AcDbScale
 70
     0
300
1/2" = 1'-0"
140
0.5
141
12.0
290
     0
  0
SCALE
  5
63
102
{ACAD_REACTORS
330
47
102
}
330
47
100
AcDbScale
 70
     0
300
3/4" = 1'-0"
140
0.75
141
12.0
290
     0
  0
SCALE
  5
64
102
{ACAD_REACTORS
330
47
102
}
330
47
100
AcDbScale
 70
     0
300
1" = 1'-0"
140
1.0
141
12.0
290
     0
  0
SCALE
  5
65
102
{ACAD_REACTORS
330
47
102
}
330
47
100
AcDbScale
 70
     0
300
1-1/2" = 1'-0"
140
1.5
141
12.0
290
     0
  0
SCALE
  5
66
102
{ACAD_REACTORS
330
47
102
}
330
47
100
AcDbScale
 70
     0
300
3" = 1'-0"
140
3.0
141
12.0
290
     0
  0
SCALE
  5
67
102
{ACAD_REACTORS
330
47
102
}
330
47
100
AcDbScale
 70
     0
300
6" = 1'-0"
140
6.0
141
12.0
290
     0
  0
SCALE
  5
68
102
{ACAD_REACTORS
330
47
102
}
330
47
100
AcDbScale
 70
     0
300
1'-0" = 1'-0"
140
12.0
141
12.0
290
     0
  0
TABLESTYLE
  5
6A
102
{ACAD_REACTORS
330
69
102
}
330
69
100
AcDbTableStyle
  3
Standard
 70
     0
 71
     0
 40
0.06
 41
0.06
280
     0
281
     0
  7
Standard
140
0.18
170
     2
 62
     0
 63
   257
283
     0
274
    -2
284
     1
 64
     0
275
    -2
285
     1
 65
     0
276
    -2
286
     1
 66
     0
277
    -2
287
     1
 67
     0
278
    -2
288
     1
 68
     0
279
    -2
289
     1
 69
     0
  7
Standard
140
0.25
170
     5
 62
     0
 63
   257
283
     0
274
    -2
284
     1
 64
     0
275
    -2
285
     1
 65
     0
276
    -2
286
     1
 66
     0
277
    -2
287
     1
 67
     0
278
    -2
288
     1
 68
     0
279
    -2
289
     1
 69
     0
  7
Standard
140
0.18
170
     5
 62
     0
 63
   257
283
     0
274
    -2
284
     1
 64
     0
275
    -2
285
     1
 65
     0
276
    -2
286
     1
 66
     0
277
    -2
287
     1
 67
     0
278
    -2
288
     1
 68
     0
279
    -2
289
     1
 69
     0
  0
VISUALSTYLE
  5
2F
102
{ACAD_REACTORS
330
2A
102
}
102
{ACAD_XDICTIONARY
360
4CD
102
}
330
2A
100
AcDbVisualStyle
  2
2dWireframe
 70
     4
 71
     0
 72
     2
 73
     0
 90
        0
 40
0.6
 41
30.0
 62
     5
 63
     7
 74
     1
 91
        4
 64
     7
 65
   257
 75
     1
175
     1
 42
1.0
 92
        0
 66
   257
 43
1.0
 76
     1
 77
     6
 78
     2
 67
     7
 79
     5
170
     0
171
     0
290
     0
174
     0
 93
        1
 44
0.0
173
     0
291
     0
 45
0.0
1001
ACAD
1000
AcDbSavedByObjectVersion
1070
     0
  0
VISUALSTYLE
  5
32
102
{ACAD_REACTORS
330
2A
102
}
102
{ACAD_XDICTIONARY
360
4D3
102
}
330
2A
100
AcDbVisualStyle
  2
Basic
 70
     7
 71
     1
 72
     0
 73
     1
 90
        0
 40
0.6
 41
30.0
 62
     5
 63
     7
 74
     0
 91
        4
 64
     7
 65
   257
 75
     1
175
     1
 42
1.0
 92
        8
 66
     7
 43
1.0
 76
     1
 77
     6
 78
     2
 67
     7
 79
     5
170
     0
171
     0
290
     0
174
     0
 93
        1
 44
0.0
173
     0
291
     1
 45
0.0
1001
ACAD
1000
AcDbSavedByObjectVersion
1070
     0
  0
VISUALSTYLE
  5
36
102
{ACAD_REACTORS
330
2A
102
}
102
{ACAD_XDICTIONARY
360
4DB
102
}
330
2A
100
AcDbVisualStyle
  2
Brighten
 70
    12
 71
     2
 72
     2
 73
     0
 90
        0
 40
0.6
 41
30.0
 62
     5
 63
     7
 74
     1
 91
        4
 64
     7
 65
   257
 75
     1
175
     1
 42
1.0
 92
        8
 66
     7
 43
1.0
 76
     1
 77
     6
 78
     2
 67
     7
 79
     5
170
     0
171
     0
290
     0
174
     0
 93
        1
 44
50.0
173
     0
291
     1
 45
0.0
1001
ACAD
1000
AcDbSavedByObjectVersion
1070
     0
  0
VISUALSTYLE
  5
3A
102
{ACAD_REACTORS
330
2A
102
}
102
{ACAD_XDICTIONARY
360
4E3
102
}
330
2A
100
AcDbVisualStyle
  2
ColorChange
 70
    16
 71
     2
 72
     2
 73
     3
 90
        0
 40
0.6
 41
30.0
 62
     5
 63
     8
 74
     1
 91
        4
 64
     7
 65
   257
 75
     1
175
     1
 42
1.0
 92
        8
 66
     8
 43
1.0
 76
     1
 77
     6
 78
     2
 67
     7
 79
     5
170
     0
171
     0
290
     0
174
     0
 93
        1
 44
0.0
173
     0
291
     1
 45
0.0
1001
ACAD
1000
AcDbSavedByObjectVersion
1070
     0
  0
VISUALSTYLE
  5
34
102
{ACAD_REACTORS
330
2A
102
}
102
{ACAD_XDICTIONARY
360
4D7
102
}
330
2A
100
AcDbVisualStyle
  2
Conceptual
 70
     9
 71
     3
 72
     2
 73
     0
 90
        0
 40
0.6
 41
30.0
 62
     5
 63
     7
 74
     2
 91
        2
 64
     7
 65
   257
 75
     1
175
     1
 42
179.0
 92
        8
 66
     7
 43
1.0
 76
     1
 77
     6
 78
     2
 67
     7
 79
     3
170
     0
171
     0
290
     0
174
     0
 93
        1
 44
0.0
173
     0
291
     0
 45
0.0
1001
ACAD
1000
AcDbSavedByObjectVersion
1070
     0
  0
VISUALSTYLE
  5
35
102
{ACAD_REACTORS
330
2A
102
}
102
{ACAD_XDICTIONARY
360
4D9
102
}
330
2A
100
AcDbVisualStyle
  2
Dim
 70
    11
 71
     2
 72
     2
 73
     0
 90
        0
 40
0.6
 41
30.0
 62
     5
 63
     7
 74
     1
 91
        4
 64
     7
 65
   257
 75
     1
175
     1
 42
1.0
 92
        8
 66
     7
 43
1.0
 76
     1
 77
     6
 78
     2
 67
     7
 79
     5
170
     0
171
     0
290
     0
174
     0
 93
        1
 44
-50.0
173
     0
291
     1
 45
0.0
1001
ACAD
1000
AcDbSavedByObjectVersion
1070
     0
  0
VISUALSTYLE
  5
3D
102
{ACAD_REACTORS
330
2A
102
}
102
{ACAD_XDICTIONARY
360
4E9
102
}
330
2A
100
AcDbVisualStyle
  2
EdgeColorOff
 70
    22
 71
     2
 72
     2
 73
     0
 90
        0
 40
0.6
 41
30.0
 62
     5
 63
     7
 74
     1
 91
        4
 64
     7
 65
   257
 75
     1
175
     1
 42
1.0
 92
        8
 66
     7
 43
1.0
 76
     1
 77
     6
 78
     2
 67
     7
 79
     5
170
     0
171
     0
290
     0
174
     0
 93
        1
 44
0.0
173
     0
291
     1
 45
0.0
1001
ACAD
1000
AcDbSavedByObjectVersion
1070
     0
  0
VISUALSTYLE
  5
39
102
{ACAD_REACTORS
330
2A
102
}
102
{ACAD_XDICTIONARY
360
4E1
102
}
330
2A
100
AcDbVisualStyle
  2
Facepattern
 70
    15
 71
     2
 72
     2
 73
     0
 90
        0
 40
0.6
 41
30.0
 62
     5
 63
     7
 74
     1
 91
        4
 64
     7
 65
   257
 75
     1
175
     1
 42
1.0
 92
        8
 66
     7
 43
1.0
 76
     1
 77
     6
 78
     2
 67
     7
 79
     5
170
     0
171
     0
290
     0
174
     0
 93
        1
 44
0.0
173
     0
291
     1
 45
0.0
1001
ACAD
1000
AcDbSavedByObjectVersion
1070
     0
  0
VISUALSTYLE
  5
2B
102
{ACAD_REACTORS
330
2A
102
}
102
{ACAD_XDICTIONARY
360
4C5
102
}
330
2A
100
AcDbVisualStyle
  2
Flat
 70
     0
 71
     2
 72
     1
 73
     1
 90
        2
 40
0.6
 41
30.0
 62
     5
 63
     7
 74
     0
 91
        0
 64
     7
 65
   257
 75
     1
175
     1
 42
1.0
 92
        8
 66
     7
 43
1.0
 76
     1
 77
     6
 78
     2
 67
     7
 79
     5
170
     0
171
     0
290
     0
174
     0
 93
       13
 44
0.0
173
     0
291
     1
 45
0.0
1001
ACAD
1000
AcDbSavedByObjectVersion
1070
     0
  0
VISUALSTYLE
  5
2C
102
{ACAD_REACTORS
330
2A
102
}
102
{ACAD_XDICTIONARY
360
4C7
102
}
330
2A
100
AcDbVisualStyle
  2
FlatWithEdges
 70
     1
 71
     2
 72
     1
 73
     1
 90
        2
 40
0.6
 41
30.0
 62
     5
 63
     7
 74
     1
 91
        0
 64
     7
 65
   257
 75
     1
175
     1
 42
1.0
 92
        0
 66
   257
 43
1.0
 76
     1
 77
     6
 78
     2
 67
     7
 79
     5
170
     0
171
     0
290
     0
174
     0
 93
       13
 44
0.0
173
     0
291
     1
 45
0.0
1001
ACAD
1000
AcDbSavedByObjectVersion
1070
     0
  0
VISUALSTYLE
  5
2D
102
{ACAD_REACTORS
330
2A
102
}
102
{ACAD_XDICTIONARY
360
4C9
102
}
330
2A
100
AcDbVisualStyle
  2
Gouraud
 70
     2
 71
     2
 72
     2
 73
     1
 90
        2
 40
0.6
 41
30.0
 62
     5
 63
     7
 74
     0
 91
        0
 64
     7
 65
   257
 75
     1
175
     1
 42
1.0
 92
        0
 66
     7
 43
1.0
 76
     1
 77
     6
 78
     2
 67
     7
 79
     5
170
     0
171
     0
290
     0
174
     0
 93
       13
 44
0.0
173
     0
291
     1
 45
0.0
1001
ACAD
1000
AcDbSavedByObjectVersion
1070
     0
  0
VISUALSTYLE
  5
2E
102
{ACAD_REACTORS
330
2A
102
}
102
{ACAD_XDICTIONARY
360
4CB
102
}
330
2A
100
AcDbVisualStyle
  2
GouraudWithEdges
 70
     3
 71
     2
 72
     2
 73
     1
 90
        2
 40
0.6
 41
30.0
 62
     5
 63
     7
 74
     1
 91
        0
 64
     7
 65
   257
 75
     1
175
     1
 42
1.0
 92
        0
 66
   257
 43
1.0
 76
     1
 77
     6
 78
     2
 67
     7
 79
     5
170
     0
171
     0
290
     0
174
     0
 93
       13
 44
0.0
173
     0
291
     1
 45
0.0
1001
ACAD
1000
AcDbSavedByObjectVersion
1070
     0
  0
VISUALSTYLE
  5
31
102
{ACAD_REACTORS
330
2A
102
}
102
{ACAD_XDICTIONARY
360
4D1
102
}
330
2A
100
AcDbVisualStyle
  2
Hidden
 70
     6
 71
     1
 72
     2
 73
     2
 90
        0
 40
0.6
 41
30.0
 62
     5
 63
     7
 74
     2
 91
        2
 64
     7
 65
   257
 75
     2
175
     1
 42
40.0
 92
        0
 66
   257
 43
1.0
 76
     1
 77
     6
 78
     2
 67
     7
 79
     3
170
     0
171
     0
290
     0
174
     0
 93
        1
 44
0.0
173
     0
291
     0
 45
0.0
1001
ACAD
1000
AcDbSavedByObjectVersion
1070
     0
  0
VISUALSTYLE
  5
3B
102
{ACAD_REACTORS
330
2A
102
}
102
{ACAD_XDICTIONARY
360
4E5
102
}
330
2A
100
AcDbVisualStyle
  2
JitterOff
 70
    20
 71
     2
 72
     2
 73
     0
 90
        0
 40
0.6
 41
30.0
 62
     5
 63
     7
 74
     1
 91
        4
 64
     7
 65
   257
 75
     1
175
     1
 42
1.0
 92
       10
 66
     7
 43
1.0
 76
     1
 77
     6
 78
     2
 67
     7
 79
     5
170
     0
171
     0
290
     0
174
     0
 93
        1
 44
0.0
173
     0
291
     1
 45
0.0
1001
ACAD
1000
AcDbSavedByObjectVersion
1070
     0
  0
VISUALSTYLE
  5
38
102
{ACAD_REACTORS
330
2A
102
}
102
{ACAD_XDICTIONARY
360
4DF
102
}
330
2A
100
AcDbVisualStyle
  2
Linepattern
 70
    14
 71
     2
 72
     2
 73
     0
 90
        0
 40
0.6
 41
30.0
 62
     5
 63
     7
 74
     1
 91
        4
 64
     7
 65
   257
 75
     7
175
     7
 42
1.0
 92
        8
 66
     7
 43
1.0
 76
     1
 77
     6
 78
     2
 67
     7
 79
     5
170
     0
171
     0
290
     0
174
     0
 93
        1
 44
0.0
173
     0
291
     1
 45
0.0
1001
ACAD
1000
AcDbSavedByObjectVersion
1070
     0
  0
VISUALSTYLE
  5
3C
102
{ACAD_REACTORS
330
2A
102
}
102
{ACAD_XDICTIONARY
360
4E7
102
}
330
2A
100
AcDbVisualStyle
  2
OverhangOff
 70
    21
 71
     2
 72
     2
 73
     0
 90
        0
 40
0.6
 41
30.0
 62
     5
 63
     7
 74
     1
 91
        4
 64
     7
 65
   257
 75
     1
175
     1
 42
1.0
 92
        9
 66
     7
 43
1.0
 76
     1
 77
     6
 78
     2
 67
     7
 79
     5
170
     0
171
     0
290
     0
174
     0
 93
        1
 44
0.0
173
     0
291
     1
 45
0.0
1001
ACAD
1000
AcDbSavedByObjectVersion
1070
     0
  0
VISUALSTYLE
  5
33
102
{ACAD_REACTORS
330
2A
102
}
102
{ACAD_XDICTIONARY
360
4D5
102
}
330
2A
100
AcDbVisualStyle
  2
Realistic
 70
     8
 71
     2
 72
     3
 73
     0
 90
        2
 40
0.6
 41
30.0
 62
     5
 63
     7
 74
     0
 91
        0
 64
     7
 65
   257
 75
     1
175
     1
 42
1.0
 92
        8
 66
   257
 43
1.0
 76
     1
 77
     6
 78
     2
 67
     7
 79
     3
170
     0
171
     0
290
     0
174
     0
 93
       13
 44
0.0
173
     0
291
     0
 45
0.0
1001
ACAD
1000
AcDbSavedByObjectVersion
1070
     0
  0
VISUALSTYLE
  5
42
102
{ACAD_REACTORS
330
2A
102
}
102
{ACAD_XDICTIONARY
360
4F3
102
}
330
2A
100
AcDbVisualStyle
  2
Shaded
 70
    27
 71
     2
 72
     2
 73
     1
 90
        2
 40
0.6
 41
30.0
 62
     5
 63
     7
 74
     0
 91
        4
 64
     7
 65
   257
 75
     1
175
     1
 42
1.0
 92
        8
 66
   257
 43
1.0
 76
     1
 77
     6
 78
     2
 67
     8
 79
     3
170
     0
171
     0
290
     0
174
     0
 93
        5
 44
0.0
173
     0
291
     0
 45
0.0
1001
ACAD
1000
AcDbSavedByObjectVersion
1070
     0
  0
VISUALSTYLE
  5
41
102
{ACAD_REACTORS
330
2A
102
}
102
{ACAD_XDICTIONARY
360
4F1
102
}
330
2A
100
AcDbVisualStyle
  2
Shaded with edges
 70
    26
 71
     2
 72
     2
 73
     1
 90
        2
 40
0.6
 41
30.0
 62
     5
 63
     7
 74
     1
 91
       10
 64
     7
 65
   257
 75
     2
175
     1
 42
1.0
 92
        8
 66
   257
 43
1.0
 76
     1
 77
     6
 78
     2
 67
     7
 79
     3
170
     0
171
     0
290
     0
174
     0
 93
        5
 44
0.0
173
     0
291
     0
 45
0.0
1001
ACAD
1000
AcDbSavedByObjectVersion
1070
     0
  0
VISUALSTYLE
  5
3E
102
{ACAD_REACTORS
330
2A
102
}
102
{ACAD_XDICTIONARY
360
4EB
102
}
330
2A
100
AcDbVisualStyle
  2
Shades of Gray
 70
    23
 71
     2
 72
     2
 73
     3
 90
        0
 40
0.6
 41
30.0
 62
     5
 63
     7
 74
     2
 91
        2
 64
     7
 65
     7
 75
     1
175
     1
 42
40.0
 92
        8
 66
     7
 43
1.0
 76
     1
 77
     6
 78
     2
 67
     7
 79
     3
170
     0
171
     0
290
     0
174
     0
 93
        1
 44
0.0
173
     0
291
     0
 45
0.0
1001
ACAD
1000
AcDbSavedByObjectVersion
1070
     0
  0
VISUALSTYLE
  5
3F
102
{ACAD_REACTORS
330
2A
102
}
102
{ACAD_XDICTIONARY
360
4ED
102
}
330
2A
100
AcDbVisualStyle
  2
Sketchy
 70
    24
 71
     1
 72
     2
 73
     2
 90
        0
 40
0.6
 41
30.0
 62
     5
 63
     7
 74
     2
 91
        2
 64
     7
 65
     7
 75
     1
175
     1
 42
40.0
 92
       11
 66
     7
 43
1.0
 76
     1
 77
     6
 78
     2
 67
     7
 79
     6
170
     0
171
     0
290
     0
174
     0
 93
        1
 44
0.0
173
     0
291
     0
 45
0.0
1001
ACAD
1000
AcDbSavedByObjectVersion
1070
     0
  0
VISUALSTYLE
  5
37
102
{ACAD_REACTORS
330
2A
102
}
102
{ACAD_XDICTIONARY
360
4DD
102
}
330
2A
100
AcDbVisualStyle
  2
Thicken
 70
    13
 71
     2
 72
     2
 73
     0
 90
        0
 40
0.6
 41
30.0
 62
     5
 63
     7
 74
     1
 91
        4
 64
     7
 65
   257
 75
     1
175
     1
 42
1.0
 92
       12
 66
     7
 43
1.0
 76
     1
 77
     6
 78
     2
 67
     7
 79
     5
170
     0
171
     0
290
     0
174
     0
 93
        1
 44
0.0
173
     0
291
     1
 45
0.0
1001
ACAD
1000
AcDbSavedByObjectVersion
1070
     0
  0
VISUALSTYLE
  5
30
102
{ACAD_REACTORS
330
2A
102
}
102
{ACAD_XDICTIONARY
360
4CF
102
}
330
2A
100
AcDbVisualStyle
  2
Wireframe
 70
     5
 71
     0
 72
     2
 73
     0
 90
        0
 40
0.6
 41
30.0
 62
     5
 63
     7
 74
     1
 91
        4
 64
     7
 65
   257
 75
     1
175
     1
 42
1.0
 92
        0
 66
   257
 43
1.0
 76
     1
 77
     6
 78
     2
 67
     7
 79
     3
170
     0
171
     0
290
     0
174
     0
 93
        1
 44
0.0
173
     0
291
     0
 45
0.0
1001
ACAD
1000
AcDbSavedByObjectVersion
1070
     0
  0
VISUALSTYLE
  5
40
102
{ACAD_REACTORS
330
2A
102
}
102
{ACAD_XDICTIONARY
360
4EF
102
}
330
2A
100
AcDbVisualStyle
  2
X-Ray
 70
    25
 71
     2
 72
     2
 73
     1
 90
        1
 40
0.5
 41
30.0
 62
     5
 63
     7
 74
     1
 91
        0
 64
     7
 65
   257
 75
     1
175
     1
 42
1.0
 92
        8
 66
     7
 43
1.0
 76
     1
 77
     6
 78
     2
 67
     7
 79
     3
170
     0
171
     0
290
     0
174
     0
 93
       13
 44
0.0
173
     0
291
     0
 45
0.0
1001
ACAD
1000
AcDbSavedByObjectVersion
1070
     0
  0
DICTIONARYVAR
  5
4C3
102
{ACAD_REACTORS
330
4B8
102
}
330
4B8
100
DictionaryVariables
280
     0
  1
1:1
  0
DICTIONARYVAR
  5
4BA
102
{ACAD_REACTORS
330
4B8
102
}
330
4B8
100
DictionaryVariables
280
     0
  1
Standard
  0
DICTIONARYVAR
  5
4B9
102
{ACAD_REACTORS
330
4B8
102
}
330
4B8
100
DictionaryVariables
280
     0
  1
Standard
  0
DICTIONARYVAR
  5
4BE
102
{ACAD_REACTORS
330
4B8
102
}
330
4B8
100
DictionaryVariables
280
     0
  1
2
  0
DICTIONARYVAR
  5
4BF
102
{ACAD_REACTORS
330
4B8
102
}
330
4B8
100
DictionaryVariables
280
     0
  1
1
  0
DICTIONARYVAR
  5
4C4
102
{ACAD_REACTORS
330
4B8
102
}
330
4B8
100
DictionaryVariables
280
     0
  1
1
  0
DICTIONARYVAR
  5
4BB
102
{ACAD_REACTORS
330
4B8
102
}
330
4B8
100
DictionaryVariables
280
     0
  1
0
  0
DICTIONARY
  5
4F7
330
45
100
AcDbDictionary
280
     1
281
     1
  3
ACAD_XREC_ROUNDTRIP
360
4F8
  0
DICTIONARY
  5
4F5
330
44
100
AcDbDictionary
280
     1
281
     1
  3
ACAD_XREC_ROUNDTRIP
360
4F6
  0
DICTIONARY
  5
4F9
330
46
100
AcDbDictionary
280
     1
281
     1
  3
ACAD_XREC_ROUNDTRIP
360
4FA
  0
DICTIONARY
  5
4FC
330
6C
100
AcDbDictionary
280
     1
281
     1
  3
ACAD_XREC_ROUNDTRIP
360
4FD
  0
DICTIONARY
  5
4CD
330
2F
100
AcDbDictionary
280
     1
281
     1
  3
ACAD_XREC_ROUNDTRIP
360
4CE
  0
DICTIONARY
  5
4D3
330
32
100
AcDbDictionary
280
     1
281
     1
  3
ACAD_XREC_ROUNDTRIP
360
4D4
  0
DICTIONARY
  5
4DB
330
36
100
AcDbDictionary
280
     1
281
     1
  3
ACAD_XREC_ROUNDTRIP
360
4DC
  0
DICTIONARY
  5
4E3
330
3A
100
AcDbDictionary
280
     1
281
     1
  3
ACAD_XREC_ROUNDTRIP
360
4E4
  0
DICTIONARY
  5
4D7
330
34
100
AcDbDictionary
280
     1
281
     1
  3
ACAD_XREC_ROUNDTRIP
360
4D8
  0
DICTIONARY
  5
4D9
330
35
100
AcDbDictionary
280
     1
281
     1
  3
ACAD_XREC_ROUNDTRIP
360
4DA
  0
DICTIONARY
  5
4E9
330
3D
100
AcDbDictionary
280
     1
281
     1
  3
ACAD_XREC_ROUNDTRIP
360
4EA
  0
DICTIONARY
  5
4E1
330
39
100
AcDbDictionary
280
     1
281
     1
  3
ACAD_XREC_ROUNDTRIP
360
4E2
  0
DICTIONARY
  5
4C5
330
2B
100
AcDbDictionary
280
     1
281
     1
  3
ACAD_XREC_ROUNDTRIP
360
4C6
  0
DICTIONARY
  5
4C7
330
2C
100
AcDbDictionary
280
     1
281
     1
  3
ACAD_XREC_ROUNDTRIP
360
4C8
  0
DICTIONARY
  5
4C9
330
2D
100
AcDbDictionary
280
     1
281
     1
  3
ACAD_XREC_ROUNDTRIP
360
4CA
  0
DICTIONARY
  5
4CB
330
2E
100
AcDbDictionary
280
     1
281
     1
  3
ACAD_XREC_ROUNDTRIP
360
4CC
  0
DICTIONARY
  5
4D1
330
31
100
AcDbDictionary
280
     1
281
     1
  3
ACAD_XREC_ROUNDTRIP
360
4D2
  0
DICTIONARY
  5
4E5
330
3B
100
AcDbDictionary
280
     1
281
     1
  3
ACAD_XREC_ROUNDTRIP
360
4E6
  0
DICTIONARY
  5
4DF
330
38
100
AcDbDictionary
280
     1
281
     1
  3
ACAD_XREC_ROUNDTRIP
360
4E0
  0
DICTIONARY
  5
4E7
330
3C
100
AcDbDictionary
280
     1
281
     1
  3
ACAD_XREC_ROUNDTRIP
360
4E8
  0
DICTIONARY
  5
4D5
330
33
100
AcDbDictionary
280
     1
281
     1
  3
ACAD_XREC_ROUNDTRIP
360
4D6
  0
DICTIONARY
  5
4F3
330
42
100
AcDbDictionary
280
     1
281
     1
  3
ACAD_XREC_ROUNDTRIP
360
4F4
  0
DICTIONARY
  5
4F1
330
41
100
AcDbDictionary
280
     1
281
     1
  3
ACAD_XREC_ROUNDTRIP
360
4F2
  0
DICTIONARY
  5
4EB
330
3E
100
AcDbDictionary
280
     1
281
     1
  3
ACAD_XREC_ROUNDTRIP
360
4EC
  0
DICTIONARY
  5
4ED
330
3F
100
AcDbDictionary
280
     1
281
     1
  3
ACAD_XREC_ROUNDTRIP
360
4EE
  0
DICTIONARY
  5
4DD
330
37
100
AcDbDictionary
280
     1
281
     1
  3
ACAD_XREC_ROUNDTRIP
360
4DE
  0
DICTIONARY
  5
4CF
330
30
100
AcDbDictionary
280
     1
281
     1
  3
ACAD_XREC_ROUNDTRIP
360
4D0
  0
DICTIONARY
  5
4EF
330
40
100
AcDbDictionary
280
     1
281
     1
  3
ACAD_XREC_ROUNDTRIP
360
4F0
  0
XRECORD
  5
4F8
102
{ACAD_REACTORS
330
4F7
102
}
330
4F7
100
AcDbXrecord
280
     1
102
MATERIAL
148
0.0
149
0.0
149
0.0
 93
        0
 94
      127
282
     0
 72
     1
 77
     1
171
     1
175
     1
179
     1
273
     0
  0
XRECORD
  5
4F6
102
{ACAD_REACTORS
330
4F5
102
}
330
4F5
100
AcDbXrecord
280
     1
102
MATERIAL
148
0.0
149
0.0
149
0.0
 93
        0
 94
      127
282
     0
 72
     1
 77
     1
171
     1
175
     1
179
     1
273
     0
  0
XRECORD
  5
4FA
102
{ACAD_REACTORS
330
4F9
102
}
330
4F9
100
AcDbXrecord
280
     1
102
MATERIAL
148
0.0
149
0.0
149
0.0
 93
        0
 94
      127
282
     0
 72
     1
 77
     1
171
     1
175
     1
179
     1
273
     0
  0
XRECORD
  5
4FD
102
{ACAD_REACTORS
330
4FC
102
}
330
4FC
100
AcDbXrecord
280
     1
102
ACAD_ROUNDTRIP_2010_MLEADER_STYLE
  0
XRECORD
  5
4CE
102
{ACAD_REACTORS
330
4CD
102
}
330
4CD
100
AcDbXrecord
280
     1
102
RTVSPropertyOp0
 70
     1
102
RTVSPropertyOp1
 70
     1
102
RTVSPropertyOp2
 70
     1
102
RTVSPropertyOp3
 70
     1
102
RTVSPropertyOp4
 70
     1
102
RTVSPropertyOp5
 70
     1
102
RTVSPropertyOp6
 70
     1
102
RTVSPropertyOp7
 70
     1
102
RTVSPropertyOp8
 70
     1
102
RTVSPropertyOp9
 70
     1
102
RTVSPropertyOp10
 70
     1
102
RTVSPropertyOp11
 70
     1
102
RTVSPropertyOp12
 70
     1
102
RTVSPropertyOp13
 70
     1
102
RTVSPropertyOp14
 70
     1
102
RTVSPropertyOp15
 70
     1
102
RTVSPropertyOp16
 70
     1
102
RTVSPropertyOp17
 70
     1
102
RTVSPropertyOp18
 70
     1
102
RTVSPropertyOp19
 70
     1
102
RTVSPropertyOp20
 70
     1
102
RTVSPropertyOp21
 70
     1
102
RTVSPropertyOp22
 70
     1
102
RTVSPropertyOp23
 70
     1
102
RTVSPropertyOp24
 70
     1
102
RTVSPropertyOp25
 70
     1
102
RTVSPropertyOp26
 70
     1
102
RTVSPropertyOp27
 70
     1
102
RTVSPropertyOp28
 70
     1
102
RTVSPropertyOp29
 70
     1
102
RTVSPropertyOp30
 70
     1
102
RTVSPropertyOp31
 70
     1
102
RTVSPropertyOp32
 70
     1
102
RTVSPropertyOp33
 70
     1
102
RTVSPropertyOp34
 70
     1
102
RTVSPropertyOp35
 70
     1
102
RTVSPropertyOp36
 70
     1
102
RTVSPropertyOp37
 70
     1
102
RTVSPropertyOp38
 70
     1
102
RTVSPropertyOp39
 70
     1
102
RTVSPropertyOp40
 70
     1
102
RTVSPropertyOp41
 70
     1
102
RTVSPropertyOp42
 70
     1
102
RTVSPropertyOp43
 70
     1
102
RTVSPropertyOp44
 70
     1
102
RTVSPropertyOp45
 70
     1
102
RTVSPropertyOp46
 70
     1
102
RTVSPropertyOp47
 70
     1
102
RTVSPropertyOp48
 70
     1
102
RTVSPropertyOp49
 70
     1
102
RTVSPropertyOp50
 70
     1
102
RTVSPropertyOp51
 70
     0
102
RTVSPropertyOp52
 70
     0
102
RTVSPropertyOp53
 70
     1
102
RTVSPropertyOp54
 70
     1
102
RTVSPropertyOp55
 70
     1
102
RTVSPropertyOp56
 70
     1
102
RTVSPropertyOp57
 70
     1
102
RTVSPost2010Prop28
280
     1
102
RTVSPost2010PropOp28
 70
     1
102
RTVSPost2010Prop29
280
     1
102
RTVSPost2010PropOp29
 70
     1
102
RTVSPost2010Prop30
280
     0
102
RTVSPost2010PropOp30
 70
     1
102
RTVSPost2010Prop31
280
     0
102
RTVSPost2010PropOp31
 70
     1
102
RTVSPost2010Prop32
280
     0
102
RTVSPost2010PropOp32
 70
     1
102
RTVSPost2010Prop33
280
     0
102
RTVSPost2010PropOp33
 70
     1
102
RTVSPost2010Prop34
280
     0
102
RTVSPost2010PropOp34
 70
     1
102
RTVSPost2010Prop35
280
     0
102
RTVSPost2010PropOp35
 70
     1
102
RTVSPost2010Prop36
280
     0
102
RTVSPost2010PropOp36
 70
     1
102
RTVSPost2010Prop37
 90
       50
102
RTVSPost2010PropOp37
 70
     1
102
RTVSPost2010Prop38
140
0.0
102
RTVSPost2010PropOp38
 70
     1
102
RTVSPost2010Prop39
140
1.0
102
RTVSPost2010PropOp39
 70
     1
102
RTVSPost2010Prop40
 90
        0
102
RTVSPost2010PropOp40
 70
     1
102
RTVSPost2010Prop41ColorIndex
 90
       18
102
RTVSPost2010Prop41ColorRGB
 90
        0
102
RTVSPost2010PropOp41
 70
     1
102
RTVSPost2010Prop42
 90
       50
102
RTVSPost2010PropOp42
 70
     1
102
RTVSPost2010Prop43
 90
        3
102
RTVSPost2010PropOp43
 70
     1
102
RTVSPost2010Prop44ColorIndex
 90
        5
102
RTVSPost2010Prop44ColorRGB
 90
      255
102
RTVSPost2010PropOp44
 70
     1
102
RTVSPost2010Prop45
280
     0
102
RTVSPost2010PropOp45
 70
     1
102
RTVSPost2010Prop46
 90
       50
102
RTVSPost2010PropOp46
 70
     1
102
RTVSPost2010Prop47
 90
       50
102
RTVSPost2010PropOp47
 70
     1
102
RTVSPost2010Prop48
 90
       50
102
RTVSPost2010PropOp48
 70
     1
102
RTVSPost2010Prop49
280
     0
102
RTVSPost2010PropOp49
 70
     1
102
RTVSPost2010Prop50
 90
       50
102
RTVSPost2010PropOp50
 70
     1
102
RTVSPost2010Prop51ColorIndex
 90
      256
102
RTVSPost2010Prop51ColorRGB
 90
-16777216
102
RTVSPost2010PropOp51
 70
     0
102
RTVSPost2010Prop52
140
1.0
102
RTVSPost2010PropOp52
 70
     0
102
RTVSPost2010Prop53
 90
        2
102
RTVSPost2010PropOp53
 70
     1
102
RTVSPost2010Prop54
  1
strokes_ogs.tif
102
RTVSPost2010PropOp54
 70
     1
102
RTVSPost2010Prop55
280
     0
102
RTVSPost2010PropOp55
 70
     1
102
RTVSPost2010Prop56
140
1.0
102
RTVSPost2010PropOp56
 70
     1
102
RTVSPost2010Prop57
140
1.0
102
RTVSPost2010PropOp57
 70
     1
  0
XRECORD
  5
4D4
102
{ACAD_REACTORS
330
4D3
102
}
330
4D3
100
AcDbXrecord
280
     1
102
RTVSPropertyOp0
 70
     1
102
RTVSPropertyOp1
 70
     1
102
RTVSPropertyOp2
 70
     1
102
RTVSPropertyOp3
 70
     1
102
RTVSPropertyOp4
 70
     1
102
RTVSPropertyOp5
 70
     1
102
RTVSPropertyOp6
 70
     1
102
RTVSPropertyOp7
 70
     1
102
RTVSPropertyOp8
 70
     1
102
RTVSPropertyOp9
 70
     1
102
RTVSPropertyOp10
 70
     1
102
RTVSPropertyOp11
 70
     1
102
RTVSPropertyOp12
 70
     1
102
RTVSPropertyOp13
 70
     1
102
RTVSPropertyOp14
 70
     1
102
RTVSPropertyOp15
 70
     1
102
RTVSPropertyOp16
 70
     1
102
RTVSPropertyOp17
 70
     1
102
RTVSPropertyOp18
 70
     1
102
RTVSPropertyOp19
 70
     1
102
RTVSPropertyOp20
 70
     1
102
RTVSPropertyOp21
 70
     1
102
RTVSPropertyOp22
 70
     1
102
RTVSPropertyOp23
 70
     1
102
RTVSPropertyOp24
 70
     1
102
RTVSPropertyOp25
 70
     1
102
RTVSPropertyOp26
 70
     1
102
RTVSPropertyOp27
 70
     1
102
RTVSPropertyOp28
 70
     1
102
RTVSPropertyOp29
 70
     1
102
RTVSPropertyOp30
 70
     1
102
RTVSPropertyOp31
 70
     1
102
RTVSPropertyOp32
 70
     1
102
RTVSPropertyOp33
 70
     1
102
RTVSPropertyOp34
 70
     1
102
RTVSPropertyOp35
 70
     1
102
RTVSPropertyOp36
 70
     1
102
RTVSPropertyOp37
 70
     1
102
RTVSPropertyOp38
 70
     1
102
RTVSPropertyOp39
 70
     1
102
RTVSPropertyOp40
 70
     1
102
RTVSPropertyOp41
 70
     1
102
RTVSPropertyOp42
 70
     1
102
RTVSPropertyOp43
 70
     1
102
RTVSPropertyOp44
 70
     1
102
RTVSPropertyOp45
 70
     1
102
RTVSPropertyOp46
 70
     1
102
RTVSPropertyOp47
 70
     1
102
RTVSPropertyOp48
 70
     1
102
RTVSPropertyOp49
 70
     1
102
RTVSPropertyOp50
 70
     1
102
RTVSPropertyOp51
 70
     0
102
RTVSPropertyOp52
 70
     0
102
RTVSPropertyOp53
 70
     1
102
RTVSPropertyOp54
 70
     1
102
RTVSPropertyOp55
 70
     1
102
RTVSPropertyOp56
 70
     1
102
RTVSPropertyOp57
 70
     1
102
RTVSPost2010Prop28
280
     0
102
RTVSPost2010PropOp28
 70
     1
102
RTVSPost2010Prop29
280
     1
102
RTVSPost2010PropOp29
 70
     1
102
RTVSPost2010Prop30
280
     1
102
RTVSPost2010PropOp30
 70
     1
102
RTVSPost2010Prop31
280
     0
102
RTVSPost2010PropOp31
 70
     1
102
RTVSPost2010Prop32
280
     0
102
RTVSPost2010PropOp32
 70
     1
102
RTVSPost2010Prop33
280
     0
102
RTVSPost2010PropOp33
 70
     1
102
RTVSPost2010Prop34
280
     0
102
RTVSPost2010PropOp34
 70
     1
102
RTVSPost2010Prop35
280
     0
102
RTVSPost2010PropOp35
 70
     1
102
RTVSPost2010Prop36
280
     0
102
RTVSPost2010PropOp36
 70
     1
102
RTVSPost2010Prop37
 90
       50
102
RTVSPost2010PropOp37
 70
     1
102
RTVSPost2010Prop38
140
0.0
102
RTVSPost2010PropOp38
 70
     1
102
RTVSPost2010Prop39
140
1.0
102
RTVSPost2010PropOp39
 70
     1
102
RTVSPost2010Prop40
 90
        0
102
RTVSPost2010PropOp40
 70
     1
102
RTVSPost2010Prop41ColorIndex
 90
       18
102
RTVSPost2010Prop41ColorRGB
 90
        0
102
RTVSPost2010PropOp41
 70
     1
102
RTVSPost2010Prop42
 90
       50
102
RTVSPost2010PropOp42
 70
     1
102
RTVSPost2010Prop43
 90
        3
102
RTVSPost2010PropOp43
 70
     1
102
RTVSPost2010Prop44ColorIndex
 90
        5
102
RTVSPost2010Prop44ColorRGB
 90
      255
102
RTVSPost2010PropOp44
 70
     1
102
RTVSPost2010Prop45
280
     0
102
RTVSPost2010PropOp45
 70
     1
102
RTVSPost2010Prop46
 90
       50
102
RTVSPost2010PropOp46
 70
     1
102
RTVSPost2010Prop47
 90
       50
102
RTVSPost2010PropOp47
 70
     1
102
RTVSPost2010Prop48
 90
       50
102
RTVSPost2010PropOp48
 70
     1
102
RTVSPost2010Prop49
280
     0
102
RTVSPost2010PropOp49
 70
     1
102
RTVSPost2010Prop50
 90
       50
102
RTVSPost2010PropOp50
 70
     1
102
RTVSPost2010Prop51ColorIndex
 90
      256
102
RTVSPost2010Prop51ColorRGB
 90
-16777216
102
RTVSPost2010PropOp51
 70
     0
102
RTVSPost2010Prop52
140
1.0
102
RTVSPost2010PropOp52
 70
     0
102
RTVSPost2010Prop53
 90
        2
102
RTVSPost2010PropOp53
 70
     1
102
RTVSPost2010Prop54
  1
strokes_ogs.tif
102
RTVSPost2010PropOp54
 70
     1
102
RTVSPost2010Prop55
280
     0
102
RTVSPost2010PropOp55
 70
     1
102
RTVSPost2010Prop56
140
1.0
102
RTVSPost2010PropOp56
 70
     1
102
RTVSPost2010Prop57
140
1.0
102
RTVSPost2010PropOp57
 70
     1
  0
XRECORD
  5
4DC
102
{ACAD_REACTORS
330
4DB
102
}
330
4DB
100
AcDbXrecord
280
     1
102
RTVSPropertyOp0
 70
     1
102
RTVSPropertyOp1
 70
     1
102
RTVSPropertyOp2
 70
     1
102
RTVSPropertyOp3
 70
     1
102
RTVSPropertyOp4
 70
     1
102
RTVSPropertyOp5
 70
     1
102
RTVSPropertyOp6
 70
     1
102
RTVSPropertyOp7
 70
     1
102
RTVSPropertyOp8
 70
     1
102
RTVSPropertyOp9
 70
     1
102
RTVSPropertyOp10
 70
     1
102
RTVSPropertyOp11
 70
     1
102
RTVSPropertyOp12
 70
     1
102
RTVSPropertyOp13
 70
     1
102
RTVSPropertyOp14
 70
     1
102
RTVSPropertyOp15
 70
     1
102
RTVSPropertyOp16
 70
     1
102
RTVSPropertyOp17
 70
     1
102
RTVSPropertyOp18
 70
     1
102
RTVSPropertyOp19
 70
     1
102
RTVSPropertyOp20
 70
     1
102
RTVSPropertyOp21
 70
     1
102
RTVSPropertyOp22
 70
     1
102
RTVSPropertyOp23
 70
     1
102
RTVSPropertyOp24
 70
     1
102
RTVSPropertyOp25
 70
     1
102
RTVSPropertyOp26
 70
     1
102
RTVSPropertyOp27
 70
     1
102
RTVSPropertyOp28
 70
     1
102
RTVSPropertyOp29
 70
     1
102
RTVSPropertyOp30
 70
     1
102
RTVSPropertyOp31
 70
     1
102
RTVSPropertyOp32
 70
     1
102
RTVSPropertyOp33
 70
     1
102
RTVSPropertyOp34
 70
     1
102
RTVSPropertyOp35
 70
     1
102
RTVSPropertyOp36
 70
     1
102
RTVSPropertyOp37
 70
     1
102
RTVSPropertyOp38
 70
     1
102
RTVSPropertyOp39
 70
     1
102
RTVSPropertyOp40
 70
     1
102
RTVSPropertyOp41
 70
     1
102
RTVSPropertyOp42
 70
     1
102
RTVSPropertyOp43
 70
     1
102
RTVSPropertyOp44
 70
     1
102
RTVSPropertyOp45
 70
     1
102
RTVSPropertyOp46
 70
     1
102
RTVSPropertyOp47
 70
     1
102
RTVSPropertyOp48
 70
     1
102
RTVSPropertyOp49
 70
     1
102
RTVSPropertyOp50
 70
     1
102
RTVSPropertyOp51
 70
     0
102
RTVSPropertyOp52
 70
     0
102
RTVSPropertyOp53
 70
     1
102
RTVSPropertyOp54
 70
     1
102
RTVSPropertyOp55
 70
     1
102
RTVSPropertyOp56
 70
     1
102
RTVSPropertyOp57
 70
     1
102
RTVSPost2010Prop28
280
     0
102
RTVSPost2010PropOp28
 70
     1
102
RTVSPost2010Prop29
280
     1
102
RTVSPost2010PropOp29
 70
     1
102
RTVSPost2010Prop30
280
     1
102
RTVSPost2010PropOp30
 70
     1
102
RTVSPost2010Prop31
280
     0
102
RTVSPost2010PropOp31
 70
     1
102
RTVSPost2010Prop32
280
     0
102
RTVSPost2010PropOp32
 70
     1
102
RTVSPost2010Prop33
280
     0
102
RTVSPost2010PropOp33
 70
     1
102
RTVSPost2010Prop34
280
     0
102
RTVSPost2010PropOp34
 70
     1
102
RTVSPost2010Prop35
280
     0
102
RTVSPost2010PropOp35
 70
     1
102
RTVSPost2010Prop36
280
     0
102
RTVSPost2010PropOp36
 70
     1
102
RTVSPost2010Prop37
 90
       50
102
RTVSPost2010PropOp37
 70
     1
102
RTVSPost2010Prop38
140
0.0
102
RTVSPost2010PropOp38
 70
     1
102
RTVSPost2010Prop39
140
1.0
102
RTVSPost2010PropOp39
 70
     1
102
RTVSPost2010Prop40
 90
        0
102
RTVSPost2010PropOp40
 70
     1
102
RTVSPost2010Prop41ColorIndex
 90
       18
102
RTVSPost2010Prop41ColorRGB
 90
        0
102
RTVSPost2010PropOp41
 70
     1
102
RTVSPost2010Prop42
 90
       50
102
RTVSPost2010PropOp42
 70
     1
102
RTVSPost2010Prop43
 90
        3
102
RTVSPost2010PropOp43
 70
     1
102
RTVSPost2010Prop44ColorIndex
 90
        5
102
RTVSPost2010Prop44ColorRGB
 90
      255
102
RTVSPost2010PropOp44
 70
     1
102
RTVSPost2010Prop45
280
     0
102
RTVSPost2010PropOp45
 70
     1
102
RTVSPost2010Prop46
 90
       50
102
RTVSPost2010PropOp46
 70
     1
102
RTVSPost2010Prop47
 90
       50
102
RTVSPost2010PropOp47
 70
     1
102
RTVSPost2010Prop48
 90
       50
102
RTVSPost2010PropOp48
 70
     1
102
RTVSPost2010Prop49
280
     0
102
RTVSPost2010PropOp49
 70
     1
102
RTVSPost2010Prop50
 90
       50
102
RTVSPost2010PropOp50
 70
     1
102
RTVSPost2010Prop51ColorIndex
 90
      256
102
RTVSPost2010Prop51ColorRGB
 90
-16777216
102
RTVSPost2010PropOp51
 70
     0
102
RTVSPost2010Prop52
140
1.0
102
RTVSPost2010PropOp52
 70
     0
102
RTVSPost2010Prop53
 90
        2
102
RTVSPost2010PropOp53
 70
     1
102
RTVSPost2010Prop54
  1
strokes_ogs.tif
102
RTVSPost2010PropOp54
 70
     1
102
RTVSPost2010Prop55
280
     0
102
RTVSPost2010PropOp55
 70
     1
102
RTVSPost2010Prop56
140
1.0
102
RTVSPost2010PropOp56
 70
     1
102
RTVSPost2010Prop57
140
1.0
102
RTVSPost2010PropOp57
 70
     1
  0
XRECORD
  5
4E4
102
{ACAD_REACTORS
330
4E3
102
}
330
4E3
100
AcDbXrecord
280
     1
102
RTVSPropertyOp0
 70
     1
102
RTVSPropertyOp1
 70
     1
102
RTVSPropertyOp2
 70
     1
102
RTVSPropertyOp3
 70
     1
102
RTVSPropertyOp4
 70
     1
102
RTVSPropertyOp5
 70
     1
102
RTVSPropertyOp6
 70
     1
102
RTVSPropertyOp7
 70
     1
102
RTVSPropertyOp8
 70
     1
102
RTVSPropertyOp9
 70
     1
102
RTVSPropertyOp10
 70
     1
102
RTVSPropertyOp11
 70
     1
102
RTVSPropertyOp12
 70
     1
102
RTVSPropertyOp13
 70
     1
102
RTVSPropertyOp14
 70
     1
102
RTVSPropertyOp15
 70
     1
102
RTVSPropertyOp16
 70
     1
102
RTVSPropertyOp17
 70
     1
102
RTVSPropertyOp18
 70
     1
102
RTVSPropertyOp19
 70
     1
102
RTVSPropertyOp20
 70
     1
102
RTVSPropertyOp21
 70
     1
102
RTVSPropertyOp22
 70
     1
102
RTVSPropertyOp23
 70
     1
102
RTVSPropertyOp24
 70
     1
102
RTVSPropertyOp25
 70
     1
102
RTVSPropertyOp26
 70
     1
102
RTVSPropertyOp27
 70
     1
102
RTVSPropertyOp28
 70
     1
102
RTVSPropertyOp29
 70
     1
102
RTVSPropertyOp30
 70
     1
102
RTVSPropertyOp31
 70
     1
102
RTVSPropertyOp32
 70
     1
102
RTVSPropertyOp33
 70
     1
102
RTVSPropertyOp34
 70
     1
102
RTVSPropertyOp35
 70
     1
102
RTVSPropertyOp36
 70
     1
102
RTVSPropertyOp37
 70
     1
102
RTVSPropertyOp38
 70
     1
102
RTVSPropertyOp39
 70
     1
102
RTVSPropertyOp40
 70
     1
102
RTVSPropertyOp41
 70
     1
102
RTVSPropertyOp42
 70
     1
102
RTVSPropertyOp43
 70
     1
102
RTVSPropertyOp44
 70
     1
102
RTVSPropertyOp45
 70
     1
102
RTVSPropertyOp46
 70
     1
102
RTVSPropertyOp47
 70
     1
102
RTVSPropertyOp48
 70
     1
102
RTVSPropertyOp49
 70
     1
102
RTVSPropertyOp50
 70
     1
102
RTVSPropertyOp51
 70
     0
102
RTVSPropertyOp52
 70
     0
102
RTVSPropertyOp53
 70
     1
102
RTVSPropertyOp54
 70
     1
102
RTVSPropertyOp55
 70
     1
102
RTVSPropertyOp56
 70
     1
102
RTVSPropertyOp57
 70
     1
102
RTVSPost2010Prop28
280
     0
102
RTVSPost2010PropOp28
 70
     1
102
RTVSPost2010Prop29
280
     1
102
RTVSPost2010PropOp29
 70
     1
102
RTVSPost2010Prop30
280
     1
102
RTVSPost2010PropOp30
 70
     1
102
RTVSPost2010Prop31
280
     0
102
RTVSPost2010PropOp31
 70
     1
102
RTVSPost2010Prop32
280
     0
102
RTVSPost2010PropOp32
 70
     1
102
RTVSPost2010Prop33
280
     0
102
RTVSPost2010PropOp33
 70
     1
102
RTVSPost2010Prop34
280
     0
102
RTVSPost2010PropOp34
 70
     1
102
RTVSPost2010Prop35
280
     0
102
RTVSPost2010PropOp35
 70
     1
102
RTVSPost2010Prop36
280
     0
102
RTVSPost2010PropOp36
 70
     1
102
RTVSPost2010Prop37
 90
       50
102
RTVSPost2010PropOp37
 70
     1
102
RTVSPost2010Prop38
140
0.0
102
RTVSPost2010PropOp38
 70
     1
102
RTVSPost2010Prop39
140
1.0
102
RTVSPost2010PropOp39
 70
     1
102
RTVSPost2010Prop40
 90
        0
102
RTVSPost2010PropOp40
 70
     1
102
RTVSPost2010Prop41ColorIndex
 90
       18
102
RTVSPost2010Prop41ColorRGB
 90
        0
102
RTVSPost2010PropOp41
 70
     1
102
RTVSPost2010Prop42
 90
       50
102
RTVSPost2010PropOp42
 70
     1
102
RTVSPost2010Prop43
 90
        3
102
RTVSPost2010PropOp43
 70
     1
102
RTVSPost2010Prop44ColorIndex
 90
        5
102
RTVSPost2010Prop44ColorRGB
 90
      255
102
RTVSPost2010PropOp44
 70
     1
102
RTVSPost2010Prop45
280
     0
102
RTVSPost2010PropOp45
 70
     1
102
RTVSPost2010Prop46
 90
       50
102
RTVSPost2010PropOp46
 70
     1
102
RTVSPost2010Prop47
 90
       50
102
RTVSPost2010PropOp47
 70
     1
102
RTVSPost2010Prop48
 90
       50
102
RTVSPost2010PropOp48
 70
     1
102
RTVSPost2010Prop49
280
     0
102
RTVSPost2010PropOp49
 70
     1
102
RTVSPost2010Prop50
 90
       50
102
RTVSPost2010PropOp50
 70
     1
102
RTVSPost2010Prop51ColorIndex
 90
      256
102
RTVSPost2010Prop51ColorRGB
 90
-16777216
102
RTVSPost2010PropOp51
 70
     0
102
RTVSPost2010Prop52
140
1.0
102
RTVSPost2010PropOp52
 70
     0
102
RTVSPost2010Prop53
 90
        2
102
RTVSPost2010PropOp53
 70
     1
102
RTVSPost2010Prop54
  1
strokes_ogs.tif
102
RTVSPost2010PropOp54
 70
     1
102
RTVSPost2010Prop55
280
     0
102
RTVSPost2010PropOp55
 70
     1
102
RTVSPost2010Prop56
140
1.0
102
RTVSPost2010PropOp56
 70
     1
102
RTVSPost2010Prop57
140
1.0
102
RTVSPost2010PropOp57
 70
     1
  0
XRECORD
  5
4D8
102
{ACAD_REACTORS
330
4D7
102
}
330
4D7
100
AcDbXrecord
280
     1
102
RTVSPropertyOp0
 70
     1
102
RTVSPropertyOp1
 70
     1
102
RTVSPropertyOp2
 70
     1
102
RTVSPropertyOp3
 70
     1
102
RTVSPropertyOp4
 70
     1
102
RTVSPropertyOp5
 70
     1
102
RTVSPropertyOp6
 70
     1
102
RTVSPropertyOp7
 70
     1
102
RTVSPropertyOp8
 70
     1
102
RTVSPropertyOp9
 70
     1
102
RTVSPropertyOp10
 70
     1
102
RTVSPropertyOp11
 70
     1
102
RTVSPropertyOp12
 70
     1
102
RTVSPropertyOp13
 70
     1
102
RTVSPropertyOp14
 70
     1
102
RTVSPropertyOp15
 70
     1
102
RTVSPropertyOp16
 70
     1
102
RTVSPropertyOp17
 70
     1
102
RTVSPropertyOp18
 70
     1
102
RTVSPropertyOp19
 70
     1
102
RTVSPropertyOp20
 70
     1
102
RTVSPropertyOp21
 70
     1
102
RTVSPropertyOp22
 70
     1
102
RTVSPropertyOp23
 70
     1
102
RTVSPropertyOp24
 70
     1
102
RTVSPropertyOp25
 70
     1
102
RTVSPropertyOp26
 70
     1
102
RTVSPropertyOp27
 70
     1
102
RTVSPropertyOp28
 70
     1
102
RTVSPropertyOp29
 70
     1
102
RTVSPropertyOp30
 70
     1
102
RTVSPropertyOp31
 70
     1
102
RTVSPropertyOp32
 70
     1
102
RTVSPropertyOp33
 70
     1
102
RTVSPropertyOp34
 70
     1
102
RTVSPropertyOp35
 70
     1
102
RTVSPropertyOp36
 70
     1
102
RTVSPropertyOp37
 70
     1
102
RTVSPropertyOp38
 70
     1
102
RTVSPropertyOp39
 70
     1
102
RTVSPropertyOp40
 70
     1
102
RTVSPropertyOp41
 70
     1
102
RTVSPropertyOp42
 70
     1
102
RTVSPropertyOp43
 70
     1
102
RTVSPropertyOp44
 70
     1
102
RTVSPropertyOp45
 70
     1
102
RTVSPropertyOp46
 70
     1
102
RTVSPropertyOp47
 70
     1
102
RTVSPropertyOp48
 70
     1
102
RTVSPropertyOp49
 70
     1
102
RTVSPropertyOp50
 70
     1
102
RTVSPropertyOp51
 70
     0
102
RTVSPropertyOp52
 70
     0
102
RTVSPropertyOp53
 70
     1
102
RTVSPropertyOp54
 70
     1
102
RTVSPropertyOp55
 70
     1
102
RTVSPropertyOp56
 70
     1
102
RTVSPropertyOp57
 70
     1
102
RTVSPost2010Prop28
280
     0
102
RTVSPost2010PropOp28
 70
     1
102
RTVSPost2010Prop29
280
     1
102
RTVSPost2010PropOp29
 70
     1
102
RTVSPost2010Prop30
280
     1
102
RTVSPost2010PropOp30
 70
     1
102
RTVSPost2010Prop31
280
     0
102
RTVSPost2010PropOp31
 70
     1
102
RTVSPost2010Prop32
280
     0
102
RTVSPost2010PropOp32
 70
     1
102
RTVSPost2010Prop33
280
     0
102
RTVSPost2010PropOp33
 70
     1
102
RTVSPost2010Prop34
280
     0
102
RTVSPost2010PropOp34
 70
     1
102
RTVSPost2010Prop35
280
     0
102
RTVSPost2010PropOp35
 70
     1
102
RTVSPost2010Prop36
280
     0
102
RTVSPost2010PropOp36
 70
     1
102
RTVSPost2010Prop37
 90
       50
102
RTVSPost2010PropOp37
 70
     1
102
RTVSPost2010Prop38
140
0.0
102
RTVSPost2010PropOp38
 70
     1
102
RTVSPost2010Prop39
140
1.0
102
RTVSPost2010PropOp39
 70
     1
102
RTVSPost2010Prop40
 90
        0
102
RTVSPost2010PropOp40
 70
     1
102
RTVSPost2010Prop41ColorIndex
 90
       18
102
RTVSPost2010Prop41ColorRGB
 90
        0
102
RTVSPost2010PropOp41
 70
     1
102
RTVSPost2010Prop42
 90
       50
102
RTVSPost2010PropOp42
 70
     1
102
RTVSPost2010Prop43
 90
        3
102
RTVSPost2010PropOp43
 70
     1
102
RTVSPost2010Prop44ColorIndex
 90
        5
102
RTVSPost2010Prop44ColorRGB
 90
      255
102
RTVSPost2010PropOp44
 70
     1
102
RTVSPost2010Prop45
280
     0
102
RTVSPost2010PropOp45
 70
     1
102
RTVSPost2010Prop46
 90
       50
102
RTVSPost2010PropOp46
 70
     1
102
RTVSPost2010Prop47
 90
       50
102
RTVSPost2010PropOp47
 70
     1
102
RTVSPost2010Prop48
 90
       50
102
RTVSPost2010PropOp48
 70
     1
102
RTVSPost2010Prop49
280
     0
102
RTVSPost2010PropOp49
 70
     1
102
RTVSPost2010Prop50
 90
       50
102
RTVSPost2010PropOp50
 70
     1
102
RTVSPost2010Prop51ColorIndex
 90
      256
102
RTVSPost2010Prop51ColorRGB
 90
-16777216
102
RTVSPost2010PropOp51
 70
     0
102
RTVSPost2010Prop52
140
1.0
102
RTVSPost2010PropOp52
 70
     0
102
RTVSPost2010Prop53
 90
        2
102
RTVSPost2010PropOp53
 70
     1
102
RTVSPost2010Prop54
  1
strokes_ogs.tif
102
RTVSPost2010PropOp54
 70
     1
102
RTVSPost2010Prop55
280
     0
102
RTVSPost2010PropOp55
 70
     1
102
RTVSPost2010Prop56
140
1.0
102
RTVSPost2010PropOp56
 70
     1
102
RTVSPost2010Prop57
140
1.0
102
RTVSPost2010PropOp57
 70
     1
  0
XRECORD
  5
4DA
102
{ACAD_REACTORS
330
4D9
102
}
330
4D9
100
AcDbXrecord
280
     1
102
RTVSPropertyOp0
 70
     1
102
RTVSPropertyOp1
 70
     1
102
RTVSPropertyOp2
 70
     1
102
RTVSPropertyOp3
 70
     1
102
RTVSPropertyOp4
 70
     1
102
RTVSPropertyOp5
 70
     1
102
RTVSPropertyOp6
 70
     1
102
RTVSPropertyOp7
 70
     1
102
RTVSPropertyOp8
 70
     1
102
RTVSPropertyOp9
 70
     1
102
RTVSPropertyOp10
 70
     1
102
RTVSPropertyOp11
 70
     1
102
RTVSPropertyOp12
 70
     1
102
RTVSPropertyOp13
 70
     1
102
RTVSPropertyOp14
 70
     1
102
RTVSPropertyOp15
 70
     1
102
RTVSPropertyOp16
 70
     1
102
RTVSPropertyOp17
 70
     1
102
RTVSPropertyOp18
 70
     1
102
RTVSPropertyOp19
 70
     1
102
RTVSPropertyOp20
 70
     1
102
RTVSPropertyOp21
 70
     1
102
RTVSPropertyOp22
 70
     1
102
RTVSPropertyOp23
 70
     1
102
RTVSPropertyOp24
 70
     1
102
RTVSPropertyOp25
 70
     1
102
RTVSPropertyOp26
 70
     1
102
RTVSPropertyOp27
 70
     1
102
RTVSPropertyOp28
 70
     1
102
RTVSPropertyOp29
 70
     1
102
RTVSPropertyOp30
 70
     1
102
RTVSPropertyOp31
 70
     1
102
RTVSPropertyOp32
 70
     1
102
RTVSPropertyOp33
 70
     1
102
RTVSPropertyOp34
 70
     1
102
RTVSPropertyOp35
 70
     1
102
RTVSPropertyOp36
 70
     1
102
RTVSPropertyOp37
 70
     1
102
RTVSPropertyOp38
 70
     1
102
RTVSPropertyOp39
 70
     1
102
RTVSPropertyOp40
 70
     1
102
RTVSPropertyOp41
 70
     1
102
RTVSPropertyOp42
 70
     1
102
RTVSPropertyOp43
 70
     1
102
RTVSPropertyOp44
 70
     1
102
RTVSPropertyOp45
 70
     1
102
RTVSPropertyOp46
 70
     1
102
RTVSPropertyOp47
 70
     1
102
RTVSPropertyOp48
 70
     1
102
RTVSPropertyOp49
 70
     1
102
RTVSPropertyOp50
 70
     1
102
RTVSPropertyOp51
 70
     0
102
RTVSPropertyOp52
 70
     0
102
RTVSPropertyOp53
 70
     1
102
RTVSPropertyOp54
 70
     1
102
RTVSPropertyOp55
 70
     1
102
RTVSPropertyOp56
 70
     1
102
RTVSPropertyOp57
 70
     1
102
RTVSPost2010Prop28
280
     0
102
RTVSPost2010PropOp28
 70
     1
102
RTVSPost2010Prop29
280
     1
102
RTVSPost2010PropOp29
 70
     1
102
RTVSPost2010Prop30
280
     1
102
RTVSPost2010PropOp30
 70
     1
102
RTVSPost2010Prop31
280
     0
102
RTVSPost2010PropOp31
 70
     1
102
RTVSPost2010Prop32
280
     0
102
RTVSPost2010PropOp32
 70
     1
102
RTVSPost2010Prop33
280
     0
102
RTVSPost2010PropOp33
 70
     1
102
RTVSPost2010Prop34
280
     0
102
RTVSPost2010PropOp34
 70
     1
102
RTVSPost2010Prop35
280
     0
102
RTVSPost2010PropOp35
 70
     1
102
RTVSPost2010Prop36
280
     0
102
RTVSPost2010PropOp36
 70
     1
102
RTVSPost2010Prop37
 90
       50
102
RTVSPost2010PropOp37
 70
     1
102
RTVSPost2010Prop38
140
0.0
102
RTVSPost2010PropOp38
 70
     1
102
RTVSPost2010Prop39
140
1.0
102
RTVSPost2010PropOp39
 70
     1
102
RTVSPost2010Prop40
 90
        0
102
RTVSPost2010PropOp40
 70
     1
102
RTVSPost2010Prop41ColorIndex
 90
       18
102
RTVSPost2010Prop41ColorRGB
 90
        0
102
RTVSPost2010PropOp41
 70
     1
102
RTVSPost2010Prop42
 90
       50
102
RTVSPost2010PropOp42
 70
     1
102
RTVSPost2010Prop43
 90
        3
102
RTVSPost2010PropOp43
 70
     1
102
RTVSPost2010Prop44ColorIndex
 90
        5
102
RTVSPost2010Prop44ColorRGB
 90
      255
102
RTVSPost2010PropOp44
 70
     1
102
RTVSPost2010Prop45
280
     0
102
RTVSPost2010PropOp45
 70
     1
102
RTVSPost2010Prop46
 90
       50
102
RTVSPost2010PropOp46
 70
     1
102
RTVSPost2010Prop47
 90
       50
102
RTVSPost2010PropOp47
 70
     1
102
RTVSPost2010Prop48
 90
       50
102
RTVSPost2010PropOp48
 70
     1
102
RTVSPost2010Prop49
280
     0
102
RTVSPost2010PropOp49
 70
     1
102
RTVSPost2010Prop50
 90
       50
102
RTVSPost2010PropOp50
 70
     1
102
RTVSPost2010Prop51ColorIndex
 90
      256
102
RTVSPost2010Prop51ColorRGB
 90
-16777216
102
RTVSPost2010PropOp51
 70
     0
102
RTVSPost2010Prop52
140
1.0
102
RTVSPost2010PropOp52
 70
     0
102
RTVSPost2010Prop53
 90
        2
102
RTVSPost2010PropOp53
 70
     1
102
RTVSPost2010Prop54
  1
strokes_ogs.tif
102
RTVSPost2010PropOp54
 70
     1
102
RTVSPost2010Prop55
280
     0
102
RTVSPost2010PropOp55
 70
     1
102
RTVSPost2010Prop56
140
1.0
102
RTVSPost2010PropOp56
 70
     1
102
RTVSPost2010Prop57
140
1.0
102
RTVSPost2010PropOp57
 70
     1
  0
XRECORD
  5
4EA
102
{ACAD_REACTORS
330
4E9
102
}
330
4E9
100
AcDbXrecord
280
     1
102
RTVSPropertyOp0
 70
     0
102
RTVSPropertyOp1
 70
     0
102
RTVSPropertyOp2
 70
     0
102
RTVSPropertyOp3
 70
     0
102
RTVSPropertyOp4
 70
     0
102
RTVSPropertyOp5
 70
     0
102
RTVSPropertyOp6
 70
     0
102
RTVSPropertyOp7
 70
     0
102
RTVSPropertyOp8
 70
     0
102
RTVSPropertyOp9
 70
     0
102
RTVSPropertyOp10
 70
     0
102
RTVSPropertyOp11
 70
     0
102
RTVSPropertyOp12
 70
     0
102
RTVSPropertyOp13
 70
     0
102
RTVSPropertyOp14
 70
     2
102
RTVSPropertyOp15
 70
     0
102
RTVSPropertyOp16
 70
     0
102
RTVSPropertyOp17
 70
     0
102
RTVSPropertyOp18
 70
     0
102
RTVSPropertyOp19
 70
     0
102
RTVSPropertyOp20
 70
     0
102
RTVSPropertyOp21
 70
     0
102
RTVSPropertyOp22
 70
     0
102
RTVSPropertyOp23
 70
     0
102
RTVSPropertyOp24
 70
     0
102
RTVSPropertyOp25
 70
     0
102
RTVSPropertyOp26
 70
     0
102
RTVSPropertyOp27
 70
     0
102
RTVSPropertyOp28
 70
     0
102
RTVSPropertyOp29
 70
     0
102
RTVSPropertyOp30
 70
     0
102
RTVSPropertyOp31
 70
     0
102
RTVSPropertyOp32
 70
     0
102
RTVSPropertyOp33
 70
     0
102
RTVSPropertyOp34
 70
     0
102
RTVSPropertyOp35
 70
     0
102
RTVSPropertyOp36
 70
     0
102
RTVSPropertyOp37
 70
     0
102
RTVSPropertyOp38
 70
     0
102
RTVSPropertyOp39
 70
     0
102
RTVSPropertyOp40
 70
     0
102
RTVSPropertyOp41
 70
     0
102
RTVSPropertyOp42
 70
     0
102
RTVSPropertyOp43
 70
     0
102
RTVSPropertyOp44
 70
     0
102
RTVSPropertyOp45
 70
     0
102
RTVSPropertyOp46
 70
     0
102
RTVSPropertyOp47
 70
     0
102
RTVSPropertyOp48
 70
     0
102
RTVSPropertyOp49
 70
     0
102
RTVSPropertyOp50
 70
     0
102
RTVSPropertyOp51
 70
     0
102
RTVSPropertyOp52
 70
     0
102
RTVSPropertyOp53
 70
     0
102
RTVSPropertyOp54
 70
     0
102
RTVSPropertyOp55
 70
     0
102
RTVSPropertyOp56
 70
     0
102
RTVSPropertyOp57
 70
     0
102
RTVSPost2010Prop28
280
     0
102
RTVSPost2010PropOp28
 70
     0
102
RTVSPost2010Prop29
280
     1
102
RTVSPost2010PropOp29
 70
     0
102
RTVSPost2010Prop30
280
     1
102
RTVSPost2010PropOp30
 70
     0
102
RTVSPost2010Prop31
280
     0
102
RTVSPost2010PropOp31
 70
     0
102
RTVSPost2010Prop32
280
     0
102
RTVSPost2010PropOp32
 70
     0
102
RTVSPost2010Prop33
280
     0
102
RTVSPost2010PropOp33
 70
     0
102
RTVSPost2010Prop34
280
     0
102
RTVSPost2010PropOp34
 70
     0
102
RTVSPost2010Prop35
280
     0
102
RTVSPost2010PropOp35
 70
     0
102
RTVSPost2010Prop36
280
     0
102
RTVSPost2010PropOp36
 70
     0
102
RTVSPost2010Prop37
 90
       50
102
RTVSPost2010PropOp37
 70
     0
102
RTVSPost2010Prop38
140
0.0
102
RTVSPost2010PropOp38
 70
     0
102
RTVSPost2010Prop39
140
1.0
102
RTVSPost2010PropOp39
 70
     0
102
RTVSPost2010Prop40
 90
        0
102
RTVSPost2010PropOp40
 70
     0
102
RTVSPost2010Prop41ColorIndex
 90
       18
102
RTVSPost2010Prop41ColorRGB
 90
        0
102
RTVSPost2010PropOp41
 70
     0
102
RTVSPost2010Prop42
 90
       50
102
RTVSPost2010PropOp42
 70
     0
102
RTVSPost2010Prop43
 90
        3
102
RTVSPost2010PropOp43
 70
     0
102
RTVSPost2010Prop44ColorIndex
 90
        5
102
RTVSPost2010Prop44ColorRGB
 90
      255
102
RTVSPost2010PropOp44
 70
     0
102
RTVSPost2010Prop45
280
     0
102
RTVSPost2010PropOp45
 70
     0
102
RTVSPost2010Prop46
 90
       50
102
RTVSPost2010PropOp46
 70
     0
102
RTVSPost2010Prop47
 90
       50
102
RTVSPost2010PropOp47
 70
     0
102
RTVSPost2010Prop48
 90
       50
102
RTVSPost2010PropOp48
 70
     0
102
RTVSPost2010Prop49
280
     0
102
RTVSPost2010PropOp49
 70
     0
102
RTVSPost2010Prop50
 90
       50
102
RTVSPost2010PropOp50
 70
     0
102
RTVSPost2010Prop51ColorIndex
 90
      256
102
RTVSPost2010Prop51ColorRGB
 90
-16777216
102
RTVSPost2010PropOp51
 70
     0
102
RTVSPost2010Prop52
140
1.0
102
RTVSPost2010PropOp52
 70
     0
102
RTVSPost2010Prop53
 90
        2
102
RTVSPost2010PropOp53
 70
     0
102
RTVSPost2010Prop54
  1
strokes_ogs.tif
102
RTVSPost2010PropOp54
 70
     0
102
RTVSPost2010Prop55
280
     0
102
RTVSPost2010PropOp55
 70
     0
102
RTVSPost2010Prop56
140
1.0
102
RTVSPost2010PropOp56
 70
     0
102
RTVSPost2010Prop57
140
1.0
102
RTVSPost2010PropOp57
 70
     0
  0
XRECORD
  5
4E2
102
{ACAD_REACTORS
330
4E1
102
}
330
4E1
100
AcDbXrecord
280
     1
102
RTVSPropertyOp0
 70
     1
102
RTVSPropertyOp1
 70
     1
102
RTVSPropertyOp2
 70
     1
102
RTVSPropertyOp3
 70
     1
102
RTVSPropertyOp4
 70
     1
102
RTVSPropertyOp5
 70
     1
102
RTVSPropertyOp6
 70
     1
102
RTVSPropertyOp7
 70
     1
102
RTVSPropertyOp8
 70
     1
102
RTVSPropertyOp9
 70
     1
102
RTVSPropertyOp10
 70
     1
102
RTVSPropertyOp11
 70
     1
102
RTVSPropertyOp12
 70
     1
102
RTVSPropertyOp13
 70
     1
102
RTVSPropertyOp14
 70
     1
102
RTVSPropertyOp15
 70
     1
102
RTVSPropertyOp16
 70
     1
102
RTVSPropertyOp17
 70
     1
102
RTVSPropertyOp18
 70
     1
102
RTVSPropertyOp19
 70
     1
102
RTVSPropertyOp20
 70
     1
102
RTVSPropertyOp21
 70
     1
102
RTVSPropertyOp22
 70
     1
102
RTVSPropertyOp23
 70
     1
102
RTVSPropertyOp24
 70
     1
102
RTVSPropertyOp25
 70
     1
102
RTVSPropertyOp26
 70
     1
102
RTVSPropertyOp27
 70
     1
102
RTVSPropertyOp28
 70
     1
102
RTVSPropertyOp29
 70
     1
102
RTVSPropertyOp30
 70
     1
102
RTVSPropertyOp31
 70
     1
102
RTVSPropertyOp32
 70
     1
102
RTVSPropertyOp33
 70
     1
102
RTVSPropertyOp34
 70
     1
102
RTVSPropertyOp35
 70
     1
102
RTVSPropertyOp36
 70
     1
102
RTVSPropertyOp37
 70
     1
102
RTVSPropertyOp38
 70
     1
102
RTVSPropertyOp39
 70
     1
102
RTVSPropertyOp40
 70
     1
102
RTVSPropertyOp41
 70
     1
102
RTVSPropertyOp42
 70
     1
102
RTVSPropertyOp43
 70
     1
102
RTVSPropertyOp44
 70
     1
102
RTVSPropertyOp45
 70
     1
102
RTVSPropertyOp46
 70
     1
102
RTVSPropertyOp47
 70
     1
102
RTVSPropertyOp48
 70
     1
102
RTVSPropertyOp49
 70
     1
102
RTVSPropertyOp50
 70
     1
102
RTVSPropertyOp51
 70
     0
102
RTVSPropertyOp52
 70
     0
102
RTVSPropertyOp53
 70
     1
102
RTVSPropertyOp54
 70
     1
102
RTVSPropertyOp55
 70
     1
102
RTVSPropertyOp56
 70
     1
102
RTVSPropertyOp57
 70
     1
102
RTVSPost2010Prop28
280
     0
102
RTVSPost2010PropOp28
 70
     1
102
RTVSPost2010Prop29
280
     1
102
RTVSPost2010PropOp29
 70
     1
102
RTVSPost2010Prop30
280
     1
102
RTVSPost2010PropOp30
 70
     1
102
RTVSPost2010Prop31
280
     0
102
RTVSPost2010PropOp31
 70
     1
102
RTVSPost2010Prop32
280
     0
102
RTVSPost2010PropOp32
 70
     1
102
RTVSPost2010Prop33
280
     0
102
RTVSPost2010PropOp33
 70
     1
102
RTVSPost2010Prop34
280
     0
102
RTVSPost2010PropOp34
 70
     1
102
RTVSPost2010Prop35
280
     0
102
RTVSPost2010PropOp35
 70
     1
102
RTVSPost2010Prop36
280
     0
102
RTVSPost2010PropOp36
 70
     1
102
RTVSPost2010Prop37
 90
       50
102
RTVSPost2010PropOp37
 70
     1
102
RTVSPost2010Prop38
140
0.0
102
RTVSPost2010PropOp38
 70
     1
102
RTVSPost2010Prop39
140
1.0
102
RTVSPost2010PropOp39
 70
     1
102
RTVSPost2010Prop40
 90
        0
102
RTVSPost2010PropOp40
 70
     1
102
RTVSPost2010Prop41ColorIndex
 90
       18
102
RTVSPost2010Prop41ColorRGB
 90
        0
102
RTVSPost2010PropOp41
 70
     1
102
RTVSPost2010Prop42
 90
       50
102
RTVSPost2010PropOp42
 70
     1
102
RTVSPost2010Prop43
 90
        3
102
RTVSPost2010PropOp43
 70
     1
102
RTVSPost2010Prop44ColorIndex
 90
        5
102
RTVSPost2010Prop44ColorRGB
 90
      255
102
RTVSPost2010PropOp44
 70
     1
102
RTVSPost2010Prop45
280
     0
102
RTVSPost2010PropOp45
 70
     1
102
RTVSPost2010Prop46
 90
       50
102
RTVSPost2010PropOp46
 70
     1
102
RTVSPost2010Prop47
 90
       50
102
RTVSPost2010PropOp47
 70
     1
102
RTVSPost2010Prop48
 90
       50
102
RTVSPost2010PropOp48
 70
     1
102
RTVSPost2010Prop49
280
     0
102
RTVSPost2010PropOp49
 70
     1
102
RTVSPost2010Prop50
 90
       50
102
RTVSPost2010PropOp50
 70
     1
102
RTVSPost2010Prop51ColorIndex
 90
      256
102
RTVSPost2010Prop51ColorRGB
 90
-16777216
102
RTVSPost2010PropOp51
 70
     0
102
RTVSPost2010Prop52
140
1.0
102
RTVSPost2010PropOp52
 70
     0
102
RTVSPost2010Prop53
 90
        2
102
RTVSPost2010PropOp53
 70
     1
102
RTVSPost2010Prop54
  1
strokes_ogs.tif
102
RTVSPost2010PropOp54
 70
     1
102
RTVSPost2010Prop55
280
     0
102
RTVSPost2010PropOp55
 70
     1
102
RTVSPost2010Prop56
140
1.0
102
RTVSPost2010PropOp56
 70
     1
102
RTVSPost2010Prop57
140
1.0
102
RTVSPost2010PropOp57
 70
     1
  0
XRECORD
  5
4C6
102
{ACAD_REACTORS
330
4C5
102
}
330
4C5
100
AcDbXrecord
280
     1
102
RTVSPropertyOp0
 70
     1
102
RTVSPropertyOp1
 70
     1
102
RTVSPropertyOp2
 70
     1
102
RTVSPropertyOp3
 70
     1
102
RTVSPropertyOp4
 70
     1
102
RTVSPropertyOp5
 70
     1
102
RTVSPropertyOp6
 70
     1
102
RTVSPropertyOp7
 70
     1
102
RTVSPropertyOp8
 70
     1
102
RTVSPropertyOp9
 70
     1
102
RTVSPropertyOp10
 70
     1
102
RTVSPropertyOp11
 70
     1
102
RTVSPropertyOp12
 70
     1
102
RTVSPropertyOp13
 70
     1
102
RTVSPropertyOp14
 70
     1
102
RTVSPropertyOp15
 70
     1
102
RTVSPropertyOp16
 70
     1
102
RTVSPropertyOp17
 70
     1
102
RTVSPropertyOp18
 70
     1
102
RTVSPropertyOp19
 70
     1
102
RTVSPropertyOp20
 70
     1
102
RTVSPropertyOp21
 70
     1
102
RTVSPropertyOp22
 70
     1
102
RTVSPropertyOp23
 70
     1
102
RTVSPropertyOp24
 70
     1
102
RTVSPropertyOp25
 70
     1
102
RTVSPropertyOp26
 70
     1
102
RTVSPropertyOp27
 70
     1
102
RTVSPropertyOp28
 70
     1
102
RTVSPropertyOp29
 70
     1
102
RTVSPropertyOp30
 70
     1
102
RTVSPropertyOp31
 70
     1
102
RTVSPropertyOp32
 70
     1
102
RTVSPropertyOp33
 70
     1
102
RTVSPropertyOp34
 70
     1
102
RTVSPropertyOp35
 70
     1
102
RTVSPropertyOp36
 70
     1
102
RTVSPropertyOp37
 70
     1
102
RTVSPropertyOp38
 70
     1
102
RTVSPropertyOp39
 70
     1
102
RTVSPropertyOp40
 70
     1
102
RTVSPropertyOp41
 70
     1
102
RTVSPropertyOp42
 70
     1
102
RTVSPropertyOp43
 70
     1
102
RTVSPropertyOp44
 70
     1
102
RTVSPropertyOp45
 70
     1
102
RTVSPropertyOp46
 70
     1
102
RTVSPropertyOp47
 70
     1
102
RTVSPropertyOp48
 70
     1
102
RTVSPropertyOp49
 70
     1
102
RTVSPropertyOp50
 70
     1
102
RTVSPropertyOp51
 70
     0
102
RTVSPropertyOp52
 70
     0
102
RTVSPropertyOp53
 70
     1
102
RTVSPropertyOp54
 70
     1
102
RTVSPropertyOp55
 70
     1
102
RTVSPropertyOp56
 70
     1
102
RTVSPropertyOp57
 70
     1
102
RTVSPost2010Prop28
280
     0
102
RTVSPost2010PropOp28
 70
     1
102
RTVSPost2010Prop29
280
     1
102
RTVSPost2010PropOp29
 70
     1
102
RTVSPost2010Prop30
280
     1
102
RTVSPost2010PropOp30
 70
     1
102
RTVSPost2010Prop31
280
     0
102
RTVSPost2010PropOp31
 70
     1
102
RTVSPost2010Prop32
280
     0
102
RTVSPost2010PropOp32
 70
     1
102
RTVSPost2010Prop33
280
     0
102
RTVSPost2010PropOp33
 70
     1
102
RTVSPost2010Prop34
280
     0
102
RTVSPost2010PropOp34
 70
     1
102
RTVSPost2010Prop35
280
     0
102
RTVSPost2010PropOp35
 70
     1
102
RTVSPost2010Prop36
280
     0
102
RTVSPost2010PropOp36
 70
     1
102
RTVSPost2010Prop37
 90
       50
102
RTVSPost2010PropOp37
 70
     1
102
RTVSPost2010Prop38
140
0.0
102
RTVSPost2010PropOp38
 70
     1
102
RTVSPost2010Prop39
140
1.0
102
RTVSPost2010PropOp39
 70
     1
102
RTVSPost2010Prop40
 90
        0
102
RTVSPost2010PropOp40
 70
     1
102
RTVSPost2010Prop41ColorIndex
 90
       18
102
RTVSPost2010Prop41ColorRGB
 90
        0
102
RTVSPost2010PropOp41
 70
     1
102
RTVSPost2010Prop42
 90
       50
102
RTVSPost2010PropOp42
 70
     1
102
RTVSPost2010Prop43
 90
        3
102
RTVSPost2010PropOp43
 70
     1
102
RTVSPost2010Prop44ColorIndex
 90
        5
102
RTVSPost2010Prop44ColorRGB
 90
      255
102
RTVSPost2010PropOp44
 70
     1
102
RTVSPost2010Prop45
280
     0
102
RTVSPost2010PropOp45
 70
     1
102
RTVSPost2010Prop46
 90
       50
102
RTVSPost2010PropOp46
 70
     1
102
RTVSPost2010Prop47
 90
       50
102
RTVSPost2010PropOp47
 70
     1
102
RTVSPost2010Prop48
 90
       50
102
RTVSPost2010PropOp48
 70
     1
102
RTVSPost2010Prop49
280
     0
102
RTVSPost2010PropOp49
 70
     1
102
RTVSPost2010Prop50
 90
       50
102
RTVSPost2010PropOp50
 70
     1
102
RTVSPost2010Prop51ColorIndex
 90
      256
102
RTVSPost2010Prop51ColorRGB
 90
-16777216
102
RTVSPost2010PropOp51
 70
     0
102
RTVSPost2010Prop52
140
1.0
102
RTVSPost2010PropOp52
 70
     0
102
RTVSPost2010Prop53
 90
        2
102
RTVSPost2010PropOp53
 70
     1
102
RTVSPost2010Prop54
  1
strokes_ogs.tif
102
RTVSPost2010PropOp54
 70
     1
102
RTVSPost2010Prop55
280
     0
102
RTVSPost2010PropOp55
 70
     1
102
RTVSPost2010Prop56
140
1.0
102
RTVSPost2010PropOp56
 70
     1
102
RTVSPost2010Prop57
140
1.0
102
RTVSPost2010PropOp57
 70
     1
  0
XRECORD
  5
4C8
102
{ACAD_REACTORS
330
4C7
102
}
330
4C7
100
AcDbXrecord
280
     1
102
RTVSPropertyOp0
 70
     1
102
RTVSPropertyOp1
 70
     1
102
RTVSPropertyOp2
 70
     1
102
RTVSPropertyOp3
 70
     1
102
RTVSPropertyOp4
 70
     1
102
RTVSPropertyOp5
 70
     1
102
RTVSPropertyOp6
 70
     1
102
RTVSPropertyOp7
 70
     1
102
RTVSPropertyOp8
 70
     1
102
RTVSPropertyOp9
 70
     1
102
RTVSPropertyOp10
 70
     1
102
RTVSPropertyOp11
 70
     1
102
RTVSPropertyOp12
 70
     1
102
RTVSPropertyOp13
 70
     1
102
RTVSPropertyOp14
 70
     1
102
RTVSPropertyOp15
 70
     1
102
RTVSPropertyOp16
 70
     1
102
RTVSPropertyOp17
 70
     1
102
RTVSPropertyOp18
 70
     1
102
RTVSPropertyOp19
 70
     1
102
RTVSPropertyOp20
 70
     1
102
RTVSPropertyOp21
 70
     1
102
RTVSPropertyOp22
 70
     1
102
RTVSPropertyOp23
 70
     1
102
RTVSPropertyOp24
 70
     1
102
RTVSPropertyOp25
 70
     1
102
RTVSPropertyOp26
 70
     1
102
RTVSPropertyOp27
 70
     1
102
RTVSPropertyOp28
 70
     1
102
RTVSPropertyOp29
 70
     1
102
RTVSPropertyOp30
 70
     1
102
RTVSPropertyOp31
 70
     1
102
RTVSPropertyOp32
 70
     1
102
RTVSPropertyOp33
 70
     1
102
RTVSPropertyOp34
 70
     1
102
RTVSPropertyOp35
 70
     1
102
RTVSPropertyOp36
 70
     1
102
RTVSPropertyOp37
 70
     1
102
RTVSPropertyOp38
 70
     1
102
RTVSPropertyOp39
 70
     1
102
RTVSPropertyOp40
 70
     1
102
RTVSPropertyOp41
 70
     1
102
RTVSPropertyOp42
 70
     1
102
RTVSPropertyOp43
 70
     1
102
RTVSPropertyOp44
 70
     1
102
RTVSPropertyOp45
 70
     1
102
RTVSPropertyOp46
 70
     1
102
RTVSPropertyOp47
 70
     1
102
RTVSPropertyOp48
 70
     1
102
RTVSPropertyOp49
 70
     1
102
RTVSPropertyOp50
 70
     1
102
RTVSPropertyOp51
 70
     0
102
RTVSPropertyOp52
 70
     0
102
RTVSPropertyOp53
 70
     1
102
RTVSPropertyOp54
 70
     1
102
RTVSPropertyOp55
 70
     1
102
RTVSPropertyOp56
 70
     1
102
RTVSPropertyOp57
 70
     1
102
RTVSPost2010Prop28
280
     0
102
RTVSPost2010PropOp28
 70
     1
102
RTVSPost2010Prop29
280
     1
102
RTVSPost2010PropOp29
 70
     1
102
RTVSPost2010Prop30
280
     1
102
RTVSPost2010PropOp30
 70
     1
102
RTVSPost2010Prop31
280
     0
102
RTVSPost2010PropOp31
 70
     1
102
RTVSPost2010Prop32
280
     0
102
RTVSPost2010PropOp32
 70
     1
102
RTVSPost2010Prop33
280
     0
102
RTVSPost2010PropOp33
 70
     1
102
RTVSPost2010Prop34
280
     0
102
RTVSPost2010PropOp34
 70
     1
102
RTVSPost2010Prop35
280
     0
102
RTVSPost2010PropOp35
 70
     1
102
RTVSPost2010Prop36
280
     0
102
RTVSPost2010PropOp36
 70
     1
102
RTVSPost2010Prop37
 90
       50
102
RTVSPost2010PropOp37
 70
     1
102
RTVSPost2010Prop38
140
0.0
102
RTVSPost2010PropOp38
 70
     1
102
RTVSPost2010Prop39
140
1.0
102
RTVSPost2010PropOp39
 70
     1
102
RTVSPost2010Prop40
 90
        0
102
RTVSPost2010PropOp40
 70
     1
102
RTVSPost2010Prop41ColorIndex
 90
       18
102
RTVSPost2010Prop41ColorRGB
 90
        0
102
RTVSPost2010PropOp41
 70
     1
102
RTVSPost2010Prop42
 90
       50
102
RTVSPost2010PropOp42
 70
     1
102
RTVSPost2010Prop43
 90
        3
102
RTVSPost2010PropOp43
 70
     1
102
RTVSPost2010Prop44ColorIndex
 90
        5
102
RTVSPost2010Prop44ColorRGB
 90
      255
102
RTVSPost2010PropOp44
 70
     1
102
RTVSPost2010Prop45
280
     0
102
RTVSPost2010PropOp45
 70
     1
102
RTVSPost2010Prop46
 90
       50
102
RTVSPost2010PropOp46
 70
     1
102
RTVSPost2010Prop47
 90
       50
102
RTVSPost2010PropOp47
 70
     1
102
RTVSPost2010Prop48
 90
       50
102
RTVSPost2010PropOp48
 70
     1
102
RTVSPost2010Prop49
280
     0
102
RTVSPost2010PropOp49
 70
     1
102
RTVSPost2010Prop50
 90
       50
102
RTVSPost2010PropOp50
 70
     1
102
RTVSPost2010Prop51ColorIndex
 90
      256
102
RTVSPost2010Prop51ColorRGB
 90
-16777216
102
RTVSPost2010PropOp51
 70
     0
102
RTVSPost2010Prop52
140
1.0
102
RTVSPost2010PropOp52
 70
     0
102
RTVSPost2010Prop53
 90
        2
102
RTVSPost2010PropOp53
 70
     1
102
RTVSPost2010Prop54
  1
strokes_ogs.tif
102
RTVSPost2010PropOp54
 70
     1
102
RTVSPost2010Prop55
280
     0
102
RTVSPost2010PropOp55
 70
     1
102
RTVSPost2010Prop56
140
1.0
102
RTVSPost2010PropOp56
 70
     1
102
RTVSPost2010Prop57
140
1.0
102
RTVSPost2010PropOp57
 70
     1
  0
XRECORD
  5
4CA
102
{ACAD_REACTORS
330
4C9
102
}
330
4C9
100
AcDbXrecord
280
     1
102
RTVSPropertyOp0
 70
     1
102
RTVSPropertyOp1
 70
     1
102
RTVSPropertyOp2
 70
     1
102
RTVSPropertyOp3
 70
     1
102
RTVSPropertyOp4
 70
     1
102
RTVSPropertyOp5
 70
     1
102
RTVSPropertyOp6
 70
     1
102
RTVSPropertyOp7
 70
     1
102
RTVSPropertyOp8
 70
     1
102
RTVSPropertyOp9
 70
     1
102
RTVSPropertyOp10
 70
     1
102
RTVSPropertyOp11
 70
     1
102
RTVSPropertyOp12
 70
     1
102
RTVSPropertyOp13
 70
     1
102
RTVSPropertyOp14
 70
     1
102
RTVSPropertyOp15
 70
     1
102
RTVSPropertyOp16
 70
     1
102
RTVSPropertyOp17
 70
     1
102
RTVSPropertyOp18
 70
     1
102
RTVSPropertyOp19
 70
     1
102
RTVSPropertyOp20
 70
     1
102
RTVSPropertyOp21
 70
     1
102
RTVSPropertyOp22
 70
     1
102
RTVSPropertyOp23
 70
     1
102
RTVSPropertyOp24
 70
     1
102
RTVSPropertyOp25
 70
     1
102
RTVSPropertyOp26
 70
     1
102
RTVSPropertyOp27
 70
     1
102
RTVSPropertyOp28
 70
     1
102
RTVSPropertyOp29
 70
     1
102
RTVSPropertyOp30
 70
     1
102
RTVSPropertyOp31
 70
     1
102
RTVSPropertyOp32
 70
     1
102
RTVSPropertyOp33
 70
     1
102
RTVSPropertyOp34
 70
     1
102
RTVSPropertyOp35
 70
     1
102
RTVSPropertyOp36
 70
     1
102
RTVSPropertyOp37
 70
     1
102
RTVSPropertyOp38
 70
     1
102
RTVSPropertyOp39
 70
     1
102
RTVSPropertyOp40
 70
     1
102
RTVSPropertyOp41
 70
     1
102
RTVSPropertyOp42
 70
     1
102
RTVSPropertyOp43
 70
     1
102
RTVSPropertyOp44
 70
     1
102
RTVSPropertyOp45
 70
     1
102
RTVSPropertyOp46
 70
     1
102
RTVSPropertyOp47
 70
     1
102
RTVSPropertyOp48
 70
     1
102
RTVSPropertyOp49
 70
     1
102
RTVSPropertyOp50
 70
     1
102
RTVSPropertyOp51
 70
     0
102
RTVSPropertyOp52
 70
     0
102
RTVSPropertyOp53
 70
     1
102
RTVSPropertyOp54
 70
     1
102
RTVSPropertyOp55
 70
     1
102
RTVSPropertyOp56
 70
     1
102
RTVSPropertyOp57
 70
     1
102
RTVSPost2010Prop28
280
     0
102
RTVSPost2010PropOp28
 70
     1
102
RTVSPost2010Prop29
280
     1
102
RTVSPost2010PropOp29
 70
     1
102
RTVSPost2010Prop30
280
     1
102
RTVSPost2010PropOp30
 70
     1
102
RTVSPost2010Prop31
280
     0
102
RTVSPost2010PropOp31
 70
     1
102
RTVSPost2010Prop32
280
     0
102
RTVSPost2010PropOp32
 70
     1
102
RTVSPost2010Prop33
280
     0
102
RTVSPost2010PropOp33
 70
     1
102
RTVSPost2010Prop34
280
     0
102
RTVSPost2010PropOp34
 70
     1
102
RTVSPost2010Prop35
280
     0
102
RTVSPost2010PropOp35
 70
     1
102
RTVSPost2010Prop36
280
     0
102
RTVSPost2010PropOp36
 70
     1
102
RTVSPost2010Prop37
 90
       50
102
RTVSPost2010PropOp37
 70
     1
102
RTVSPost2010Prop38
140
0.0
102
RTVSPost2010PropOp38
 70
     1
102
RTVSPost2010Prop39
140
1.0
102
RTVSPost2010PropOp39
 70
     1
102
RTVSPost2010Prop40
 90
        0
102
RTVSPost2010PropOp40
 70
     1
102
RTVSPost2010Prop41ColorIndex
 90
       18
102
RTVSPost2010Prop41ColorRGB
 90
        0
102
RTVSPost2010PropOp41
 70
     1
102
RTVSPost2010Prop42
 90
       50
102
RTVSPost2010PropOp42
 70
     1
102
RTVSPost2010Prop43
 90
        3
102
RTVSPost2010PropOp43
 70
     1
102
RTVSPost2010Prop44ColorIndex
 90
        5
102
RTVSPost2010Prop44ColorRGB
 90
      255
102
RTVSPost2010PropOp44
 70
     1
102
RTVSPost2010Prop45
280
     0
102
RTVSPost2010PropOp45
 70
     1
102
RTVSPost2010Prop46
 90
       50
102
RTVSPost2010PropOp46
 70
     1
102
RTVSPost2010Prop47
 90
       50
102
RTVSPost2010PropOp47
 70
     1
102
RTVSPost2010Prop48
 90
       50
102
RTVSPost2010PropOp48
 70
     1
102
RTVSPost2010Prop49
280
     0
102
RTVSPost2010PropOp49
 70
     1
102
RTVSPost2010Prop50
 90
       50
102
RTVSPost2010PropOp50
 70
     1
102
RTVSPost2010Prop51ColorIndex
 90
      256
102
RTVSPost2010Prop51ColorRGB
 90
-16777216
102
RTVSPost2010PropOp51
 70
     0
102
RTVSPost2010Prop52
140
1.0
102
RTVSPost2010PropOp52
 70
     0
102
RTVSPost2010Prop53
 90
        2
102
RTVSPost2010PropOp53
 70
     1
102
RTVSPost2010Prop54
  1
strokes_ogs.tif
102
RTVSPost2010PropOp54
 70
     1
102
RTVSPost2010Prop55
280
     0
102
RTVSPost2010PropOp55
 70
     1
102
RTVSPost2010Prop56
140
1.0
102
RTVSPost2010PropOp56
 70
     1
102
RTVSPost2010Prop57
140
1.0
102
RTVSPost2010PropOp57
 70
     1
  0
XRECORD
  5
4CC
102
{ACAD_REACTORS
330
4CB
102
}
330
4CB
100
AcDbXrecord
280
     1
102
RTVSPropertyOp0
 70
     1
102
RTVSPropertyOp1
 70
     1
102
RTVSPropertyOp2
 70
     1
102
RTVSPropertyOp3
 70
     1
102
RTVSPropertyOp4
 70
     1
102
RTVSPropertyOp5
 70
     1
102
RTVSPropertyOp6
 70
     1
102
RTVSPropertyOp7
 70
     1
102
RTVSPropertyOp8
 70
     1
102
RTVSPropertyOp9
 70
     1
102
RTVSPropertyOp10
 70
     1
102
RTVSPropertyOp11
 70
     1
102
RTVSPropertyOp12
 70
     1
102
RTVSPropertyOp13
 70
     1
102
RTVSPropertyOp14
 70
     1
102
RTVSPropertyOp15
 70
     1
102
RTVSPropertyOp16
 70
     1
102
RTVSPropertyOp17
 70
     1
102
RTVSPropertyOp18
 70
     1
102
RTVSPropertyOp19
 70
     1
102
RTVSPropertyOp20
 70
     1
102
RTVSPropertyOp21
 70
     1
102
RTVSPropertyOp22
 70
     1
102
RTVSPropertyOp23
 70
     1
102
RTVSPropertyOp24
 70
     1
102
RTVSPropertyOp25
 70
     1
102
RTVSPropertyOp26
 70
     1
102
RTVSPropertyOp27
 70
     1
102
RTVSPropertyOp28
 70
     1
102
RTVSPropertyOp29
 70
     1
102
RTVSPropertyOp30
 70
     1
102
RTVSPropertyOp31
 70
     1
102
RTVSPropertyOp32
 70
     1
102
RTVSPropertyOp33
 70
     1
102
RTVSPropertyOp34
 70
     1
102
RTVSPropertyOp35
 70
     1
102
RTVSPropertyOp36
 70
     1
102
RTVSPropertyOp37
 70
     1
102
RTVSPropertyOp38
 70
     1
102
RTVSPropertyOp39
 70
     1
102
RTVSPropertyOp40
 70
     1
102
RTVSPropertyOp41
 70
     1
102
RTVSPropertyOp42
 70
     1
102
RTVSPropertyOp43
 70
     1
102
RTVSPropertyOp44
 70
     1
102
RTVSPropertyOp45
 70
     1
102
RTVSPropertyOp46
 70
     1
102
RTVSPropertyOp47
 70
     1
102
RTVSPropertyOp48
 70
     1
102
RTVSPropertyOp49
 70
     1
102
RTVSPropertyOp50
 70
     1
102
RTVSPropertyOp51
 70
     0
102
RTVSPropertyOp52
 70
     0
102
RTVSPropertyOp53
 70
     1
102
RTVSPropertyOp54
 70
     1
102
RTVSPropertyOp55
 70
     1
102
RTVSPropertyOp56
 70
     1
102
RTVSPropertyOp57
 70
     1
102
RTVSPost2010Prop28
280
     0
102
RTVSPost2010PropOp28
 70
     1
102
RTVSPost2010Prop29
280
     1
102
RTVSPost2010PropOp29
 70
     1
102
RTVSPost2010Prop30
280
     1
102
RTVSPost2010PropOp30
 70
     1
102
RTVSPost2010Prop31
280
     0
102
RTVSPost2010PropOp31
 70
     1
102
RTVSPost2010Prop32
280
     0
102
RTVSPost2010PropOp32
 70
     1
102
RTVSPost2010Prop33
280
     0
102
RTVSPost2010PropOp33
 70
     1
102
RTVSPost2010Prop34
280
     0
102
RTVSPost2010PropOp34
 70
     1
102
RTVSPost2010Prop35
280
     0
102
RTVSPost2010PropOp35
 70
     1
102
RTVSPost2010Prop36
280
     0
102
RTVSPost2010PropOp36
 70
     1
102
RTVSPost2010Prop37
 90
       50
102
RTVSPost2010PropOp37
 70
     1
102
RTVSPost2010Prop38
140
0.0
102
RTVSPost2010PropOp38
 70
     1
102
RTVSPost2010Prop39
140
1.0
102
RTVSPost2010PropOp39
 70
     1
102
RTVSPost2010Prop40
 90
        0
102
RTVSPost2010PropOp40
 70
     1
102
RTVSPost2010Prop41ColorIndex
 90
       18
102
RTVSPost2010Prop41ColorRGB
 90
        0
102
RTVSPost2010PropOp41
 70
     1
102
RTVSPost2010Prop42
 90
       50
102
RTVSPost2010PropOp42
 70
     1
102
RTVSPost2010Prop43
 90
        3
102
RTVSPost2010PropOp43
 70
     1
102
RTVSPost2010Prop44ColorIndex
 90
        5
102
RTVSPost2010Prop44ColorRGB
 90
      255
102
RTVSPost2010PropOp44
 70
     1
102
RTVSPost2010Prop45
280
     0
102
RTVSPost2010PropOp45
 70
     1
102
RTVSPost2010Prop46
 90
       50
102
RTVSPost2010PropOp46
 70
     1
102
RTVSPost2010Prop47
 90
       50
102
RTVSPost2010PropOp47
 70
     1
102
RTVSPost2010Prop48
 90
       50
102
RTVSPost2010PropOp48
 70
     1
102
RTVSPost2010Prop49
280
     0
102
RTVSPost2010PropOp49
 70
     1
102
RTVSPost2010Prop50
 90
       50
102
RTVSPost2010PropOp50
 70
     1
102
RTVSPost2010Prop51ColorIndex
 90
      256
102
RTVSPost2010Prop51ColorRGB
 90
-16777216
102
RTVSPost2010PropOp51
 70
     0
102
RTVSPost2010Prop52
140
1.0
102
RTVSPost2010PropOp52
 70
     0
102
RTVSPost2010Prop53
 90
        2
102
RTVSPost2010PropOp53
 70
     1
102
RTVSPost2010Prop54
  1
strokes_ogs.tif
102
RTVSPost2010PropOp54
 70
     1
102
RTVSPost2010Prop55
280
     0
102
RTVSPost2010PropOp55
 70
     1
102
RTVSPost2010Prop56
140
1.0
102
RTVSPost2010PropOp56
 70
     1
102
RTVSPost2010Prop57
140
1.0
102
RTVSPost2010PropOp57
 70
     1
  0
XRECORD
  5
4D2
102
{ACAD_REACTORS
330
4D1
102
}
330
4D1
100
AcDbXrecord
280
     1
102
RTVSPropertyOp0
 70
     1
102
RTVSPropertyOp1
 70
     1
102
RTVSPropertyOp2
 70
     1
102
RTVSPropertyOp3
 70
     1
102
RTVSPropertyOp4
 70
     1
102
RTVSPropertyOp5
 70
     1
102
RTVSPropertyOp6
 70
     1
102
RTVSPropertyOp7
 70
     1
102
RTVSPropertyOp8
 70
     1
102
RTVSPropertyOp9
 70
     1
102
RTVSPropertyOp10
 70
     1
102
RTVSPropertyOp11
 70
     1
102
RTVSPropertyOp12
 70
     1
102
RTVSPropertyOp13
 70
     1
102
RTVSPropertyOp14
 70
     1
102
RTVSPropertyOp15
 70
     1
102
RTVSPropertyOp16
 70
     1
102
RTVSPropertyOp17
 70
     1
102
RTVSPropertyOp18
 70
     1
102
RTVSPropertyOp19
 70
     1
102
RTVSPropertyOp20
 70
     1
102
RTVSPropertyOp21
 70
     1
102
RTVSPropertyOp22
 70
     1
102
RTVSPropertyOp23
 70
     1
102
RTVSPropertyOp24
 70
     1
102
RTVSPropertyOp25
 70
     1
102
RTVSPropertyOp26
 70
     1
102
RTVSPropertyOp27
 70
     1
102
RTVSPropertyOp28
 70
     1
102
RTVSPropertyOp29
 70
     1
102
RTVSPropertyOp30
 70
     1
102
RTVSPropertyOp31
 70
     1
102
RTVSPropertyOp32
 70
     1
102
RTVSPropertyOp33
 70
     1
102
RTVSPropertyOp34
 70
     1
102
RTVSPropertyOp35
 70
     1
102
RTVSPropertyOp36
 70
     1
102
RTVSPropertyOp37
 70
     1
102
RTVSPropertyOp38
 70
     1
102
RTVSPropertyOp39
 70
     1
102
RTVSPropertyOp40
 70
     1
102
RTVSPropertyOp41
 70
     1
102
RTVSPropertyOp42
 70
     1
102
RTVSPropertyOp43
 70
     1
102
RTVSPropertyOp44
 70
     1
102
RTVSPropertyOp45
 70
     1
102
RTVSPropertyOp46
 70
     1
102
RTVSPropertyOp47
 70
     1
102
RTVSPropertyOp48
 70
     1
102
RTVSPropertyOp49
 70
     1
102
RTVSPropertyOp50
 70
     1
102
RTVSPropertyOp51
 70
     0
102
RTVSPropertyOp52
 70
     0
102
RTVSPropertyOp53
 70
     1
102
RTVSPropertyOp54
 70
     1
102
RTVSPropertyOp55
 70
     1
102
RTVSPropertyOp56
 70
     1
102
RTVSPropertyOp57
 70
     1
102
RTVSPost2010Prop28
280
     0
102
RTVSPost2010PropOp28
 70
     1
102
RTVSPost2010Prop29
280
     1
102
RTVSPost2010PropOp29
 70
     1
102
RTVSPost2010Prop30
280
     1
102
RTVSPost2010PropOp30
 70
     1
102
RTVSPost2010Prop31
280
     0
102
RTVSPost2010PropOp31
 70
     1
102
RTVSPost2010Prop32
280
     0
102
RTVSPost2010PropOp32
 70
     1
102
RTVSPost2010Prop33
280
     0
102
RTVSPost2010PropOp33
 70
     1
102
RTVSPost2010Prop34
280
     0
102
RTVSPost2010PropOp34
 70
     1
102
RTVSPost2010Prop35
280
     0
102
RTVSPost2010PropOp35
 70
     1
102
RTVSPost2010Prop36
280
     0
102
RTVSPost2010PropOp36
 70
     1
102
RTVSPost2010Prop37
 90
       50
102
RTVSPost2010PropOp37
 70
     1
102
RTVSPost2010Prop38
140
0.0
102
RTVSPost2010PropOp38
 70
     1
102
RTVSPost2010Prop39
140
1.0
102
RTVSPost2010PropOp39
 70
     1
102
RTVSPost2010Prop40
 90
        0
102
RTVSPost2010PropOp40
 70
     1
102
RTVSPost2010Prop41ColorIndex
 90
       18
102
RTVSPost2010Prop41ColorRGB
 90
        0
102
RTVSPost2010PropOp41
 70
     1
102
RTVSPost2010Prop42
 90
       50
102
RTVSPost2010PropOp42
 70
     1
102
RTVSPost2010Prop43
 90
        3
102
RTVSPost2010PropOp43
 70
     1
102
RTVSPost2010Prop44ColorIndex
 90
        5
102
RTVSPost2010Prop44ColorRGB
 90
      255
102
RTVSPost2010PropOp44
 70
     1
102
RTVSPost2010Prop45
280
     0
102
RTVSPost2010PropOp45
 70
     1
102
RTVSPost2010Prop46
 90
       50
102
RTVSPost2010PropOp46
 70
     1
102
RTVSPost2010Prop47
 90
       50
102
RTVSPost2010PropOp47
 70
     1
102
RTVSPost2010Prop48
 90
       50
102
RTVSPost2010PropOp48
 70
     1
102
RTVSPost2010Prop49
280
     0
102
RTVSPost2010PropOp49
 70
     1
102
RTVSPost2010Prop50
 90
       50
102
RTVSPost2010PropOp50
 70
     1
102
RTVSPost2010Prop51ColorIndex
 90
      256
102
RTVSPost2010Prop51ColorRGB
 90
-16777216
102
RTVSPost2010PropOp51
 70
     0
102
RTVSPost2010Prop52
140
1.0
102
RTVSPost2010PropOp52
 70
     0
102
RTVSPost2010Prop53
 90
        2
102
RTVSPost2010PropOp53
 70
     1
102
RTVSPost2010Prop54
  1
strokes_ogs.tif
102
RTVSPost2010PropOp54
 70
     1
102
RTVSPost2010Prop55
280
     0
102
RTVSPost2010PropOp55
 70
     1
102
RTVSPost2010Prop56
140
1.0
102
RTVSPost2010PropOp56
 70
     1
102
RTVSPost2010Prop57
140
1.0
102
RTVSPost2010PropOp57
 70
     1
  0
XRECORD
  5
4E6
102
{ACAD_REACTORS
330
4E5
102
}
330
4E5
100
AcDbXrecord
280
     1
102
RTVSPropertyOp0
 70
     0
102
RTVSPropertyOp1
 70
     0
102
RTVSPropertyOp2
 70
     0
102
RTVSPropertyOp3
 70
     0
102
RTVSPropertyOp4
 70
     0
102
RTVSPropertyOp5
 70
     0
102
RTVSPropertyOp6
 70
     0
102
RTVSPropertyOp7
 70
     0
102
RTVSPropertyOp8
 70
     0
102
RTVSPropertyOp9
 70
     0
102
RTVSPropertyOp10
 70
     0
102
RTVSPropertyOp11
 70
     0
102
RTVSPropertyOp12
 70
     0
102
RTVSPropertyOp13
 70
     0
102
RTVSPropertyOp14
 70
     2
102
RTVSPropertyOp15
 70
     0
102
RTVSPropertyOp16
 70
     0
102
RTVSPropertyOp17
 70
     0
102
RTVSPropertyOp18
 70
     0
102
RTVSPropertyOp19
 70
     0
102
RTVSPropertyOp20
 70
     0
102
RTVSPropertyOp21
 70
     0
102
RTVSPropertyOp22
 70
     0
102
RTVSPropertyOp23
 70
     0
102
RTVSPropertyOp24
 70
     0
102
RTVSPropertyOp25
 70
     0
102
RTVSPropertyOp26
 70
     0
102
RTVSPropertyOp27
 70
     0
102
RTVSPropertyOp28
 70
     0
102
RTVSPropertyOp29
 70
     0
102
RTVSPropertyOp30
 70
     0
102
RTVSPropertyOp31
 70
     0
102
RTVSPropertyOp32
 70
     0
102
RTVSPropertyOp33
 70
     0
102
RTVSPropertyOp34
 70
     0
102
RTVSPropertyOp35
 70
     0
102
RTVSPropertyOp36
 70
     0
102
RTVSPropertyOp37
 70
     0
102
RTVSPropertyOp38
 70
     0
102
RTVSPropertyOp39
 70
     0
102
RTVSPropertyOp40
 70
     0
102
RTVSPropertyOp41
 70
     0
102
RTVSPropertyOp42
 70
     0
102
RTVSPropertyOp43
 70
     0
102
RTVSPropertyOp44
 70
     0
102
RTVSPropertyOp45
 70
     0
102
RTVSPropertyOp46
 70
     0
102
RTVSPropertyOp47
 70
     0
102
RTVSPropertyOp48
 70
     0
102
RTVSPropertyOp49
 70
     0
102
RTVSPropertyOp50
 70
     0
102
RTVSPropertyOp51
 70
     0
102
RTVSPropertyOp52
 70
     0
102
RTVSPropertyOp53
 70
     0
102
RTVSPropertyOp54
 70
     0
102
RTVSPropertyOp55
 70
     0
102
RTVSPropertyOp56
 70
     0
102
RTVSPropertyOp57
 70
     0
102
RTVSPost2010Prop28
280
     0
102
RTVSPost2010PropOp28
 70
     0
102
RTVSPost2010Prop29
280
     1
102
RTVSPost2010PropOp29
 70
     0
102
RTVSPost2010Prop30
280
     1
102
RTVSPost2010PropOp30
 70
     0
102
RTVSPost2010Prop31
280
     0
102
RTVSPost2010PropOp31
 70
     0
102
RTVSPost2010Prop32
280
     0
102
RTVSPost2010PropOp32
 70
     0
102
RTVSPost2010Prop33
280
     0
102
RTVSPost2010PropOp33
 70
     0
102
RTVSPost2010Prop34
280
     0
102
RTVSPost2010PropOp34
 70
     0
102
RTVSPost2010Prop35
280
     0
102
RTVSPost2010PropOp35
 70
     0
102
RTVSPost2010Prop36
280
     0
102
RTVSPost2010PropOp36
 70
     0
102
RTVSPost2010Prop37
 90
       50
102
RTVSPost2010PropOp37
 70
     0
102
RTVSPost2010Prop38
140
0.0
102
RTVSPost2010PropOp38
 70
     0
102
RTVSPost2010Prop39
140
1.0
102
RTVSPost2010PropOp39
 70
     0
102
RTVSPost2010Prop40
 90
        0
102
RTVSPost2010PropOp40
 70
     0
102
RTVSPost2010Prop41ColorIndex
 90
       18
102
RTVSPost2010Prop41ColorRGB
 90
        0
102
RTVSPost2010PropOp41
 70
     0
102
RTVSPost2010Prop42
 90
       50
102
RTVSPost2010PropOp42
 70
     0
102
RTVSPost2010Prop43
 90
        3
102
RTVSPost2010PropOp43
 70
     0
102
RTVSPost2010Prop44ColorIndex
 90
        5
102
RTVSPost2010Prop44ColorRGB
 90
      255
102
RTVSPost2010PropOp44
 70
     0
102
RTVSPost2010Prop45
280
     0
102
RTVSPost2010PropOp45
 70
     0
102
RTVSPost2010Prop46
 90
       50
102
RTVSPost2010PropOp46
 70
     0
102
RTVSPost2010Prop47
 90
       50
102
RTVSPost2010PropOp47
 70
     0
102
RTVSPost2010Prop48
 90
       50
102
RTVSPost2010PropOp48
 70
     0
102
RTVSPost2010Prop49
280
     0
102
RTVSPost2010PropOp49
 70
     0
102
RTVSPost2010Prop50
 90
       50
102
RTVSPost2010PropOp50
 70
     0
102
RTVSPost2010Prop51ColorIndex
 90
      256
102
RTVSPost2010Prop51ColorRGB
 90
-16777216
102
RTVSPost2010PropOp51
 70
     0
102
RTVSPost2010Prop52
140
1.0
102
RTVSPost2010PropOp52
 70
     0
102
RTVSPost2010Prop53
 90
        2
102
RTVSPost2010PropOp53
 70
     0
102
RTVSPost2010Prop54
  1
strokes_ogs.tif
102
RTVSPost2010PropOp54
 70
     0
102
RTVSPost2010Prop55
280
     0
102
RTVSPost2010PropOp55
 70
     0
102
RTVSPost2010Prop56
140
1.0
102
RTVSPost2010PropOp56
 70
     0
102
RTVSPost2010Prop57
140
1.0
102
RTVSPost2010PropOp57
 70
     0
  0
XRECORD
  5
4E0
102
{ACAD_REACTORS
330
4DF
102
}
330
4DF
100
AcDbXrecord
280
     1
102
RTVSPropertyOp0
 70
     1
102
RTVSPropertyOp1
 70
     1
102
RTVSPropertyOp2
 70
     1
102
RTVSPropertyOp3
 70
     1
102
RTVSPropertyOp4
 70
     1
102
RTVSPropertyOp5
 70
     1
102
RTVSPropertyOp6
 70
     1
102
RTVSPropertyOp7
 70
     1
102
RTVSPropertyOp8
 70
     1
102
RTVSPropertyOp9
 70
     1
102
RTVSPropertyOp10
 70
     1
102
RTVSPropertyOp11
 70
     1
102
RTVSPropertyOp12
 70
     1
102
RTVSPropertyOp13
 70
     1
102
RTVSPropertyOp14
 70
     1
102
RTVSPropertyOp15
 70
     1
102
RTVSPropertyOp16
 70
     1
102
RTVSPropertyOp17
 70
     1
102
RTVSPropertyOp18
 70
     1
102
RTVSPropertyOp19
 70
     1
102
RTVSPropertyOp20
 70
     1
102
RTVSPropertyOp21
 70
     1
102
RTVSPropertyOp22
 70
     1
102
RTVSPropertyOp23
 70
     1
102
RTVSPropertyOp24
 70
     1
102
RTVSPropertyOp25
 70
     1
102
RTVSPropertyOp26
 70
     1
102
RTVSPropertyOp27
 70
     1
102
RTVSPropertyOp28
 70
     1
102
RTVSPropertyOp29
 70
     1
102
RTVSPropertyOp30
 70
     1
102
RTVSPropertyOp31
 70
     1
102
RTVSPropertyOp32
 70
     1
102
RTVSPropertyOp33
 70
     1
102
RTVSPropertyOp34
 70
     1
102
RTVSPropertyOp35
 70
     1
102
RTVSPropertyOp36
 70
     1
102
RTVSPropertyOp37
 70
     1
102
RTVSPropertyOp38
 70
     1
102
RTVSPropertyOp39
 70
     1
102
RTVSPropertyOp40
 70
     1
102
RTVSPropertyOp41
 70
     1
102
RTVSPropertyOp42
 70
     1
102
RTVSPropertyOp43
 70
     1
102
RTVSPropertyOp44
 70
     1
102
RTVSPropertyOp45
 70
     1
102
RTVSPropertyOp46
 70
     1
102
RTVSPropertyOp47
 70
     1
102
RTVSPropertyOp48
 70
     1
102
RTVSPropertyOp49
 70
     1
102
RTVSPropertyOp50
 70
     1
102
RTVSPropertyOp51
 70
     0
102
RTVSPropertyOp52
 70
     0
102
RTVSPropertyOp53
 70
     1
102
RTVSPropertyOp54
 70
     1
102
RTVSPropertyOp55
 70
     1
102
RTVSPropertyOp56
 70
     1
102
RTVSPropertyOp57
 70
     1
102
RTVSPost2010Prop28
280
     0
102
RTVSPost2010PropOp28
 70
     1
102
RTVSPost2010Prop29
280
     1
102
RTVSPost2010PropOp29
 70
     1
102
RTVSPost2010Prop30
280
     1
102
RTVSPost2010PropOp30
 70
     1
102
RTVSPost2010Prop31
280
     0
102
RTVSPost2010PropOp31
 70
     1
102
RTVSPost2010Prop32
280
     0
102
RTVSPost2010PropOp32
 70
     1
102
RTVSPost2010Prop33
280
     0
102
RTVSPost2010PropOp33
 70
     1
102
RTVSPost2010Prop34
280
     0
102
RTVSPost2010PropOp34
 70
     1
102
RTVSPost2010Prop35
280
     0
102
RTVSPost2010PropOp35
 70
     1
102
RTVSPost2010Prop36
280
     0
102
RTVSPost2010PropOp36
 70
     1
102
RTVSPost2010Prop37
 90
       50
102
RTVSPost2010PropOp37
 70
     1
102
RTVSPost2010Prop38
140
0.0
102
RTVSPost2010PropOp38
 70
     1
102
RTVSPost2010Prop39
140
1.0
102
RTVSPost2010PropOp39
 70
     1
102
RTVSPost2010Prop40
 90
        0
102
RTVSPost2010PropOp40
 70
     1
102
RTVSPost2010Prop41ColorIndex
 90
       18
102
RTVSPost2010Prop41ColorRGB
 90
        0
102
RTVSPost2010PropOp41
 70
     1
102
RTVSPost2010Prop42
 90
       50
102
RTVSPost2010PropOp42
 70
     1
102
RTVSPost2010Prop43
 90
        3
102
RTVSPost2010PropOp43
 70
     1
102
RTVSPost2010Prop44ColorIndex
 90
        5
102
RTVSPost2010Prop44ColorRGB
 90
      255
102
RTVSPost2010PropOp44
 70
     1
102
RTVSPost2010Prop45
280
     0
102
RTVSPost2010PropOp45
 70
     1
102
RTVSPost2010Prop46
 90
       50
102
RTVSPost2010PropOp46
 70
     1
102
RTVSPost2010Prop47
 90
       50
102
RTVSPost2010PropOp47
 70
     1
102
RTVSPost2010Prop48
 90
       50
102
RTVSPost2010PropOp48
 70
     1
102
RTVSPost2010Prop49
280
     0
102
RTVSPost2010PropOp49
 70
     1
102
RTVSPost2010Prop50
 90
       50
102
RTVSPost2010PropOp50
 70
     1
102
RTVSPost2010Prop51ColorIndex
 90
      256
102
RTVSPost2010Prop51ColorRGB
 90
-16777216
102
RTVSPost2010PropOp51
 70
     0
102
RTVSPost2010Prop52
140
1.0
102
RTVSPost2010PropOp52
 70
     0
102
RTVSPost2010Prop53
 90
        2
102
RTVSPost2010PropOp53
 70
     1
102
RTVSPost2010Prop54
  1
strokes_ogs.tif
102
RTVSPost2010PropOp54
 70
     1
102
RTVSPost2010Prop55
280
     0
102
RTVSPost2010PropOp55
 70
     1
102
RTVSPost2010Prop56
140
1.0
102
RTVSPost2010PropOp56
 70
     1
102
RTVSPost2010Prop57
140
1.0
102
RTVSPost2010PropOp57
 70
     1
  0
XRECORD
  5
4E8
102
{ACAD_REACTORS
330
4E7
102
}
330
4E7
100
AcDbXrecord
280
     1
102
RTVSPropertyOp0
 70
     0
102
RTVSPropertyOp1
 70
     0
102
RTVSPropertyOp2
 70
     0
102
RTVSPropertyOp3
 70
     0
102
RTVSPropertyOp4
 70
     0
102
RTVSPropertyOp5
 70
     0
102
RTVSPropertyOp6
 70
     0
102
RTVSPropertyOp7
 70
     0
102
RTVSPropertyOp8
 70
     0
102
RTVSPropertyOp9
 70
     0
102
RTVSPropertyOp10
 70
     0
102
RTVSPropertyOp11
 70
     0
102
RTVSPropertyOp12
 70
     0
102
RTVSPropertyOp13
 70
     0
102
RTVSPropertyOp14
 70
     2
102
RTVSPropertyOp15
 70
     0
102
RTVSPropertyOp16
 70
     0
102
RTVSPropertyOp17
 70
     0
102
RTVSPropertyOp18
 70
     0
102
RTVSPropertyOp19
 70
     0
102
RTVSPropertyOp20
 70
     0
102
RTVSPropertyOp21
 70
     0
102
RTVSPropertyOp22
 70
     0
102
RTVSPropertyOp23
 70
     0
102
RTVSPropertyOp24
 70
     0
102
RTVSPropertyOp25
 70
     0
102
RTVSPropertyOp26
 70
     0
102
RTVSPropertyOp27
 70
     0
102
RTVSPropertyOp28
 70
     0
102
RTVSPropertyOp29
 70
     0
102
RTVSPropertyOp30
 70
     0
102
RTVSPropertyOp31
 70
     0
102
RTVSPropertyOp32
 70
     0
102
RTVSPropertyOp33
 70
     0
102
RTVSPropertyOp34
 70
     0
102
RTVSPropertyOp35
 70
     0
102
RTVSPropertyOp36
 70
     0
102
RTVSPropertyOp37
 70
     0
102
RTVSPropertyOp38
 70
     0
102
RTVSPropertyOp39
 70
     0
102
RTVSPropertyOp40
 70
     0
102
RTVSPropertyOp41
 70
     0
102
RTVSPropertyOp42
 70
     0
102
RTVSPropertyOp43
 70
     0
102
RTVSPropertyOp44
 70
     0
102
RTVSPropertyOp45
 70
     0
102
RTVSPropertyOp46
 70
     0
102
RTVSPropertyOp47
 70
     0
102
RTVSPropertyOp48
 70
     0
102
RTVSPropertyOp49
 70
     0
102
RTVSPropertyOp50
 70
     0
102
RTVSPropertyOp51
 70
     0
102
RTVSPropertyOp52
 70
     0
102
RTVSPropertyOp53
 70
     0
102
RTVSPropertyOp54
 70
     0
102
RTVSPropertyOp55
 70
     0
102
RTVSPropertyOp56
 70
     0
102
RTVSPropertyOp57
 70
     0
102
RTVSPost2010Prop28
280
     0
102
RTVSPost2010PropOp28
 70
     0
102
RTVSPost2010Prop29
280
     1
102
RTVSPost2010PropOp29
 70
     0
102
RTVSPost2010Prop30
280
     1
102
RTVSPost2010PropOp30
 70
     0
102
RTVSPost2010Prop31
280
     0
102
RTVSPost2010PropOp31
 70
     0
102
RTVSPost2010Prop32
280
     0
102
RTVSPost2010PropOp32
 70
     0
102
RTVSPost2010Prop33
280
     0
102
RTVSPost2010PropOp33
 70
     0
102
RTVSPost2010Prop34
280
     0
102
RTVSPost2010PropOp34
 70
     0
102
RTVSPost2010Prop35
280
     0
102
RTVSPost2010PropOp35
 70
     0
102
RTVSPost2010Prop36
280
     0
102
RTVSPost2010PropOp36
 70
     0
102
RTVSPost2010Prop37
 90
       50
102
RTVSPost2010PropOp37
 70
     0
102
RTVSPost2010Prop38
140
0.0
102
RTVSPost2010PropOp38
 70
     0
102
RTVSPost2010Prop39
140
1.0
102
RTVSPost2010PropOp39
 70
     0
102
RTVSPost2010Prop40
 90
        0
102
RTVSPost2010PropOp40
 70
     0
102
RTVSPost2010Prop41ColorIndex
 90
       18
102
RTVSPost2010Prop41ColorRGB
 90
        0
102
RTVSPost2010PropOp41
 70
     0
102
RTVSPost2010Prop42
 90
       50
102
RTVSPost2010PropOp42
 70
     0
102
RTVSPost2010Prop43
 90
        3
102
RTVSPost2010PropOp43
 70
     0
102
RTVSPost2010Prop44ColorIndex
 90
        5
102
RTVSPost2010Prop44ColorRGB
 90
      255
102
RTVSPost2010PropOp44
 70
     0
102
RTVSPost2010Prop45
280
     0
102
RTVSPost2010PropOp45
 70
     0
102
RTVSPost2010Prop46
 90
       50
102
RTVSPost2010PropOp46
 70
     0
102
RTVSPost2010Prop47
 90
       50
102
RTVSPost2010PropOp47
 70
     0
102
RTVSPost2010Prop48
 90
       50
102
RTVSPost2010PropOp48
 70
     0
102
RTVSPost2010Prop49
280
     0
102
RTVSPost2010PropOp49
 70
     0
102
RTVSPost2010Prop50
 90
       50
102
RTVSPost2010PropOp50
 70
     0
102
RTVSPost2010Prop51ColorIndex
 90
      256
102
RTVSPost2010Prop51ColorRGB
 90
-16777216
102
RTVSPost2010PropOp51
 70
     0
102
RTVSPost2010Prop52
140
1.0
102
RTVSPost2010PropOp52
 70
     0
102
RTVSPost2010Prop53
 90
        2
102
RTVSPost2010PropOp53
 70
     0
102
RTVSPost2010Prop54
  1
strokes_ogs.tif
102
RTVSPost2010PropOp54
 70
     0
102
RTVSPost2010Prop55
280
     0
102
RTVSPost2010PropOp55
 70
     0
102
RTVSPost2010Prop56
140
1.0
102
RTVSPost2010PropOp56
 70
     0
102
RTVSPost2010Prop57
140
1.0
102
RTVSPost2010PropOp57
 70
     0
  0
XRECORD
  5
4D6
102
{ACAD_REACTORS
330
4D5
102
}
330
4D5
100
AcDbXrecord
280
     1
102
RTVSPropertyOp0
 70
     1
102
RTVSPropertyOp1
 70
     1
102
RTVSPropertyOp2
 70
     1
102
RTVSPropertyOp3
 70
     1
102
RTVSPropertyOp4
 70
     1
102
RTVSPropertyOp5
 70
     1
102
RTVSPropertyOp6
 70
     1
102
RTVSPropertyOp7
 70
     1
102
RTVSPropertyOp8
 70
     1
102
RTVSPropertyOp9
 70
     1
102
RTVSPropertyOp10
 70
     1
102
RTVSPropertyOp11
 70
     1
102
RTVSPropertyOp12
 70
     1
102
RTVSPropertyOp13
 70
     1
102
RTVSPropertyOp14
 70
     1
102
RTVSPropertyOp15
 70
     1
102
RTVSPropertyOp16
 70
     1
102
RTVSPropertyOp17
 70
     1
102
RTVSPropertyOp18
 70
     1
102
RTVSPropertyOp19
 70
     1
102
RTVSPropertyOp20
 70
     1
102
RTVSPropertyOp21
 70
     1
102
RTVSPropertyOp22
 70
     1
102
RTVSPropertyOp23
 70
     1
102
RTVSPropertyOp24
 70
     1
102
RTVSPropertyOp25
 70
     1
102
RTVSPropertyOp26
 70
     1
102
RTVSPropertyOp27
 70
     1
102
RTVSPropertyOp28
 70
     1
102
RTVSPropertyOp29
 70
     1
102
RTVSPropertyOp30
 70
     1
102
RTVSPropertyOp31
 70
     1
102
RTVSPropertyOp32
 70
     1
102
RTVSPropertyOp33
 70
     1
102
RTVSPropertyOp34
 70
     1
102
RTVSPropertyOp35
 70
     1
102
RTVSPropertyOp36
 70
     1
102
RTVSPropertyOp37
 70
     1
102
RTVSPropertyOp38
 70
     1
102
RTVSPropertyOp39
 70
     1
102
RTVSPropertyOp40
 70
     1
102
RTVSPropertyOp41
 70
     1
102
RTVSPropertyOp42
 70
     1
102
RTVSPropertyOp43
 70
     1
102
RTVSPropertyOp44
 70
     1
102
RTVSPropertyOp45
 70
     1
102
RTVSPropertyOp46
 70
     1
102
RTVSPropertyOp47
 70
     1
102
RTVSPropertyOp48
 70
     1
102
RTVSPropertyOp49
 70
     1
102
RTVSPropertyOp50
 70
     1
102
RTVSPropertyOp51
 70
     0
102
RTVSPropertyOp52
 70
     0
102
RTVSPropertyOp53
 70
     1
102
RTVSPropertyOp54
 70
     1
102
RTVSPropertyOp55
 70
     1
102
RTVSPropertyOp56
 70
     1
102
RTVSPropertyOp57
 70
     1
102
RTVSPost2010Prop28
280
     0
102
RTVSPost2010PropOp28
 70
     1
102
RTVSPost2010Prop29
280
     1
102
RTVSPost2010PropOp29
 70
     1
102
RTVSPost2010Prop30
280
     1
102
RTVSPost2010PropOp30
 70
     1
102
RTVSPost2010Prop31
280
     0
102
RTVSPost2010PropOp31
 70
     1
102
RTVSPost2010Prop32
280
     0
102
RTVSPost2010PropOp32
 70
     1
102
RTVSPost2010Prop33
280
     0
102
RTVSPost2010PropOp33
 70
     1
102
RTVSPost2010Prop34
280
     0
102
RTVSPost2010PropOp34
 70
     1
102
RTVSPost2010Prop35
280
     0
102
RTVSPost2010PropOp35
 70
     1
102
RTVSPost2010Prop36
280
     0
102
RTVSPost2010PropOp36
 70
     1
102
RTVSPost2010Prop37
 90
       50
102
RTVSPost2010PropOp37
 70
     1
102
RTVSPost2010Prop38
140
0.0
102
RTVSPost2010PropOp38
 70
     1
102
RTVSPost2010Prop39
140
1.0
102
RTVSPost2010PropOp39
 70
     1
102
RTVSPost2010Prop40
 90
        0
102
RTVSPost2010PropOp40
 70
     1
102
RTVSPost2010Prop41ColorIndex
 90
       18
102
RTVSPost2010Prop41ColorRGB
 90
        0
102
RTVSPost2010PropOp41
 70
     1
102
RTVSPost2010Prop42
 90
       50
102
RTVSPost2010PropOp42
 70
     1
102
RTVSPost2010Prop43
 90
        3
102
RTVSPost2010PropOp43
 70
     1
102
RTVSPost2010Prop44ColorIndex
 90
        5
102
RTVSPost2010Prop44ColorRGB
 90
      255
102
RTVSPost2010PropOp44
 70
     1
102
RTVSPost2010Prop45
280
     0
102
RTVSPost2010PropOp45
 70
     1
102
RTVSPost2010Prop46
 90
       50
102
RTVSPost2010PropOp46
 70
     1
102
RTVSPost2010Prop47
 90
       50
102
RTVSPost2010PropOp47
 70
     1
102
RTVSPost2010Prop48
 90
       50
102
RTVSPost2010PropOp48
 70
     1
102
RTVSPost2010Prop49
280
     0
102
RTVSPost2010PropOp49
 70
     1
102
RTVSPost2010Prop50
 90
       50
102
RTVSPost2010PropOp50
 70
     1
102
RTVSPost2010Prop51ColorIndex
 90
      256
102
RTVSPost2010Prop51ColorRGB
 90
-16777216
102
RTVSPost2010PropOp51
 70
     0
102
RTVSPost2010Prop52
140
1.0
102
RTVSPost2010PropOp52
 70
     0
102
RTVSPost2010Prop53
 90
        2
102
RTVSPost2010PropOp53
 70
     1
102
RTVSPost2010Prop54
  1
strokes_ogs.tif
102
RTVSPost2010PropOp54
 70
     1
102
RTVSPost2010Prop55
280
     0
102
RTVSPost2010PropOp55
 70
     1
102
RTVSPost2010Prop56
140
1.0
102
RTVSPost2010PropOp56
 70
     1
102
RTVSPost2010Prop57
140
1.0
102
RTVSPost2010PropOp57
 70
     1
  0
XRECORD
  5
4F4
102
{ACAD_REACTORS
330
4F3
102
}
330
4F3
100
AcDbXrecord
280
     1
102
RTVSPropertyOp0
 70
     1
102
RTVSPropertyOp1
 70
     1
102
RTVSPropertyOp2
 70
     1
102
RTVSPropertyOp3
 70
     1
102
RTVSPropertyOp4
 70
     1
102
RTVSPropertyOp5
 70
     1
102
RTVSPropertyOp6
 70
     1
102
RTVSPropertyOp7
 70
     1
102
RTVSPropertyOp8
 70
     1
102
RTVSPropertyOp9
 70
     1
102
RTVSPropertyOp10
 70
     1
102
RTVSPropertyOp11
 70
     1
102
RTVSPropertyOp12
 70
     1
102
RTVSPropertyOp13
 70
     1
102
RTVSPropertyOp14
 70
     1
102
RTVSPropertyOp15
 70
     1
102
RTVSPropertyOp16
 70
     1
102
RTVSPropertyOp17
 70
     1
102
RTVSPropertyOp18
 70
     1
102
RTVSPropertyOp19
 70
     1
102
RTVSPropertyOp20
 70
     1
102
RTVSPropertyOp21
 70
     1
102
RTVSPropertyOp22
 70
     1
102
RTVSPropertyOp23
 70
     1
102
RTVSPropertyOp24
 70
     1
102
RTVSPropertyOp25
 70
     1
102
RTVSPropertyOp26
 70
     1
102
RTVSPropertyOp27
 70
     1
102
RTVSPropertyOp28
 70
     1
102
RTVSPropertyOp29
 70
     1
102
RTVSPropertyOp30
 70
     1
102
RTVSPropertyOp31
 70
     1
102
RTVSPropertyOp32
 70
     1
102
RTVSPropertyOp33
 70
     1
102
RTVSPropertyOp34
 70
     1
102
RTVSPropertyOp35
 70
     1
102
RTVSPropertyOp36
 70
     1
102
RTVSPropertyOp37
 70
     1
102
RTVSPropertyOp38
 70
     1
102
RTVSPropertyOp39
 70
     1
102
RTVSPropertyOp40
 70
     1
102
RTVSPropertyOp41
 70
     1
102
RTVSPropertyOp42
 70
     1
102
RTVSPropertyOp43
 70
     1
102
RTVSPropertyOp44
 70
     1
102
RTVSPropertyOp45
 70
     1
102
RTVSPropertyOp46
 70
     1
102
RTVSPropertyOp47
 70
     1
102
RTVSPropertyOp48
 70
     1
102
RTVSPropertyOp49
 70
     1
102
RTVSPropertyOp50
 70
     1
102
RTVSPropertyOp51
 70
     0
102
RTVSPropertyOp52
 70
     0
102
RTVSPropertyOp53
 70
     1
102
RTVSPropertyOp54
 70
     1
102
RTVSPropertyOp55
 70
     1
102
RTVSPropertyOp56
 70
     1
102
RTVSPropertyOp57
 70
     1
102
RTVSPost2010Prop28
280
     0
102
RTVSPost2010PropOp28
 70
     1
102
RTVSPost2010Prop29
280
     1
102
RTVSPost2010PropOp29
 70
     1
102
RTVSPost2010Prop30
280
     1
102
RTVSPost2010PropOp30
 70
     1
102
RTVSPost2010Prop31
280
     0
102
RTVSPost2010PropOp31
 70
     1
102
RTVSPost2010Prop32
280
     0
102
RTVSPost2010PropOp32
 70
     1
102
RTVSPost2010Prop33
280
     0
102
RTVSPost2010PropOp33
 70
     1
102
RTVSPost2010Prop34
280
     0
102
RTVSPost2010PropOp34
 70
     1
102
RTVSPost2010Prop35
280
     0
102
RTVSPost2010PropOp35
 70
     1
102
RTVSPost2010Prop36
280
     0
102
RTVSPost2010PropOp36
 70
     1
102
RTVSPost2010Prop37
 90
       50
102
RTVSPost2010PropOp37
 70
     1
102
RTVSPost2010Prop38
140
0.0
102
RTVSPost2010PropOp38
 70
     1
102
RTVSPost2010Prop39
140
1.0
102
RTVSPost2010PropOp39
 70
     1
102
RTVSPost2010Prop40
 90
        0
102
RTVSPost2010PropOp40
 70
     1
102
RTVSPost2010Prop41ColorIndex
 90
       18
102
RTVSPost2010Prop41ColorRGB
 90
        0
102
RTVSPost2010PropOp41
 70
     1
102
RTVSPost2010Prop42
 90
       50
102
RTVSPost2010PropOp42
 70
     1
102
RTVSPost2010Prop43
 90
        3
102
RTVSPost2010PropOp43
 70
     1
102
RTVSPost2010Prop44ColorIndex
 90
        5
102
RTVSPost2010Prop44ColorRGB
 90
      255
102
RTVSPost2010PropOp44
 70
     1
102
RTVSPost2010Prop45
280
     0
102
RTVSPost2010PropOp45
 70
     1
102
RTVSPost2010Prop46
 90
       50
102
RTVSPost2010PropOp46
 70
     1
102
RTVSPost2010Prop47
 90
       50
102
RTVSPost2010PropOp47
 70
     1
102
RTVSPost2010Prop48
 90
       50
102
RTVSPost2010PropOp48
 70
     1
102
RTVSPost2010Prop49
280
     0
102
RTVSPost2010PropOp49
 70
     1
102
RTVSPost2010Prop50
 90
       50
102
RTVSPost2010PropOp50
 70
     1
102
RTVSPost2010Prop51ColorIndex
 90
      256
102
RTVSPost2010Prop51ColorRGB
 90
-16777216
102
RTVSPost2010PropOp51
 70
     0
102
RTVSPost2010Prop52
140
1.0
102
RTVSPost2010PropOp52
 70
     0
102
RTVSPost2010Prop53
 90
        2
102
RTVSPost2010PropOp53
 70
     1
102
RTVSPost2010Prop54
  1
strokes_ogs.tif
102
RTVSPost2010PropOp54
 70
     1
102
RTVSPost2010Prop55
280
     0
102
RTVSPost2010PropOp55
 70
     1
102
RTVSPost2010Prop56
140
1.0
102
RTVSPost2010PropOp56
 70
     1
102
RTVSPost2010Prop57
140
1.0
102
RTVSPost2010PropOp57
 70
     1
  0
XRECORD
  5
4F2
102
{ACAD_REACTORS
330
4F1
102
}
330
4F1
100
AcDbXrecord
280
     1
102
RTVSPropertyOp0
 70
     1
102
RTVSPropertyOp1
 70
     1
102
RTVSPropertyOp2
 70
     1
102
RTVSPropertyOp3
 70
     1
102
RTVSPropertyOp4
 70
     1
102
RTVSPropertyOp5
 70
     1
102
RTVSPropertyOp6
 70
     1
102
RTVSPropertyOp7
 70
     1
102
RTVSPropertyOp8
 70
     1
102
RTVSPropertyOp9
 70
     1
102
RTVSPropertyOp10
 70
     1
102
RTVSPropertyOp11
 70
     1
102
RTVSPropertyOp12
 70
     1
102
RTVSPropertyOp13
 70
     1
102
RTVSPropertyOp14
 70
     1
102
RTVSPropertyOp15
 70
     1
102
RTVSPropertyOp16
 70
     1
102
RTVSPropertyOp17
 70
     1
102
RTVSPropertyOp18
 70
     1
102
RTVSPropertyOp19
 70
     1
102
RTVSPropertyOp20
 70
     1
102
RTVSPropertyOp21
 70
     1
102
RTVSPropertyOp22
 70
     1
102
RTVSPropertyOp23
 70
     1
102
RTVSPropertyOp24
 70
     1
102
RTVSPropertyOp25
 70
     1
102
RTVSPropertyOp26
 70
     1
102
RTVSPropertyOp27
 70
     1
102
RTVSPropertyOp28
 70
     1
102
RTVSPropertyOp29
 70
     1
102
RTVSPropertyOp30
 70
     1
102
RTVSPropertyOp31
 70
     1
102
RTVSPropertyOp32
 70
     1
102
RTVSPropertyOp33
 70
     1
102
RTVSPropertyOp34
 70
     1
102
RTVSPropertyOp35
 70
     1
102
RTVSPropertyOp36
 70
     1
102
RTVSPropertyOp37
 70
     1
102
RTVSPropertyOp38
 70
     1
102
RTVSPropertyOp39
 70
     1
102
RTVSPropertyOp40
 70
     1
102
RTVSPropertyOp41
 70
     1
102
RTVSPropertyOp42
 70
     1
102
RTVSPropertyOp43
 70
     1
102
RTVSPropertyOp44
 70
     1
102
RTVSPropertyOp45
 70
     1
102
RTVSPropertyOp46
 70
     1
102
RTVSPropertyOp47
 70
     1
102
RTVSPropertyOp48
 70
     1
102
RTVSPropertyOp49
 70
     1
102
RTVSPropertyOp50
 70
     1
102
RTVSPropertyOp51
 70
     0
102
RTVSPropertyOp52
 70
     0
102
RTVSPropertyOp53
 70
     1
102
RTVSPropertyOp54
 70
     1
102
RTVSPropertyOp55
 70
     1
102
RTVSPropertyOp56
 70
     1
102
RTVSPropertyOp57
 70
     1
102
RTVSPost2010Prop28
280
     0
102
RTVSPost2010PropOp28
 70
     1
102
RTVSPost2010Prop29
280
     1
102
RTVSPost2010PropOp29
 70
     1
102
RTVSPost2010Prop30
280
     1
102
RTVSPost2010PropOp30
 70
     1
102
RTVSPost2010Prop31
280
     0
102
RTVSPost2010PropOp31
 70
     1
102
RTVSPost2010Prop32
280
     0
102
RTVSPost2010PropOp32
 70
     1
102
RTVSPost2010Prop33
280
     0
102
RTVSPost2010PropOp33
 70
     1
102
RTVSPost2010Prop34
280
     0
102
RTVSPost2010PropOp34
 70
     1
102
RTVSPost2010Prop35
280
     0
102
RTVSPost2010PropOp35
 70
     1
102
RTVSPost2010Prop36
280
     0
102
RTVSPost2010PropOp36
 70
     1
102
RTVSPost2010Prop37
 90
       50
102
RTVSPost2010PropOp37
 70
     1
102
RTVSPost2010Prop38
140
0.0
102
RTVSPost2010PropOp38
 70
     1
102
RTVSPost2010Prop39
140
1.0
102
RTVSPost2010PropOp39
 70
     1
102
RTVSPost2010Prop40
 90
        0
102
RTVSPost2010PropOp40
 70
     1
102
RTVSPost2010Prop41ColorIndex
 90
       18
102
RTVSPost2010Prop41ColorRGB
 90
        0
102
RTVSPost2010PropOp41
 70
     1
102
RTVSPost2010Prop42
 90
       50
102
RTVSPost2010PropOp42
 70
     1
102
RTVSPost2010Prop43
 90
        3
102
RTVSPost2010PropOp43
 70
     1
102
RTVSPost2010Prop44ColorIndex
 90
        5
102
RTVSPost2010Prop44ColorRGB
 90
      255
102
RTVSPost2010PropOp44
 70
     1
102
RTVSPost2010Prop45
280
     0
102
RTVSPost2010PropOp45
 70
     1
102
RTVSPost2010Prop46
 90
       50
102
RTVSPost2010PropOp46
 70
     1
102
RTVSPost2010Prop47
 90
       50
102
RTVSPost2010PropOp47
 70
     1
102
RTVSPost2010Prop48
 90
       50
102
RTVSPost2010PropOp48
 70
     1
102
RTVSPost2010Prop49
280
     0
102
RTVSPost2010PropOp49
 70
     1
102
RTVSPost2010Prop50
 90
       50
102
RTVSPost2010PropOp50
 70
     1
102
RTVSPost2010Prop51ColorIndex
 90
      256
102
RTVSPost2010Prop51ColorRGB
 90
-16777216
102
RTVSPost2010PropOp51
 70
     0
102
RTVSPost2010Prop52
140
1.0
102
RTVSPost2010PropOp52
 70
     0
102
RTVSPost2010Prop53
 90
        2
102
RTVSPost2010PropOp53
 70
     1
102
RTVSPost2010Prop54
  1
strokes_ogs.tif
102
RTVSPost2010PropOp54
 70
     1
102
RTVSPost2010Prop55
280
     0
102
RTVSPost2010PropOp55
 70
     1
102
RTVSPost2010Prop56
140
1.0
102
RTVSPost2010PropOp56
 70
     1
102
RTVSPost2010Prop57
140
1.0
102
RTVSPost2010PropOp57
 70
     1
  0
XRECORD
  5
4EC
102
{ACAD_REACTORS
330
4EB
102
}
330
4EB
100
AcDbXrecord
280
     1
102
RTVSPropertyOp0
 70
     1
102
RTVSPropertyOp1
 70
     1
102
RTVSPropertyOp2
 70
     1
102
RTVSPropertyOp3
 70
     1
102
RTVSPropertyOp4
 70
     1
102
RTVSPropertyOp5
 70
     1
102
RTVSPropertyOp6
 70
     1
102
RTVSPropertyOp7
 70
     1
102
RTVSPropertyOp8
 70
     1
102
RTVSPropertyOp9
 70
     1
102
RTVSPropertyOp10
 70
     1
102
RTVSPropertyOp11
 70
     1
102
RTVSPropertyOp12
 70
     1
102
RTVSPropertyOp13
 70
     1
102
RTVSPropertyOp14
 70
     1
102
RTVSPropertyOp15
 70
     1
102
RTVSPropertyOp16
 70
     1
102
RTVSPropertyOp17
 70
     1
102
RTVSPropertyOp18
 70
     1
102
RTVSPropertyOp19
 70
     1
102
RTVSPropertyOp20
 70
     1
102
RTVSPropertyOp21
 70
     1
102
RTVSPropertyOp22
 70
     1
102
RTVSPropertyOp23
 70
     1
102
RTVSPropertyOp24
 70
     1
102
RTVSPropertyOp25
 70
     1
102
RTVSPropertyOp26
 70
     1
102
RTVSPropertyOp27
 70
     1
102
RTVSPropertyOp28
 70
     1
102
RTVSPropertyOp29
 70
     1
102
RTVSPropertyOp30
 70
     1
102
RTVSPropertyOp31
 70
     1
102
RTVSPropertyOp32
 70
     1
102
RTVSPropertyOp33
 70
     1
102
RTVSPropertyOp34
 70
     1
102
RTVSPropertyOp35
 70
     1
102
RTVSPropertyOp36
 70
     1
102
RTVSPropertyOp37
 70
     1
102
RTVSPropertyOp38
 70
     1
102
RTVSPropertyOp39
 70
     1
102
RTVSPropertyOp40
 70
     1
102
RTVSPropertyOp41
 70
     1
102
RTVSPropertyOp42
 70
     1
102
RTVSPropertyOp43
 70
     1
102
RTVSPropertyOp44
 70
     1
102
RTVSPropertyOp45
 70
     1
102
RTVSPropertyOp46
 70
     1
102
RTVSPropertyOp47
 70
     1
102
RTVSPropertyOp48
 70
     1
102
RTVSPropertyOp49
 70
     1
102
RTVSPropertyOp50
 70
     1
102
RTVSPropertyOp51
 70
     0
102
RTVSPropertyOp52
 70
     0
102
RTVSPropertyOp53
 70
     1
102
RTVSPropertyOp54
 70
     1
102
RTVSPropertyOp55
 70
     1
102
RTVSPropertyOp56
 70
     1
102
RTVSPropertyOp57
 70
     1
102
RTVSPost2010Prop28
280
     0
102
RTVSPost2010PropOp28
 70
     1
102
RTVSPost2010Prop29
280
     1
102
RTVSPost2010PropOp29
 70
     1
102
RTVSPost2010Prop30
280
     1
102
RTVSPost2010PropOp30
 70
     1
102
RTVSPost2010Prop31
280
     0
102
RTVSPost2010PropOp31
 70
     1
102
RTVSPost2010Prop32
280
     0
102
RTVSPost2010PropOp32
 70
     1
102
RTVSPost2010Prop33
280
     0
102
RTVSPost2010PropOp33
 70
     1
102
RTVSPost2010Prop34
280
     0
102
RTVSPost2010PropOp34
 70
     1
102
RTVSPost2010Prop35
280
     0
102
RTVSPost2010PropOp35
 70
     1
102
RTVSPost2010Prop36
280
     0
102
RTVSPost2010PropOp36
 70
     1
102
RTVSPost2010Prop37
 90
       50
102
RTVSPost2010PropOp37
 70
     1
102
RTVSPost2010Prop38
140
0.0
102
RTVSPost2010PropOp38
 70
     1
102
RTVSPost2010Prop39
140
1.0
102
RTVSPost2010PropOp39
 70
     1
102
RTVSPost2010Prop40
 90
        0
102
RTVSPost2010PropOp40
 70
     1
102
RTVSPost2010Prop41ColorIndex
 90
       18
102
RTVSPost2010Prop41ColorRGB
 90
        0
102
RTVSPost2010PropOp41
 70
     1
102
RTVSPost2010Prop42
 90
       50
102
RTVSPost2010PropOp42
 70
     1
102
RTVSPost2010Prop43
 90
        3
102
RTVSPost2010PropOp43
 70
     1
102
RTVSPost2010Prop44ColorIndex
 90
        5
102
RTVSPost2010Prop44ColorRGB
 90
      255
102
RTVSPost2010PropOp44
 70
     1
102
RTVSPost2010Prop45
280
     0
102
RTVSPost2010PropOp45
 70
     1
102
RTVSPost2010Prop46
 90
       50
102
RTVSPost2010PropOp46
 70
     1
102
RTVSPost2010Prop47
 90
       50
102
RTVSPost2010PropOp47
 70
     1
102
RTVSPost2010Prop48
 90
       50
102
RTVSPost2010PropOp48
 70
     1
102
RTVSPost2010Prop49
280
     0
102
RTVSPost2010PropOp49
 70
     1
102
RTVSPost2010Prop50
 90
       50
102
RTVSPost2010PropOp50
 70
     1
102
RTVSPost2010Prop51ColorIndex
 90
      256
102
RTVSPost2010Prop51ColorRGB
 90
-16777216
102
RTVSPost2010PropOp51
 70
     0
102
RTVSPost2010Prop52
140
1.0
102
RTVSPost2010PropOp52
 70
     0
102
RTVSPost2010Prop53
 90
        2
102
RTVSPost2010PropOp53
 70
     1
102
RTVSPost2010Prop54
  1
strokes_ogs.tif
102
RTVSPost2010PropOp54
 70
     1
102
RTVSPost2010Prop55
280
     0
102
RTVSPost2010PropOp55
 70
     1
102
RTVSPost2010Prop56
140
1.0
102
RTVSPost2010PropOp56
 70
     1
102
RTVSPost2010Prop57
140
1.0
102
RTVSPost2010PropOp57
 70
     1
  0
XRECORD
  5
4EE
102
{ACAD_REACTORS
330
4ED
102
}
330
4ED
100
AcDbXrecord
280
     1
102
RTVSPropertyOp0
 70
     1
102
RTVSPropertyOp1
 70
     1
102
RTVSPropertyOp2
 70
     1
102
RTVSPropertyOp3
 70
     1
102
RTVSPropertyOp4
 70
     1
102
RTVSPropertyOp5
 70
     1
102
RTVSPropertyOp6
 70
     1
102
RTVSPropertyOp7
 70
     1
102
RTVSPropertyOp8
 70
     1
102
RTVSPropertyOp9
 70
     1
102
RTVSPropertyOp10
 70
     1
102
RTVSPropertyOp11
 70
     1
102
RTVSPropertyOp12
 70
     1
102
RTVSPropertyOp13
 70
     1
102
RTVSPropertyOp14
 70
     1
102
RTVSPropertyOp15
 70
     1
102
RTVSPropertyOp16
 70
     1
102
RTVSPropertyOp17
 70
     1
102
RTVSPropertyOp18
 70
     1
102
RTVSPropertyOp19
 70
     1
102
RTVSPropertyOp20
 70
     1
102
RTVSPropertyOp21
 70
     1
102
RTVSPropertyOp22
 70
     1
102
RTVSPropertyOp23
 70
     1
102
RTVSPropertyOp24
 70
     1
102
RTVSPropertyOp25
 70
     1
102
RTVSPropertyOp26
 70
     1
102
RTVSPropertyOp27
 70
     1
102
RTVSPropertyOp28
 70
     1
102
RTVSPropertyOp29
 70
     1
102
RTVSPropertyOp30
 70
     1
102
RTVSPropertyOp31
 70
     1
102
RTVSPropertyOp32
 70
     1
102
RTVSPropertyOp33
 70
     1
102
RTVSPropertyOp34
 70
     1
102
RTVSPropertyOp35
 70
     1
102
RTVSPropertyOp36
 70
     1
102
RTVSPropertyOp37
 70
     1
102
RTVSPropertyOp38
 70
     1
102
RTVSPropertyOp39
 70
     1
102
RTVSPropertyOp40
 70
     1
102
RTVSPropertyOp41
 70
     1
102
RTVSPropertyOp42
 70
     1
102
RTVSPropertyOp43
 70
     1
102
RTVSPropertyOp44
 70
     1
102
RTVSPropertyOp45
 70
     1
102
RTVSPropertyOp46
 70
     1
102
RTVSPropertyOp47
 70
     1
102
RTVSPropertyOp48
 70
     1
102
RTVSPropertyOp49
 70
     1
102
RTVSPropertyOp50
 70
     1
102
RTVSPropertyOp51
 70
     0
102
RTVSPropertyOp52
 70
     0
102
RTVSPropertyOp53
 70
     1
102
RTVSPropertyOp54
 70
     1
102
RTVSPropertyOp55
 70
     1
102
RTVSPropertyOp56
 70
     1
102
RTVSPropertyOp57
 70
     1
102
RTVSPost2010Prop28
280
     0
102
RTVSPost2010PropOp28
 70
     1
102
RTVSPost2010Prop29
280
     1
102
RTVSPost2010PropOp29
 70
     1
102
RTVSPost2010Prop30
280
     1
102
RTVSPost2010PropOp30
 70
     1
102
RTVSPost2010Prop31
280
     0
102
RTVSPost2010PropOp31
 70
     1
102
RTVSPost2010Prop32
280
     0
102
RTVSPost2010PropOp32
 70
     1
102
RTVSPost2010Prop33
280
     0
102
RTVSPost2010PropOp33
 70
     1
102
RTVSPost2010Prop34
280
     0
102
RTVSPost2010PropOp34
 70
     1
102
RTVSPost2010Prop35
280
     0
102
RTVSPost2010PropOp35
 70
     1
102
RTVSPost2010Prop36
280
     0
102
RTVSPost2010PropOp36
 70
     1
102
RTVSPost2010Prop37
 90
       50
102
RTVSPost2010PropOp37
 70
     1
102
RTVSPost2010Prop38
140
0.0
102
RTVSPost2010PropOp38
 70
     1
102
RTVSPost2010Prop39
140
1.0
102
RTVSPost2010PropOp39
 70
     1
102
RTVSPost2010Prop40
 90
        0
102
RTVSPost2010PropOp40
 70
     1
102
RTVSPost2010Prop41ColorIndex
 90
       18
102
RTVSPost2010Prop41ColorRGB
 90
        0
102
RTVSPost2010PropOp41
 70
     1
102
RTVSPost2010Prop42
 90
       50
102
RTVSPost2010PropOp42
 70
     1
102
RTVSPost2010Prop43
 90
        3
102
RTVSPost2010PropOp43
 70
     1
102
RTVSPost2010Prop44ColorIndex
 90
        5
102
RTVSPost2010Prop44ColorRGB
 90
      255
102
RTVSPost2010PropOp44
 70
     1
102
RTVSPost2010Prop45
280
     0
102
RTVSPost2010PropOp45
 70
     1
102
RTVSPost2010Prop46
 90
       50
102
RTVSPost2010PropOp46
 70
     1
102
RTVSPost2010Prop47
 90
       50
102
RTVSPost2010PropOp47
 70
     1
102
RTVSPost2010Prop48
 90
       50
102
RTVSPost2010PropOp48
 70
     1
102
RTVSPost2010Prop49
280
     0
102
RTVSPost2010PropOp49
 70
     1
102
RTVSPost2010Prop50
 90
       50
102
RTVSPost2010PropOp50
 70
     1
102
RTVSPost2010Prop51ColorIndex
 90
      256
102
RTVSPost2010Prop51ColorRGB
 90
-16777216
102
RTVSPost2010PropOp51
 70
     0
102
RTVSPost2010Prop52
140
1.0
102
RTVSPost2010PropOp52
 70
     0
102
RTVSPost2010Prop53
 90
        2
102
RTVSPost2010PropOp53
 70
     1
102
RTVSPost2010Prop54
  1
strokes_ogs.tif
102
RTVSPost2010PropOp54
 70
     1
102
RTVSPost2010Prop55
280
     0
102
RTVSPost2010PropOp55
 70
     1
102
RTVSPost2010Prop56
140
1.0
102
RTVSPost2010PropOp56
 70
     1
102
RTVSPost2010Prop57
140
1.0
102
RTVSPost2010PropOp57
 70
     1
  0
XRECORD
  5
4DE
102
{ACAD_REACTORS
330
4DD
102
}
330
4DD
100
AcDbXrecord
280
     1
102
RTVSPropertyOp0
 70
     1
102
RTVSPropertyOp1
 70
     1
102
RTVSPropertyOp2
 70
     1
102
RTVSPropertyOp3
 70
     1
102
RTVSPropertyOp4
 70
     1
102
RTVSPropertyOp5
 70
     1
102
RTVSPropertyOp6
 70
     1
102
RTVSPropertyOp7
 70
     1
102
RTVSPropertyOp8
 70
     1
102
RTVSPropertyOp9
 70
     1
102
RTVSPropertyOp10
 70
     1
102
RTVSPropertyOp11
 70
     1
102
RTVSPropertyOp12
 70
     1
102
RTVSPropertyOp13
 70
     1
102
RTVSPropertyOp14
 70
     1
102
RTVSPropertyOp15
 70
     1
102
RTVSPropertyOp16
 70
     1
102
RTVSPropertyOp17
 70
     1
102
RTVSPropertyOp18
 70
     1
102
RTVSPropertyOp19
 70
     1
102
RTVSPropertyOp20
 70
     1
102
RTVSPropertyOp21
 70
     1
102
RTVSPropertyOp22
 70
     1
102
RTVSPropertyOp23
 70
     1
102
RTVSPropertyOp24
 70
     1
102
RTVSPropertyOp25
 70
     1
102
RTVSPropertyOp26
 70
     1
102
RTVSPropertyOp27
 70
     1
102
RTVSPropertyOp28
 70
     1
102
RTVSPropertyOp29
 70
     1
102
RTVSPropertyOp30
 70
     1
102
RTVSPropertyOp31
 70
     1
102
RTVSPropertyOp32
 70
     1
102
RTVSPropertyOp33
 70
     1
102
RTVSPropertyOp34
 70
     1
102
RTVSPropertyOp35
 70
     1
102
RTVSPropertyOp36
 70
     1
102
RTVSPropertyOp37
 70
     1
102
RTVSPropertyOp38
 70
     1
102
RTVSPropertyOp39
 70
     1
102
RTVSPropertyOp40
 70
     1
102
RTVSPropertyOp41
 70
     1
102
RTVSPropertyOp42
 70
     1
102
RTVSPropertyOp43
 70
     1
102
RTVSPropertyOp44
 70
     1
102
RTVSPropertyOp45
 70
     1
102
RTVSPropertyOp46
 70
     1
102
RTVSPropertyOp47
 70
     1
102
RTVSPropertyOp48
 70
     1
102
RTVSPropertyOp49
 70
     1
102
RTVSPropertyOp50
 70
     1
102
RTVSPropertyOp51
 70
     0
102
RTVSPropertyOp52
 70
     0
102
RTVSPropertyOp53
 70
     1
102
RTVSPropertyOp54
 70
     1
102
RTVSPropertyOp55
 70
     1
102
RTVSPropertyOp56
 70
     1
102
RTVSPropertyOp57
 70
     1
102
RTVSPost2010Prop28
280
     0
102
RTVSPost2010PropOp28
 70
     1
102
RTVSPost2010Prop29
280
     1
102
RTVSPost2010PropOp29
 70
     1
102
RTVSPost2010Prop30
280
     1
102
RTVSPost2010PropOp30
 70
     1
102
RTVSPost2010Prop31
280
     0
102
RTVSPost2010PropOp31
 70
     1
102
RTVSPost2010Prop32
280
     0
102
RTVSPost2010PropOp32
 70
     1
102
RTVSPost2010Prop33
280
     0
102
RTVSPost2010PropOp33
 70
     1
102
RTVSPost2010Prop34
280
     0
102
RTVSPost2010PropOp34
 70
     1
102
RTVSPost2010Prop35
280
     0
102
RTVSPost2010PropOp35
 70
     1
102
RTVSPost2010Prop36
280
     0
102
RTVSPost2010PropOp36
 70
     1
102
RTVSPost2010Prop37
 90
       50
102
RTVSPost2010PropOp37
 70
     1
102
RTVSPost2010Prop38
140
0.0
102
RTVSPost2010PropOp38
 70
     1
102
RTVSPost2010Prop39
140
1.0
102
RTVSPost2010PropOp39
 70
     1
102
RTVSPost2010Prop40
 90
        0
102
RTVSPost2010PropOp40
 70
     1
102
RTVSPost2010Prop41ColorIndex
 90
       18
102
RTVSPost2010Prop41ColorRGB
 90
        0
102
RTVSPost2010PropOp41
 70
     1
102
RTVSPost2010Prop42
 90
       50
102
RTVSPost2010PropOp42
 70
     1
102
RTVSPost2010Prop43
 90
        3
102
RTVSPost2010PropOp43
 70
     1
102
RTVSPost2010Prop44ColorIndex
 90
        5
102
RTVSPost2010Prop44ColorRGB
 90
      255
102
RTVSPost2010PropOp44
 70
     1
102
RTVSPost2010Prop45
280
     0
102
RTVSPost2010PropOp45
 70
     1
102
RTVSPost2010Prop46
 90
       50
102
RTVSPost2010PropOp46
 70
     1
102
RTVSPost2010Prop47
 90
       50
102
RTVSPost2010PropOp47
 70
     1
102
RTVSPost2010Prop48
 90
       50
102
RTVSPost2010PropOp48
 70
     1
102
RTVSPost2010Prop49
280
     0
102
RTVSPost2010PropOp49
 70
     1
102
RTVSPost2010Prop50
 90
       50
102
RTVSPost2010PropOp50
 70
     1
102
RTVSPost2010Prop51ColorIndex
 90
      256
102
RTVSPost2010Prop51ColorRGB
 90
-16777216
102
RTVSPost2010PropOp51
 70
     0
102
RTVSPost2010Prop52
140
1.0
102
RTVSPost2010PropOp52
 70
     0
102
RTVSPost2010Prop53
 90
        2
102
RTVSPost2010PropOp53
 70
     1
102
RTVSPost2010Prop54
  1
strokes_ogs.tif
102
RTVSPost2010PropOp54
 70
     1
102
RTVSPost2010Prop55
280
     0
102
RTVSPost2010PropOp55
 70
     1
102
RTVSPost2010Prop56
140
1.0
102
RTVSPost2010PropOp56
 70
     1
102
RTVSPost2010Prop57
140
1.0
102
RTVSPost2010PropOp57
 70
     1
  0
XRECORD
  5
4D0
102
{ACAD_REACTORS
330
4CF
102
}
330
4CF
100
AcDbXrecord
280
     1
102
RTVSPropertyOp0
 70
     1
102
RTVSPropertyOp1
 70
     1
102
RTVSPropertyOp2
 70
     1
102
RTVSPropertyOp3
 70
     1
102
RTVSPropertyOp4
 70
     1
102
RTVSPropertyOp5
 70
     1
102
RTVSPropertyOp6
 70
     1
102
RTVSPropertyOp7
 70
     1
102
RTVSPropertyOp8
 70
     1
102
RTVSPropertyOp9
 70
     1
102
RTVSPropertyOp10
 70
     1
102
RTVSPropertyOp11
 70
     1
102
RTVSPropertyOp12
 70
     1
102
RTVSPropertyOp13
 70
     1
102
RTVSPropertyOp14
 70
     1
102
RTVSPropertyOp15
 70
     1
102
RTVSPropertyOp16
 70
     1
102
RTVSPropertyOp17
 70
     1
102
RTVSPropertyOp18
 70
     1
102
RTVSPropertyOp19
 70
     1
102
RTVSPropertyOp20
 70
     1
102
RTVSPropertyOp21
 70
     1
102
RTVSPropertyOp22
 70
     1
102
RTVSPropertyOp23
 70
     1
102
RTVSPropertyOp24
 70
     1
102
RTVSPropertyOp25
 70
     1
102
RTVSPropertyOp26
 70
     1
102
RTVSPropertyOp27
 70
     1
102
RTVSPropertyOp28
 70
     1
102
RTVSPropertyOp29
 70
     1
102
RTVSPropertyOp30
 70
     1
102
RTVSPropertyOp31
 70
     1
102
RTVSPropertyOp32
 70
     1
102
RTVSPropertyOp33
 70
     1
102
RTVSPropertyOp34
 70
     1
102
RTVSPropertyOp35
 70
     1
102
RTVSPropertyOp36
 70
     1
102
RTVSPropertyOp37
 70
     1
102
RTVSPropertyOp38
 70
     1
102
RTVSPropertyOp39
 70
     1
102
RTVSPropertyOp40
 70
     1
102
RTVSPropertyOp41
 70
     1
102
RTVSPropertyOp42
 70
     1
102
RTVSPropertyOp43
 70
     1
102
RTVSPropertyOp44
 70
     1
102
RTVSPropertyOp45
 70
     1
102
RTVSPropertyOp46
 70
     1
102
RTVSPropertyOp47
 70
     1
102
RTVSPropertyOp48
 70
     1
102
RTVSPropertyOp49
 70
     1
102
RTVSPropertyOp50
 70
     1
102
RTVSPropertyOp51
 70
     0
102
RTVSPropertyOp52
 70
     0
102
RTVSPropertyOp53
 70
     1
102
RTVSPropertyOp54
 70
     1
102
RTVSPropertyOp55
 70
     1
102
RTVSPropertyOp56
 70
     1
102
RTVSPropertyOp57
 70
     1
102
RTVSPost2010Prop28
280
     0
102
RTVSPost2010PropOp28
 70
     1
102
RTVSPost2010Prop29
280
     1
102
RTVSPost2010PropOp29
 70
     1
102
RTVSPost2010Prop30
280
     1
102
RTVSPost2010PropOp30
 70
     1
102
RTVSPost2010Prop31
280
     0
102
RTVSPost2010PropOp31
 70
     1
102
RTVSPost2010Prop32
280
     0
102
RTVSPost2010PropOp32
 70
     1
102
RTVSPost2010Prop33
280
     0
102
RTVSPost2010PropOp33
 70
     1
102
RTVSPost2010Prop34
280
     0
102
RTVSPost2010PropOp34
 70
     1
102
RTVSPost2010Prop35
280
     0
102
RTVSPost2010PropOp35
 70
     1
102
RTVSPost2010Prop36
280
     0
102
RTVSPost2010PropOp36
 70
     1
102
RTVSPost2010Prop37
 90
       50
102
RTVSPost2010PropOp37
 70
     1
102
RTVSPost2010Prop38
140
0.0
102
RTVSPost2010PropOp38
 70
     1
102
RTVSPost2010Prop39
140
1.0
102
RTVSPost2010PropOp39
 70
     1
102
RTVSPost2010Prop40
 90
        0
102
RTVSPost2010PropOp40
 70
     1
102
RTVSPost2010Prop41ColorIndex
 90
       18
102
RTVSPost2010Prop41ColorRGB
 90
        0
102
RTVSPost2010PropOp41
 70
     1
102
RTVSPost2010Prop42
 90
       50
102
RTVSPost2010PropOp42
 70
     1
102
RTVSPost2010Prop43
 90
        3
102
RTVSPost2010PropOp43
 70
     1
102
RTVSPost2010Prop44ColorIndex
 90
        5
102
RTVSPost2010Prop44ColorRGB
 90
      255
102
RTVSPost2010PropOp44
 70
     1
102
RTVSPost2010Prop45
280
     0
102
RTVSPost2010PropOp45
 70
     1
102
RTVSPost2010Prop46
 90
       50
102
RTVSPost2010PropOp46
 70
     1
102
RTVSPost2010Prop47
 90
       50
102
RTVSPost2010PropOp47
 70
     1
102
RTVSPost2010Prop48
 90
       50
102
RTVSPost2010PropOp48
 70
     1
102
RTVSPost2010Prop49
280
     0
102
RTVSPost2010PropOp49
 70
     1
102
RTVSPost2010Prop50
 90
       50
102
RTVSPost2010PropOp50
 70
     1
102
RTVSPost2010Prop51ColorIndex
 90
      256
102
RTVSPost2010Prop51ColorRGB
 90
-16777216
102
RTVSPost2010PropOp51
 70
     0
102
RTVSPost2010Prop52
140
1.0
102
RTVSPost2010PropOp52
 70
     0
102
RTVSPost2010Prop53
 90
        2
102
RTVSPost2010PropOp53
 70
     1
102
RTVSPost2010Prop54
  1
strokes_ogs.tif
102
RTVSPost2010PropOp54
 70
     1
102
RTVSPost2010Prop55
280
     0
102
RTVSPost2010PropOp55
 70
     1
102
RTVSPost2010Prop56
140
1.0
102
RTVSPost2010PropOp56
 70
     1
102
RTVSPost2010Prop57
140
1.0
102
RTVSPost2010PropOp57
 70
     1
  0
XRECORD
  5
4F0
102
{ACAD_REACTORS
330
4EF
102
}
330
4EF
100
AcDbXrecord
280
     1
102
RTVSPropertyOp0
 70
     1
102
RTVSPropertyOp1
 70
     1
102
RTVSPropertyOp2
 70
     1
102
RTVSPropertyOp3
 70
     1
102
RTVSPropertyOp4
 70
     1
102
RTVSPropertyOp5
 70
     1
102
RTVSPropertyOp6
 70
     1
102
RTVSPropertyOp7
 70
     1
102
RTVSPropertyOp8
 70
     1
102
RTVSPropertyOp9
 70
     1
102
RTVSPropertyOp10
 70
     1
102
RTVSPropertyOp11
 70
     1
102
RTVSPropertyOp12
 70
     1
102
RTVSPropertyOp13
 70
     1
102
RTVSPropertyOp14
 70
     1
102
RTVSPropertyOp15
 70
     1
102
RTVSPropertyOp16
 70
     1
102
RTVSPropertyOp17
 70
     1
102
RTVSPropertyOp18
 70
     1
102
RTVSPropertyOp19
 70
     1
102
RTVSPropertyOp20
 70
     1
102
RTVSPropertyOp21
 70
     1
102
RTVSPropertyOp22
 70
     1
102
RTVSPropertyOp23
 70
     1
102
RTVSPropertyOp24
 70
     1
102
RTVSPropertyOp25
 70
     1
102
RTVSPropertyOp26
 70
     1
102
RTVSPropertyOp27
 70
     1
102
RTVSPropertyOp28
 70
     1
102
RTVSPropertyOp29
 70
     1
102
RTVSPropertyOp30
 70
     1
102
RTVSPropertyOp31
 70
     1
102
RTVSPropertyOp32
 70
     1
102
RTVSPropertyOp33
 70
     1
102
RTVSPropertyOp34
 70
     1
102
RTVSPropertyOp35
 70
     1
102
RTVSPropertyOp36
 70
     1
102
RTVSPropertyOp37
 70
     1
102
RTVSPropertyOp38
 70
     1
102
RTVSPropertyOp39
 70
     1
102
RTVSPropertyOp40
 70
     1
102
RTVSPropertyOp41
 70
     1
102
RTVSPropertyOp42
 70
     1
102
RTVSPropertyOp43
 70
     1
102
RTVSPropertyOp44
 70
     1
102
RTVSPropertyOp45
 70
     1
102
RTVSPropertyOp46
 70
     1
102
RTVSPropertyOp47
 70
     1
102
RTVSPropertyOp48
 70
     1
102
RTVSPropertyOp49
 70
     1
102
RTVSPropertyOp50
 70
     1
102
RTVSPropertyOp51
 70
     0
102
RTVSPropertyOp52
 70
     0
102
RTVSPropertyOp53
 70
     1
102
RTVSPropertyOp54
 70
     1
102
RTVSPropertyOp55
 70
     1
102
RTVSPropertyOp56
 70
     1
102
RTVSPropertyOp57
 70
     1
102
RTVSPost2010Prop28
280
     0
102
RTVSPost2010PropOp28
 70
     1
102
RTVSPost2010Prop29
280
     1
102
RTVSPost2010PropOp29
 70
     1
102
RTVSPost2010Prop30
280
     1
102
RTVSPost2010PropOp30
 70
     1
102
RTVSPost2010Prop31
280
     0
102
RTVSPost2010PropOp31
 70
     1
102
RTVSPost2010Prop32
280
     0
102
RTVSPost2010PropOp32
 70
     1
102
RTVSPost2010Prop33
280
     0
102
RTVSPost2010PropOp33
 70
     1
102
RTVSPost2010Prop34
280
     0
102
RTVSPost2010PropOp34
 70
     1
102
RTVSPost2010Prop35
280
     0
102
RTVSPost2010PropOp35
 70
     1
102
RTVSPost2010Prop36
280
     0
102
RTVSPost2010PropOp36
 70
     1
102
RTVSPost2010Prop37
 90
       50
102
RTVSPost2010PropOp37
 70
     1
102
RTVSPost2010Prop38
140
0.0
102
RTVSPost2010PropOp38
 70
     1
102
RTVSPost2010Prop39
140
1.0
102
RTVSPost2010PropOp39
 70
     1
102
RTVSPost2010Prop40
 90
        0
102
RTVSPost2010PropOp40
 70
     1
102
RTVSPost2010Prop41ColorIndex
 90
       18
102
RTVSPost2010Prop41ColorRGB
 90
        0
102
RTVSPost2010PropOp41
 70
     1
102
RTVSPost2010Prop42
 90
       50
102
RTVSPost2010PropOp42
 70
     1
102
RTVSPost2010Prop43
 90
        3
102
RTVSPost2010PropOp43
 70
     1
102
RTVSPost2010Prop44ColorIndex
 90
        5
102
RTVSPost2010Prop44ColorRGB
 90
      255
102
RTVSPost2010PropOp44
 70
     1
102
RTVSPost2010Prop45
280
     0
102
RTVSPost2010PropOp45
 70
     1
102
RTVSPost2010Prop46
 90
       50
102
RTVSPost2010PropOp46
 70
     1
102
RTVSPost2010Prop47
 90
       50
102
RTVSPost2010PropOp47
 70
     1
102
RTVSPost2010Prop48
 90
       50
102
RTVSPost2010PropOp48
 70
     1
102
RTVSPost2010Prop49
280
     0
102
RTVSPost2010PropOp49
 70
     1
102
RTVSPost2010Prop50
 90
       50
102
RTVSPost2010PropOp50
 70
     1
102
RTVSPost2010Prop51ColorIndex
 90
      256
102
RTVSPost2010Prop51ColorRGB
 90
-16777216
102
RTVSPost2010PropOp51
 70
     0
102
RTVSPost2010Prop52
140
1.0
102
RTVSPost2010PropOp52
 70
     0
102
RTVSPost2010Prop53
 90
        2
102
RTVSPost2010PropOp53
 70
     1
102
RTVSPost2010Prop54
  1
strokes_ogs.tif
102
RTVSPost2010PropOp54
 70
     1
102
RTVSPost2010Prop55
280
     0
102
RTVSPost2010PropOp55
 70
     1
102
RTVSPost2010Prop56
140
1.0
102
RTVSPost2010PropOp56
 70
     1
102
RTVSPost2010Prop57
140
1.0
102
RTVSPost2010PropOp57
 70
     1
  0
ENDSEC
  0
EOF
