  0
SECTION
  2
HEADER
  9
$ACADVER
  1
AC1015
  9
$ACADMAINTVER
 70
     6
  9
$DWGCODEPAGE
  3
ANSI_932
  9
$INSBASE
 10
0.0
 20
0.0
 30
0.0
  9
$EXTMIN
 10
0.0
 20
0.0
 30
0.0
  9
$EXTMAX
 10
25230.0
 20
17820.0
 30
0.0
  9
$LIMMIN
 10
0.0
 20
0.0
  9
$LIMMAX
 10
30276.0
 20
21384.0
  9
$ORTHOMODE
 70
     0
  9
$REGENMODE
 70
     1
  9
$FILLMODE
 70
     1
  9
$QTEXTMODE
 70
     0
  9
$MIRRTEXT
 70
     1
  9
$LTSCALE
 40
350.0
  9
$ATTMODE
 70
     1
  9
$TEXTSIZE
 40
0.2
  9
$TRACEWID
 40
0.05
  9
$TEXTSTYLE
  7
Standard
  9
$CLAYER
  8
0
  9
$CELTYPE
  6
ByLayer
  9
$CECOLOR
 62
   256
  9
$CELTSCALE
 40
1.0
  9
$DISPSILH
 70
     0
  9
$DIMSCALE
 40
30.0
  9
$DIMASZ
 40
0.18
  9
$DIMEXO
 40
0.0625
  9
$DIMDLI
 40
0.38
  9
$DIMRND
 40
0.0
  9
$DIMDLE
 40
0.0
  9
$DIMEXE
 40
0.18
  9
$DIMTP
 40
0.0
  9
$DIMTM
 40
0.0
  9
$DIMTXT
 40
0.18
  9
$DIMCEN
 40
0.09
  9
$DIMTSZ
 40
0.0
  9
$DIMTOL
 70
     0
  9
$DIMLIM
 70
     0
  9
$DIMTIH
 70
     1
  9
$DIMTOH
 70
     1
  9
$DIMSE1
 70
     0
  9
$DIMSE2
 70
     0
  9
$DIMTAD
 70
     0
  9
$DIMZIN
 70
     0
  9
$DIMBLK
  1

  9
$DIMASO
 70
     1
  9
$DIMSHO
 70
     1
  9
$DIMPOST
  1

  9
$DIMAPOST
  1

  9
$DIMALT
 70
     0
  9
$DIMALTD
 70
     2
  9
$DIMALTF
 40
25.4
  9
$DIMLFAC
 40
1.0
  9
$DIMTOFL
 70
     0
  9
$DIMTVP
 40
0.0
  9
$DIMTIX
 70
     0
  9
$DIMSOXD
 70
     0
  9
$DIMSAH
 70
     0
  9
$DIMBLK1
  1

  9
$DIMBLK2
  1

  9
$DIMSTYLE
  2
Standard
  9
$DIMCLRD
 70
     0
  9
$DIMCLRE
 70
     0
  9
$DIMCLRT
 70
     0
  9
$DIMTFAC
 40
1.0
  9
$DIMGAP
 40
0.09
  9
$DIMJUST
 70
     0
  9
$DIMSD1
 70
     0
  9
$DIMSD2
 70
     0
  9
$DIMTOLJ
 70
     1
  9
$DIMTZIN
 70
     0
  9
$DIMALTZ
 70
     0
  9
$DIMALTTZ
 70
     0
  9
$DIMUPT
 70
     0
  9
$DIMDEC
 70
     4
  9
$DIMTDEC
 70
     4
  9
$DIMALTU
 70
     2
  9
$DIMALTTD
 70
     2
  9
$DIMTXSTY
  7
Standard
  9
$DIMAUNIT
 70
     0
  9
$DIMADEC
 70
     0
  9
$DIMALTRND
 40
0.0
  9
$DIMAZIN
 70
     0
  9
$DIMDSEP
 70
    46
  9
$DIMATFIT
 70
     3
  9
$DIMFRAC
 70
     0
  9
$DIMLDRBLK
  1

  9
$DIMLUNIT
 70
     2
  9
$DIMLWD
 70
    -2
  9
$DIMLWE
 70
    -2
  9
$DIMTMOVE
 70
     0
  9
$LUNITS
 70
     2
  9
$LUPREC
 70
     4
  9
$SKETCHINC
 40
0.1
  9
$FILLETRAD
 40
0.5
  9
$AUNITS
 70
     0
  9
$AUPREC
 70
     0
  9
$MENU
  1
.
  9
$ELEVATION
 40
0.0
  9
$PELEVATION
 40
0.0
  9
$THICKNESS
 40
0.0
  9
$LIMCHECK
 70
     0
  9
$CHAMFERA
 40
0.0
  9
$CHAMFERB
 40
0.0
  9
$CHAMFERC
 40
0.0
  9
$CHAMFERD
 40
0.0
  9
$SKPOLY
 70
     0
  9
$TDCREATE
 40
2460342.100219907
  9
$TDUCREATE
 40
2460341.725219907
  9
$TDUPDATE
 40
2460341.725230382
  9
$TDUUPDATE
 40
2460341.350230382
  9
$TDINDWG
 40
0.0000000116
  9
$TDUSRTIMER
 40
0.0000000116
  9
$USRTIMER
 70
     1
  9
$ANGBASE
 50
0.0
  9
$ANGDIR
 70
     0
  9
$PDMODE
 70
     0
  9
$PDSIZE
 40
0.0
  9
$PLINEWID
 40
0.0
  9
$SPLFRAME
 70
     0
  9
$SPLINETYPE
 70
     6
  9
$SPLINESEGS
 70
     8
  9
$HANDSEED
  5
3B6
  9
$SURFTAB1
 70
     6
  9
$SURFTAB2
 70
     6
  9
$SURFTYPE
 70
     6
  9
$SURFU
 70
     6
  9
$SURFV
 70
     6
  9
$UCSBASE
  2

  9
$UCSNAME
  2

  9
$UCSORG
 10
0.0
 20
0.0
 30
0.0
  9
$UCSXDIR
 10
1.0
 20
0.0
 30
0.0
  9
$UCSYDIR
 10
0.0
 20
1.0
 30
0.0
  9
$UCSORTHOREF
  2

  9
$UCSORTHOVIEW
 70
     0
  9
$UCSORGTOP
 10
0.0
 20
0.0
 30
0.0
  9
$UCSORGBOTTOM
 10
0.0
 20
0.0
 30
0.0
  9
$UCSORGLEFT
 10
0.0
 20
0.0
 30
0.0
  9
$UCSORGRIGHT
 10
0.0
 20
0.0
 30
0.0
  9
$UCSORGFRONT
 10
0.0
 20
0.0
 30
0.0
  9
$UCSORGBACK
 10
0.0
 20
0.0
 30
0.0
  9
$PUCSBASE
  2

  9
$PUCSNAME
  2

  9
$PUCSORG
 10
0.0
 20
0.0
 30
0.0
  9
$PUCSXDIR
 10
1.0
 20
0.0
 30
0.0
  9
$PUCSYDIR
 10
0.0
 20
1.0
 30
0.0
  9
$PUCSORTHOREF
  2

  9
$PUCSORTHOVIEW
 70
     0
  9
$PUCSORGTOP
 10
0.0
 20
0.0
 30
0.0
  9
$PUCSORGBOTTOM
 10
0.0
 20
0.0
 30
0.0
  9
$PUCSORGLEFT
 10
0.0
 20
0.0
 30
0.0
  9
$PUCSORGRIGHT
 10
0.0
 20
0.0
 30
0.0
  9
$PUCSORGFRONT
 10
0.0
 20
0.0
 30
0.0
  9
$PUCSORGBACK
 10
0.0
 20
0.0
 30
0.0
  9
$USERI1
 70
     0
  9
$USERI2
 70
     0
  9
$USERI3
 70
     0
  9
$USERI4
 70
     0
  9
$USERI5
 70
     0
  9
$USERR1
 40
0.0
  9
$USERR2
 40
0.0
  9
$USERR3
 40
0.0
  9
$USERR4
 40
0.0
  9
$USERR5
 40
0.0
  9
$WORLDVIEW
 70
     1
  9
$SHADEDGE
 70
     3
  9
$SHADEDIF
 70
    70
  9
$TILEMODE
 70
     1
  9
$MAXACTVP
 70
    64
  9
$PINSBASE
 10
0.0
 20
0.0
 30
0.0
  9
$PLIMCHECK
 70
     0
  9
$PEXTMIN
 10
0.0
 20
0.0
 30
0.0
  9
$PEXTMAX
 10
12.0
 20
9.0
 30
0.0
  9
$PLIMMIN
 10
0.0
 20
0.0
  9
$PLIMMAX
 10
12.0
 20
9.0
  9
$UNITMODE
 70
     0
  9
$VISRETAIN
 70
     1
  9
$PLINEGEN
 70
     0
  9
$PSLTSCALE
 70
     1
  9
$TREEDEPTH
 70
  3020
  9
$CMLSTYLE
  2
Standard
  9
$CMLJUST
 70
     0
  9
$CMLSCALE
 40
1.0
  9
$PROXYGRAPHICS
 70
     1
  9
$MEASUREMENT
 70
     1
  9
$CELWEIGHT
370
    -1
  9
$ENDCAPS
280
     0
  9
$JOINSTYLE
280
     0
  9
$LWDISPLAY
290
     0
  9
$INSUNITS
 70
     4
  9
$HYPERLINKBASE
  1

  9
$STYLESHEET
  1

  9
$XEDIT
290
     1
  9
$CEPSNTYPE
380
     0
  9
$PSTYLEMODE
290
     1
  9
$FINGERPRINTGUID
  2
{7ba8314a-0e12-4af0-93a9-2b13dfc8b00b}
  9
$VERSIONGUID
  2
{FAEB1C32-E019-11D5-929B-00C0DF256EC4}
  9
$EXTNAMES
290
     1
  9
$PSVPSCALE
 40
0.0
  9
$OLESTARTUP
290
     0
  0
ENDSEC
  0
SECTION
  2
CLASSES
  0
CLASS
  1
ACDBDICTIONARYWDFLT
  2
AcDbDictionaryWithDefault
  3
ObjectDBX Classes
 90
        0
280
     0
281
     0
  0
CLASS
  1
VISUALSTYLE
  2
AcDbVisualStyle
  3
ObjectDBX Classes
 90
     4095
280
     0
281
     0
  0
CLASS
  1
MATERIAL
  2
AcDbMaterial
  3
ObjectDBX Classes
 90
     1153
280
     0
281
     0
  0
CLASS
  1
SCALE
  2
AcDbScale
  3
ObjectDBX Classes
 90
     1153
280
     0
281
     0
  0
CLASS
  1
TABLESTYLE
  2
AcDbTableStyle
  3
ObjectDBX Classes
 90
     4095
280
     0
281
     0
  0
CLASS
  1
MLEADERSTYLE
  2
AcDbMLeaderStyle
  3
ACDB_MLEADERSTYLE_CLASS
 90
     4095
280
     0
281
     0
  0
CLASS
  1
SUN
  2
AcDbSun
  3
SCENEOE
 90
     1153
280
     0
281
     0
  0
CLASS
  1
DICTIONARYVAR
  2
AcDbDictionaryVar
  3
ObjectDBX Classes
 90
        0
280
     0
281
     0
  0
CLASS
  1
ACDBPLACEHOLDER
  2
AcDbPlaceHolder
  3
ObjectDBX Classes
 90
        0
280
     0
281
     0
  0
CLASS
  1
LAYOUT
  2
AcDbLayout
  3
ObjectDBX Classes
 90
        0
280
     0
281
     0
  0
ENDSEC
  0
SECTION
  2
TABLES
  0
TABLE
  2
VPORT
  5
8
102
{ACAD_XDICTIONARY
360
379
102
}
330
0
100
AcDbSymbolTable
 70
     1
  0
VPORT
  5
29
330
8
100
AcDbSymbolTableRecord
100
AcDbViewportTableRecord
  2
*Active
 70
     0
 10
0.0
 20
0.0
 11
1.0
 21
1.0
 12
8410.0
 22
8910.0
 13
0.0
 23
0.0
 14
1.0
 24
1.0
 15
0.0
 25
0.0
 16
0.0
 26
0.0
 36
1.0
 17
0.0
 27
0.0
 37
0.0
 40
17820.0
 41
0.688564
 42
50.0
 43
0.0
 44
0.0
 50
0.0
 51
0.0
 71
     0
 72
   100
 73
     1
 74
     3
 75
     0
 76
     0
 77
     0
 78
     0
281
     0
 65
     0
110
0.0
120
0.0
130
0.0
111
1.0
121
0.0
131
0.0
112
0.0
122
1.0
132
0.0
 79
     0
146
0.0
  0
ENDTAB
  0
TABLE
  2
LTYPE
  5
5
330
0
100
AcDbSymbolTable
 70
     3
  0
LTYPE
  5
14
330
5
100
AcDbSymbolTableRecord
100
AcDbLinetypeTableRecord
  2
ByBlock
 70
     0
  3

 72
    65
 73
     0
 40
0.0
  0
LTYPE
  5
15
330
5
100
AcDbSymbolTableRecord
100
AcDbLinetypeTableRecord
  2
ByLayer
 70
     0
  3

 72
    65
 73
     0
 40
0.0
  0
LTYPE
  5
16
330
5
100
AcDbSymbolTableRecord
100
AcDbLinetypeTableRecord
  2
Continuous
 70
     0
  3
Solid line
 72
    65
 73
     0
 40
0.0
  0
LTYPE
  5
B1
330
5
100
AcDbSymbolTableRecord
100
AcDbLinetypeTableRecord
  2
DASHED2
 70
     0
  3
_ _ _ _ _ _ _ _ _ _ _ _ _ _ _ _ _ _ _
 72
    65
 73
     2
 40
0.375
 49
0.25
 74
     0
 49
-0.125
 74
     0
  0
LTYPE
  5
B3
330
5
100
AcDbSymbolTableRecord
100
AcDbLinetypeTableRecord
  2
CENTER2
 70
     0
  3
___ _ ___ _ ___ _ ___ _ ___ _ ___ _ _
 72
    65
 73
     4
 40
1.125
 49
0.75
 74
     0
 49
-0.125
 74
     0
 49
0.125
 74
     0
 49
-0.125
 74
     0
  0
ENDTAB
  0
TABLE
  2
LAYER
  5
2
330
0
100
AcDbSymbolTable
 70
     8
  0
LAYER
  5
10
330
2
100
AcDbSymbolTableRecord
100
AcDbLayerTableRecord
  2
0
 70
     0
 62
     7
  6
Continuous
370
    -3
390
F
  0
LAYER
  5
B0
330
2
100
AcDbSymbolTableRecord
100
AcDbLayerTableRecord
  2
寸法
 70
     0
 62
     2
  6
Continuous
370
     5
390
F
  0
LAYER
  5
B2
330
2
100
AcDbSymbolTableRecord
100
AcDbLayerTableRecord
  2
06-ダクト内線
 70
     0
 62
     6
  6
DASHED2
370
     9
390
F
  0
LAYER
  5
B4
330
2
100
AcDbSymbolTableRecord
100
AcDbLayerTableRecord
  2
04-ダクトセンター
 70
     0
 62
     1
  6
CENTER2
370
     5
390
F
  0
LAYER
  5
B5
330
2
100
AcDbSymbolTableRecord
100
AcDbLayerTableRecord
  2
05-ダクト外線
 70
     0
 62
     4
  6
Continuous
370
    13
390
F
  0
LAYER
  5
B6
330
2
100
AcDbSymbolTableRecord
100
AcDbLayerTableRecord
  2
03-文字-2
 70
     0
 62
     7
  6
Continuous
370
     5
390
F
  0
LAYER
  5
B7
330
2
100
AcDbSymbolTableRecord
100
AcDbLayerTableRecord
  2
Defpoints
 70
     0
 62
    98
  6
Continuous
290
     0
370
    -3
390
F
  0
LAYER
  5
B8
330
2
100
AcDbSymbolTableRecord
100
AcDbLayerTableRecord
  2
シンボル
 70
     0
 62
     7
  6
Continuous
370
     5
390
F
  0
ENDTAB
  0
TABLE
  2
STYLE
  5
3
330
0
100
AcDbSymbolTable
 70
     4
  0
STYLE
  5
11
330
3
100
AcDbSymbolTableRecord
100
AcDbTextStyleTableRecord
  2
Standard
 70
     0
 40
0.0
 41
1.0
 50
0.0
 71
     0
 42
0.2
  3
txt
  4
extfont2
  0
STYLE
  5
6E
330
3
100
AcDbSymbolTableRecord
100
AcDbTextStyleTableRecord
  2
MONOSTYLE-H
 70
     0
 40
0.0
 41
1.0
 50
0.0
 71
     0
 42
0.2
  3
monotxt
  4
extfont2
  0
STYLE
  5
6F
330
3
100
AcDbSymbolTableRecord
100
AcDbTextStyleTableRecord
  2
TATEGAKI
 70
     4
 40
0.0
 41
1.0
 50
0.0
 71
     0
 42
0.2
  3
txt
  4
@extfont2
  0
STYLE
  5
70
330
3
100
AcDbSymbolTableRecord
100
AcDbTextStyleTableRecord
  2
MONOSTYLE-V
 70
     4
 40
0.0
 41
1.0
 50
0.0
 71
     0
 42
0.2
  3
monotxt
  4
@extfont2
  0
ENDTAB
  0
TABLE
  2
VIEW
  5
6
330
0
100
AcDbSymbolTable
 70
     0
  0
ENDTAB
  0
TABLE
  2
UCS
  5
7
330
0
100
AcDbSymbolTable
 70
     0
  0
ENDTAB
  0
TABLE
  2
APPID
  5
9
330
0
100
AcDbSymbolTable
 70
     2
  0
APPID
  5
12
330
9
100
AcDbSymbolTableRecord
100
AcDbRegAppTableRecord
  2
ACAD
 70
     0
  0
APPID
  5
3B3
330
9
100
AcDbSymbolTableRecord
100
AcDbRegAppTableRecord
  2
ACAD_MLEADERVER
 70
     0
  0
ENDTAB
  0
TABLE
  2
DIMSTYLE
  5
A
330
0
100
AcDbSymbolTable
 70
     1
100
AcDbDimStyleTable
  0
DIMSTYLE
105
27
330
A
100
AcDbSymbolTableRecord
100
AcDbDimStyleTableRecord
  2
Standard
 70
     0
178
     0
340
11
  0
ENDTAB
  0
TABLE
  2
BLOCK_RECORD
  5
1
330
0
100
AcDbSymbolTable
 70
    48
  0
BLOCK_RECORD
  5
1F
330
1
100
AcDbSymbolTableRecord
100
AcDbBlockTableRecord
  2
*Model_Space
340
22
  0
BLOCK_RECORD
  5
1B
330
1
100
AcDbSymbolTableRecord
100
AcDbBlockTableRecord
  2
*Paper_Space
340
1E
  0
BLOCK_RECORD
  5
CA
330
1
100
AcDbSymbolTableRecord
100
AcDbBlockTableRecord
  2
INS-D7NPY
340
0
102
{BLKREFS
331
CD
102
}
  0
BLOCK_RECORD
  5
D8
330
1
100
AcDbSymbolTableRecord
100
AcDbBlockTableRecord
  2
INS-DFLSF
340
0
102
{BLKREFS
331
DB
102
}
  0
BLOCK_RECORD
  5
E2
330
1
100
AcDbSymbolTableRecord
100
AcDbBlockTableRecord
  2
INS-DSGM9
340
0
102
{BLKREFS
331
E5
102
}
  0
BLOCK_RECORD
  5
110
330
1
100
AcDbSymbolTableRecord
100
AcDbBlockTableRecord
  2
INS-D3LW6
340
0
102
{BLKREFS
331
113
102
}
  0
BLOCK_RECORD
  5
11E
330
1
100
AcDbSymbolTableRecord
100
AcDbBlockTableRecord
  2
INS-DA1FE
340
0
102
{BLKREFS
331
121
102
}
  0
BLOCK_RECORD
  5
128
330
1
100
AcDbSymbolTableRecord
100
AcDbBlockTableRecord
  2
INS-D7MR0
340
0
102
{BLKREFS
331
12B
102
}
  0
BLOCK_RECORD
  5
139
330
1
100
AcDbSymbolTableRecord
100
AcDbBlockTableRecord
  2
INS-D78OA
340
0
102
{BLKREFS
331
13C
102
}
  0
BLOCK_RECORD
  5
147
330
1
100
AcDbSymbolTableRecord
100
AcDbBlockTableRecord
  2
INS-DNDMR
340
0
102
{BLKREFS
331
14A
102
}
  0
BLOCK_RECORD
  5
151
330
1
100
AcDbSymbolTableRecord
100
AcDbBlockTableRecord
  2
INS-DSGG4
340
0
102
{BLKREFS
331
154
102
}
  0
BLOCK_RECORD
  5
162
330
1
100
AcDbSymbolTableRecord
100
AcDbBlockTableRecord
  2
INS-D4KXW
340
0
102
{BLKREFS
331
165
102
}
  0
BLOCK_RECORD
  5
170
330
1
100
AcDbSymbolTableRecord
100
AcDbBlockTableRecord
  2
INS-D63SX
340
0
102
{BLKREFS
331
173
102
}
  0
BLOCK_RECORD
  5
17A
330
1
100
AcDbSymbolTableRecord
100
AcDbBlockTableRecord
  2
INS-D4XS7
340
0
102
{BLKREFS
331
17D
102
}
  0
BLOCK_RECORD
  5
18B
330
1
100
AcDbSymbolTableRecord
100
AcDbBlockTableRecord
  2
INS-D75LM
340
0
102
{BLKREFS
331
18E
102
}
  0
BLOCK_RECORD
  5
199
330
1
100
AcDbSymbolTableRecord
100
AcDbBlockTableRecord
  2
INS-DJQ7F
340
0
102
{BLKREFS
331
19C
102
}
  0
BLOCK_RECORD
  5
1A3
330
1
100
AcDbSymbolTableRecord
100
AcDbBlockTableRecord
  2
INS-DILS8
340
0
102
{BLKREFS
331
1A6
102
}
  0
BLOCK_RECORD
  5
1B4
330
1
100
AcDbSymbolTableRecord
100
AcDbBlockTableRecord
  2
INS-DKRN1
340
0
102
{BLKREFS
331
1B7
102
}
  0
BLOCK_RECORD
  5
1C2
330
1
100
AcDbSymbolTableRecord
100
AcDbBlockTableRecord
  2
INS-D5OH1
340
0
102
{BLKREFS
331
1C5
102
}
  0
BLOCK_RECORD
  5
1CC
330
1
100
AcDbSymbolTableRecord
100
AcDbBlockTableRecord
  2
INS-D78BR
340
0
102
{BLKREFS
331
1CF
102
}
  0
BLOCK_RECORD
  5
1DD
330
1
100
AcDbSymbolTableRecord
100
AcDbBlockTableRecord
  2
INS-D7B96
340
0
102
{BLKREFS
331
1E0
102
}
  0
BLOCK_RECORD
  5
1EB
330
1
100
AcDbSymbolTableRecord
100
AcDbBlockTableRecord
  2
INS-D6E5D
340
0
102
{BLKREFS
331
1EE
102
}
  0
BLOCK_RECORD
  5
1F5
330
1
100
AcDbSymbolTableRecord
100
AcDbBlockTableRecord
  2
INS-DO3Q4
340
0
102
{BLKREFS
331
1F8
102
}
  0
BLOCK_RECORD
  5
206
330
1
100
AcDbSymbolTableRecord
100
AcDbBlockTableRecord
  2
INS-D62OV
340
0
102
{BLKREFS
331
209
102
}
  0
BLOCK_RECORD
  5
214
330
1
100
AcDbSymbolTableRecord
100
AcDbBlockTableRecord
  2
INS-DBUYV
340
0
102
{BLKREFS
331
217
102
}
  0
BLOCK_RECORD
  5
21E
330
1
100
AcDbSymbolTableRecord
100
AcDbBlockTableRecord
  2
INS-D89KT
340
0
102
{BLKREFS
331
221
102
}
  0
BLOCK_RECORD
  5
22F
330
1
100
AcDbSymbolTableRecord
100
AcDbBlockTableRecord
  2
INS-DPQBC
340
0
102
{BLKREFS
331
232
102
}
  0
BLOCK_RECORD
  5
23D
330
1
100
AcDbSymbolTableRecord
100
AcDbBlockTableRecord
  2
INS-D4SXQ
340
0
102
{BLKREFS
331
240
102
}
  0
BLOCK_RECORD
  5
247
330
1
100
AcDbSymbolTableRecord
100
AcDbBlockTableRecord
  2
INS-DFEUT
340
0
102
{BLKREFS
331
24A
102
}
  0
BLOCK_RECORD
  5
258
330
1
100
AcDbSymbolTableRecord
100
AcDbBlockTableRecord
  2
INS-D727M
340
0
102
{BLKREFS
331
25B
102
}
  0
BLOCK_RECORD
  5
266
330
1
100
AcDbSymbolTableRecord
100
AcDbBlockTableRecord
  2
INS-DBRZD
340
0
102
{BLKREFS
331
269
102
}
  0
BLOCK_RECORD
  5
270
330
1
100
AcDbSymbolTableRecord
100
AcDbBlockTableRecord
  2
INS-DVTBV
340
0
102
{BLKREFS
331
273
102
}
  0
BLOCK_RECORD
  5
281
330
1
100
AcDbSymbolTableRecord
100
AcDbBlockTableRecord
  2
INS-D8LLO
340
0
102
{BLKREFS
331
284
102
}
  0
BLOCK_RECORD
  5
28F
330
1
100
AcDbSymbolTableRecord
100
AcDbBlockTableRecord
  2
INS-D5L65
340
0
102
{BLKREFS
331
292
102
}
  0
BLOCK_RECORD
  5
299
330
1
100
AcDbSymbolTableRecord
100
AcDbBlockTableRecord
  2
INS-D82W5
340
0
102
{BLKREFS
331
29C
102
}
  0
BLOCK_RECORD
  5
2AA
330
1
100
AcDbSymbolTableRecord
100
AcDbBlockTableRecord
  2
INS-D9528
340
0
102
{BLKREFS
331
2AD
102
}
  0
BLOCK_RECORD
  5
2B8
330
1
100
AcDbSymbolTableRecord
100
AcDbBlockTableRecord
  2
INS-D7BGV
340
0
102
{BLKREFS
331
2BB
102
}
  0
BLOCK_RECORD
  5
2C2
330
1
100
AcDbSymbolTableRecord
100
AcDbBlockTableRecord
  2
INS-D9LG9
340
0
102
{BLKREFS
331
2C5
102
}
  0
BLOCK_RECORD
  5
2D3
330
1
100
AcDbSymbolTableRecord
100
AcDbBlockTableRecord
  2
INS-D7Z34
340
0
102
{BLKREFS
331
2D6
102
}
  0
BLOCK_RECORD
  5
2E1
330
1
100
AcDbSymbolTableRecord
100
AcDbBlockTableRecord
  2
INS-D64VN
340
0
102
{BLKREFS
331
2E4
102
}
  0
BLOCK_RECORD
  5
2EB
330
1
100
AcDbSymbolTableRecord
100
AcDbBlockTableRecord
  2
INS-DR0I2
340
0
102
{BLKREFS
331
2EE
102
}
  0
BLOCK_RECORD
  5
2FC
330
1
100
AcDbSymbolTableRecord
100
AcDbBlockTableRecord
  2
INS-D72SW
340
0
102
{BLKREFS
331
2FF
102
}
  0
BLOCK_RECORD
  5
30A
330
1
100
AcDbSymbolTableRecord
100
AcDbBlockTableRecord
  2
INS-DV143
340
0
102
{BLKREFS
331
30D
102
}
  0
BLOCK_RECORD
  5
314
330
1
100
AcDbSymbolTableRecord
100
AcDbBlockTableRecord
  2
INS-D3U9J
340
0
102
{BLKREFS
331
317
102
}
  0
BLOCK_RECORD
  5
325
330
1
100
AcDbSymbolTableRecord
100
AcDbBlockTableRecord
  2
INS-DB9R6
340
0
102
{BLKREFS
331
328
102
}
  0
BLOCK_RECORD
  5
333
330
1
100
AcDbSymbolTableRecord
100
AcDbBlockTableRecord
  2
INS-DD62T
340
0
102
{BLKREFS
331
336
102
}
  0
BLOCK_RECORD
  5
33D
330
1
100
AcDbSymbolTableRecord
100
AcDbBlockTableRecord
  2
INS-D503P
340
0
102
{BLKREFS
331
340
102
}
  0
BLOCK_RECORD
  5
34E
330
1
100
AcDbSymbolTableRecord
100
AcDbBlockTableRecord
  2
INS-D8CIO
340
0
102
{BLKREFS
331
351
102
}
  0
BLOCK_RECORD
  5
35C
330
1
100
AcDbSymbolTableRecord
100
AcDbBlockTableRecord
  2
INS-D96MH
340
0
102
{BLKREFS
331
35F
102
}
  0
BLOCK_RECORD
  5
366
330
1
100
AcDbSymbolTableRecord
100
AcDbBlockTableRecord
  2
INS-DVIVM
340
0
102
{BLKREFS
331
369
102
}
  0
ENDTAB
  0
ENDSEC
  0
SECTION
  2
BLOCKS
  0
BLOCK
  5
20
330
1F
100
AcDbEntity
  8
0
100
AcDbBlockBegin
  2
*Model_Space
 70
     0
 10
0.0
 20
0.0
 30
0.0
  3
*Model_Space
  1

  0
ENDBLK
  5
21
330
1F
100
AcDbEntity
  8
0
100
AcDbBlockEnd
  0
BLOCK
  5
1C
330
1B
100
AcDbEntity
 67
     1
  8
0
100
AcDbBlockBegin
  2
*Paper_Space
 70
     0
 10
0.0
 20
0.0
 30
0.0
  3
*Paper_Space
  1

  0
ENDBLK
  5
1D
330
1B
100
AcDbEntity
 67
     1
  8
0
100
AcDbBlockEnd
  0
BLOCK
  5
CB
330
CA
100
AcDbEntity
  8
0
100
AcDbBlockBegin
  2
INS-D7NPY
 70
     0
 10
0.0
 20
0.0
 30
0.0
  3
INS-D7NPY
  1

  0
TEXT
  5
CE
330
CA
100
AcDbEntity
  8
寸法
  6
Continuous
100
AcDbText
 10
-17.69954883834088
 20
-30.54000000000364
 30
0.0
 40
19.982
  1
φ90
 50
90.0
 41
1.056781492035411
 72
     1
 11
-17.69954883834088
 21
-0.000000000003638
 31
0.0
100
AcDbText
  0
LINE
  5
CF
330
CA
100
AcDbEntity
  8
寸法
  6
Continuous
100
AcDbLine
 10
41.30045116165911
 20
-45.00000000000364
 30
0.0
 11
-7.699548838340888
 21
-45.00000000000364
 31
0.0
  0
LINE
  5
D0
330
CA
100
AcDbEntity
  8
寸法
  6
Continuous
100
AcDbLine
 10
41.30045116165911
 20
44.99999999999636
 30
0.0
 11
-7.699548838340888
 21
44.99999999999636
 31
0.0
  0
LINE
  5
D1
330
CA
100
AcDbEntity
  8
寸法
  6
Continuous
100
AcDbLine
 10
-7.699548838340888
 20
44.99999999999636
 30
0.0
 11
-7.699548838340888
 21
-45.00000000000364
 31
0.0
  0
LWPOLYLINE
  5
D2
330
CA
100
AcDbEntity
  8
寸法
  6
Continuous
100
AcDbPolyline
 90
        3
 70
     0
 43
0.0
 10
-10.28773928936607
 20
35.34074173710542
 10
-7.699548838340888
 20
44.99999999999636
 10
-5.111358387315704
 20
35.34074173710542
  0
LWPOLYLINE
  5
D3
330
CA
100
AcDbEntity
  8
寸法
  6
Continuous
100
AcDbPolyline
 90
        3
 70
     0
 43
0.0
 10
-5.111358387315704
 20
-35.34074173711269
 10
-7.699548838340888
 20
-45.00000000000364
 10
-10.28773928936607
 20
-35.34074173711269
  0
ENDBLK
  5
CC
330
CA
100
AcDbEntity
  8
0
100
AcDbBlockEnd
  0
BLOCK
  5
D9
330
D8
100
AcDbEntity
  8
0
100
AcDbBlockBegin
  2
INS-DFLSF
 70
     0
 10
0.0
 20
0.0
 30
0.0
  3
INS-DFLSF
  1

  0
TEXT
  5
DC
330
D8
100
AcDbEntity
  8
寸法
  6
Continuous
100
AcDbText
 10
-23.57954883834106
 20
19.69999999999709
 30
0.0
 40
19.982
  1
100
 41
1.056781492035411
 72
     1
 11
0.0004511616589298
 21
19.69999999999709
 31
0.0
100
AcDbText
  0
LINE
  5
DD
330
D8
100
AcDbEntity
  8
寸法
  6
Continuous
100
AcDbLine
 10
50.00045116165893
 20
-43.30000000000291
 30
0.0
 11
50.00045116165893
 21
9.69999999999709
 31
0.0
  0
LINE
  5
DE
330
D8
100
AcDbEntity
  8
寸法
  6
Continuous
100
AcDbLine
 10
-49.99954883834107
 20
-34.80000000000291
 30
0.0
 11
-49.99954883834107
 21
9.69999999999709
 31
0.0
  0
LINE
  5
DF
330
D8
100
AcDbEntity
  8
寸法
  6
Continuous
100
AcDbLine
 10
-49.99954883834107
 20
9.69999999999709
 30
0.0
 11
50.00045116165893
 21
9.69999999999709
 31
0.0
  0
LWPOLYLINE
  5
E0
330
D8
100
AcDbEntity
  8
寸法
  6
Continuous
100
AcDbPolyline
 90
        3
 70
     0
 43
0.0
 10
-40.34029057545013
 20
7.111809548972815
 10
-49.99954883834107
 20
9.69999999999709
 10
-40.34029057545013
 20
12.28819045102136
  0
LWPOLYLINE
  5
E1
330
D8
100
AcDbEntity
  8
寸法
  6
Continuous
100
AcDbPolyline
 90
        3
 70
     0
 43
0.0
 10
40.34119289876799
 20
12.28819045102136
 10
50.00045116165893
 20
9.69999999999709
 10
40.34119289876799
 20
7.111809548972815
  0
ENDBLK
  5
DA
330
D8
100
AcDbEntity
  8
0
100
AcDbBlockEnd
  0
BLOCK
  5
E3
330
E2
100
AcDbEntity
  8
0
100
AcDbBlockBegin
  2
INS-DSGM9
 70
     0
 10
0.0
 20
0.0
 30
0.0
  3
INS-DSGM9
  1

  0
TEXT
  5
E6
330
E2
100
AcDbEntity
  8
寸法
  6
Continuous
100
AcDbText
 10
32.70645116165906
 20
-32.28000000000363
 30
0.0
 40
19.982
  1
φ73
 50
90.0
 41
1.056781492035411
 72
     1
 11
32.70645116165906
 21
-0.000000000003638
 31
0.0
100
AcDbText
  0
LINE
  5
E7
330
E2
100
AcDbEntity
  8
寸法
  6
Continuous
100
AcDbLine
 10
-48.29354883834094
 20
-36.50000000000364
 30
0.0
 11
42.70645116165906
 21
-36.50000000000364
 31
0.0
  0
LINE
  5
E8
330
E2
100
AcDbEntity
  8
寸法
  6
Continuous
100
AcDbLine
 10
-48.29354883834094
 20
36.49999999999636
 30
0.0
 11
42.70645116165906
 21
36.49999999999636
 31
0.0
  0
LINE
  5
E9
330
E2
100
AcDbEntity
  8
寸法
  6
Continuous
100
AcDbLine
 10
42.70645116165906
 20
36.49999999999636
 30
0.0
 11
42.70645116165906
 21
-36.50000000000364
 31
0.0
  0
LWPOLYLINE
  5
EA
330
E2
100
AcDbEntity
  8
寸法
  6
Continuous
100
AcDbPolyline
 90
        3
 70
     0
 43
0.0
 10
40.11826071063388
 20
26.84074173710542
 10
42.70645116165906
 20
36.49999999999636
 10
45.29464161268425
 20
26.84074173710542
  0
LWPOLYLINE
  5
EB
330
E2
100
AcDbEntity
  8
寸法
  6
Continuous
100
AcDbPolyline
 90
        3
 70
     0
 43
0.0
 10
45.29464161268425
 20
-26.84074173711269
 10
42.70645116165906
 20
-36.50000000000364
 10
40.11826071063388
 20
-26.84074173711269
  0
ENDBLK
  5
E4
330
E2
100
AcDbEntity
  8
0
100
AcDbBlockEnd
  0
BLOCK
  5
111
330
110
100
AcDbEntity
  8
0
100
AcDbBlockBegin
  2
INS-D3LW6
 70
     0
 10
0.0
 20
0.0
 30
0.0
  3
INS-D3LW6
  1

  0
TEXT
  5
114
330
110
100
AcDbEntity
  8
寸法
  6
Continuous
100
AcDbText
 10
-17.69954883834088
 20
-35.70000000000363
 30
0.0
 40
19.982
  1
φ116
 50
90.0
 41
1.041145908602337
 72
     1
 11
-17.69954883834088
 21
-0.000000000003638
 31
0.0
100
AcDbText
  0
LINE
  5
115
330
110
100
AcDbEntity
  8
寸法
  6
Continuous
100
AcDbLine
 10
41.30045116165911
 20
-58.00000000000364
 30
0.0
 11
-7.699548838340888
 21
-58.00000000000364
 31
0.0
  0
LINE
  5
116
330
110
100
AcDbEntity
  8
寸法
  6
Continuous
100
AcDbLine
 10
41.30045116165911
 20
57.99999999999636
 30
0.0
 11
-7.699548838340888
 21
57.99999999999636
 31
0.0
  0
LINE
  5
117
330
110
100
AcDbEntity
  8
寸法
  6
Continuous
100
AcDbLine
 10
-7.699548838340888
 20
57.99999999999636
 30
0.0
 11
-7.699548838340888
 21
-58.00000000000364
 31
0.0
  0
LWPOLYLINE
  5
118
330
110
100
AcDbEntity
  8
寸法
  6
Continuous
100
AcDbPolyline
 90
        3
 70
     0
 43
0.0
 10
-10.28773928936607
 20
48.34074173710542
 10
-7.699548838340888
 20
57.99999999999636
 10
-5.111358387315704
 20
48.34074173710542
  0
LWPOLYLINE
  5
119
330
110
100
AcDbEntity
  8
寸法
  6
Continuous
100
AcDbPolyline
 90
        3
 70
     0
 43
0.0
 10
-5.111358387315704
 20
-48.34074173711269
 10
-7.699548838340888
 20
-58.00000000000364
 10
-10.28773928936607
 20
-48.34074173711269
  0
ENDBLK
  5
112
330
110
100
AcDbEntity
  8
0
100
AcDbBlockEnd
  0
BLOCK
  5
11F
330
11E
100
AcDbEntity
  8
0
100
AcDbBlockBegin
  2
INS-DA1FE
 70
     0
 10
0.0
 20
0.0
 30
0.0
  3
INS-DA1FE
  1

  0
TEXT
  5
122
330
11E
100
AcDbEntity
  8
寸法
  6
Continuous
100
AcDbText
 10
-23.57954883834106
 20
19.94999999999709
 30
0.0
 40
19.982
  1
100
 41
1.056781492035411
 72
     1
 11
0.0004511616589298
 21
19.94999999999709
 31
0.0
100
AcDbText
  0
LINE
  5
123
330
11E
100
AcDbEntity
  8
寸法
  6
Continuous
100
AcDbLine
 10
50.00045116165893
 20
-43.55000000000291
 30
0.0
 11
50.00045116165893
 21
9.94999999999709
 31
0.0
  0
LINE
  5
124
330
11E
100
AcDbEntity
  8
寸法
  6
Continuous
100
AcDbLine
 10
-49.99954883834107
 20
-34.55000000000291
 30
0.0
 11
-49.99954883834107
 21
9.94999999999709
 31
0.0
  0
LINE
  5
125
330
11E
100
AcDbEntity
  8
寸法
  6
Continuous
100
AcDbLine
 10
-49.99954883834107
 20
9.94999999999709
 30
0.0
 11
50.00045116165893
 21
9.94999999999709
 31
0.0
  0
LWPOLYLINE
  5
126
330
11E
100
AcDbEntity
  8
寸法
  6
Continuous
100
AcDbPolyline
 90
        3
 70
     0
 43
0.0
 10
-40.34029057545013
 20
7.361809548972815
 10
-49.99954883834107
 20
9.94999999999709
 10
-40.34029057545013
 20
12.53819045102136
  0
LWPOLYLINE
  5
127
330
11E
100
AcDbEntity
  8
寸法
  6
Continuous
100
AcDbPolyline
 90
        3
 70
     0
 43
0.0
 10
40.34119289876799
 20
12.53819045102136
 10
50.00045116165893
 20
9.94999999999709
 10
40.34119289876799
 20
7.361809548972815
  0
ENDBLK
  5
120
330
11E
100
AcDbEntity
  8
0
100
AcDbBlockEnd
  0
BLOCK
  5
129
330
128
100
AcDbEntity
  8
0
100
AcDbBlockBegin
  2
INS-D7MR0
 70
     0
 10
0.0
 20
0.0
 30
0.0
  3
INS-D7MR0
  1

  0
TEXT
  5
12C
330
128
100
AcDbEntity
  8
寸法
  6
Continuous
100
AcDbText
 10
32.70645116165906
 20
-32.28000000000363
 30
0.0
 40
19.982
  1
φ98
 50
90.0
 41
1.056781492035411
 72
     1
 11
32.70645116165906
 21
-0.000000000003638
 31
0.0
100
AcDbText
  0
LINE
  5
12D
330
128
100
AcDbEntity
  8
寸法
  6
Continuous
100
AcDbLine
 10
-48.29354883834094
 20
-49.00000000000364
 30
0.0
 11
42.70645116165906
 21
-49.00000000000364
 31
0.0
  0
LINE
  5
12E
330
128
100
AcDbEntity
  8
寸法
  6
Continuous
100
AcDbLine
 10
-48.29354883834094
 20
48.99999999999636
 30
0.0
 11
42.70645116165906
 21
48.99999999999636
 31
0.0
  0
LINE
  5
12F
330
128
100
AcDbEntity
  8
寸法
  6
Continuous
100
AcDbLine
 10
42.70645116165906
 20
48.99999999999636
 30
0.0
 11
42.70645116165906
 21
-49.00000000000364
 31
0.0
  0
LWPOLYLINE
  5
130
330
128
100
AcDbEntity
  8
寸法
  6
Continuous
100
AcDbPolyline
 90
        3
 70
     0
 43
0.0
 10
40.11826071063388
 20
39.34074173710542
 10
42.70645116165906
 20
48.99999999999636
 10
45.29464161268425
 20
39.34074173710542
  0
LWPOLYLINE
  5
131
330
128
100
AcDbEntity
  8
寸法
  6
Continuous
100
AcDbPolyline
 90
        3
 70
     0
 43
0.0
 10
45.29464161268425
 20
-39.34074173711269
 10
42.70645116165906
 20
-49.00000000000364
 10
40.11826071063388
 20
-39.34074173711269
  0
ENDBLK
  5
12A
330
128
100
AcDbEntity
  8
0
100
AcDbBlockEnd
  0
BLOCK
  5
13A
330
139
100
AcDbEntity
  8
0
100
AcDbBlockBegin
  2
INS-D78OA
 70
     0
 10
0.0
 20
0.0
 30
0.0
  3
INS-D78OA
  1

  0
TEXT
  5
13D
330
139
100
AcDbEntity
  8
寸法
  6
Continuous
100
AcDbText
 10
-17.69954883834088
 20
-35.70000000000363
 30
0.0
 40
19.982
  1
φ141
 50
90.0
 41
1.041145908602337
 72
     1
 11
-17.69954883834088
 21
-0.000000000003638
 31
0.0
100
AcDbText
  0
LINE
  5
13E
330
139
100
AcDbEntity
  8
寸法
  6
Continuous
100
AcDbLine
 10
41.30045116165911
 20
-70.50000000000364
 30
0.0
 11
-7.699548838340888
 21
-70.50000000000364
 31
0.0
  0
LINE
  5
13F
330
139
100
AcDbEntity
  8
寸法
  6
Continuous
100
AcDbLine
 10
41.30045116165911
 20
70.49999999999636
 30
0.0
 11
-7.699548838340888
 21
70.49999999999636
 31
0.0
  0
LINE
  5
140
330
139
100
AcDbEntity
  8
寸法
  6
Continuous
100
AcDbLine
 10
-7.699548838340888
 20
70.49999999999636
 30
0.0
 11
-7.699548838340888
 21
-70.50000000000364
 31
0.0
  0
LWPOLYLINE
  5
141
330
139
100
AcDbEntity
  8
寸法
  6
Continuous
100
AcDbPolyline
 90
        3
 70
     0
 43
0.0
 10
-10.28773928936607
 20
60.84074173710542
 10
-7.699548838340888
 20
70.49999999999636
 10
-5.111358387315704
 20
60.84074173710542
  0
LWPOLYLINE
  5
142
330
139
100
AcDbEntity
  8
寸法
  6
Continuous
100
AcDbPolyline
 90
        3
 70
     0
 43
0.0
 10
-5.111358387315704
 20
-60.84074173711269
 10
-7.699548838340888
 20
-70.50000000000364
 10
-10.28773928936607
 20
-60.84074173711269
  0
ENDBLK
  5
13B
330
139
100
AcDbEntity
  8
0
100
AcDbBlockEnd
  0
BLOCK
  5
148
330
147
100
AcDbEntity
  8
0
100
AcDbBlockBegin
  2
INS-DNDMR
 70
     0
 10
0.0
 20
0.0
 30
0.0
  3
INS-DNDMR
  1

  0
TEXT
  5
14B
330
147
100
AcDbEntity
  8
寸法
  6
Continuous
100
AcDbText
 10
-23.57954883834106
 20
19.94999999999709
 30
0.0
 40
19.982
  1
100
 41
1.056781492035411
 72
     1
 11
0.0004511616589298
 21
19.94999999999709
 31
0.0
100
AcDbText
  0
LINE
  5
14C
330
147
100
AcDbEntity
  8
寸法
  6
Continuous
100
AcDbLine
 10
50.00045116165893
 20
-43.55000000000291
 30
0.0
 11
50.00045116165893
 21
9.94999999999709
 31
0.0
  0
LINE
  5
14D
330
147
100
AcDbEntity
  8
寸法
  6
Continuous
100
AcDbLine
 10
-49.99954883834107
 20
-34.55000000000291
 30
0.0
 11
-49.99954883834107
 21
9.94999999999709
 31
0.0
  0
LINE
  5
14E
330
147
100
AcDbEntity
  8
寸法
  6
Continuous
100
AcDbLine
 10
-49.99954883834107
 20
9.94999999999709
 30
0.0
 11
50.00045116165893
 21
9.94999999999709
 31
0.0
  0
LWPOLYLINE
  5
14F
330
147
100
AcDbEntity
  8
寸法
  6
Continuous
100
AcDbPolyline
 90
        3
 70
     0
 43
0.0
 10
-40.34029057545013
 20
7.361809548972815
 10
-49.99954883834107
 20
9.94999999999709
 10
-40.34029057545013
 20
12.53819045102136
  0
LWPOLYLINE
  5
150
330
147
100
AcDbEntity
  8
寸法
  6
Continuous
100
AcDbPolyline
 90
        3
 70
     0
 43
0.0
 10
40.34119289876799
 20
12.53819045102136
 10
50.00045116165893
 20
9.94999999999709
 10
40.34119289876799
 20
7.361809548972815
  0
ENDBLK
  5
149
330
147
100
AcDbEntity
  8
0
100
AcDbBlockEnd
  0
BLOCK
  5
152
330
151
100
AcDbEntity
  8
0
100
AcDbBlockBegin
  2
INS-DSGG4
 70
     0
 10
0.0
 20
0.0
 30
0.0
  3
INS-DSGG4
  1

  0
TEXT
  5
155
330
151
100
AcDbEntity
  8
寸法
  6
Continuous
100
AcDbText
 10
32.70645116165906
 20
-39.06000000000363
 30
0.0
 40
19.982
  1
φ123
 50
90.0
 41
1.041145908602337
 72
     1
 11
32.70645116165906
 21
-0.000000000003638
 31
0.0
100
AcDbText
  0
LINE
  5
156
330
151
100
AcDbEntity
  8
寸法
  6
Continuous
100
AcDbLine
 10
-48.29354883834094
 20
-61.50000000000364
 30
0.0
 11
42.70645116165906
 21
-61.50000000000364
 31
0.0
  0
LINE
  5
157
330
151
100
AcDbEntity
  8
寸法
  6
Continuous
100
AcDbLine
 10
-48.29354883834094
 20
61.49999999999636
 30
0.0
 11
42.70645116165906
 21
61.49999999999636
 31
0.0
  0
LINE
  5
158
330
151
100
AcDbEntity
  8
寸法
  6
Continuous
100
AcDbLine
 10
42.70645116165906
 20
61.49999999999636
 30
0.0
 11
42.70645116165906
 21
-61.50000000000364
 31
0.0
  0
LWPOLYLINE
  5
159
330
151
100
AcDbEntity
  8
寸法
  6
Continuous
100
AcDbPolyline
 90
        3
 70
     0
 43
0.0
 10
40.11826071063388
 20
51.84074173710542
 10
42.70645116165906
 20
61.49999999999636
 10
45.29464161268425
 20
51.84074173710542
  0
LWPOLYLINE
  5
15A
330
151
100
AcDbEntity
  8
寸法
  6
Continuous
100
AcDbPolyline
 90
        3
 70
     0
 43
0.0
 10
45.29464161268425
 20
-51.84074173711269
 10
42.70645116165906
 20
-61.50000000000364
 10
40.11826071063388
 20
-51.84074173711269
  0
ENDBLK
  5
153
330
151
100
AcDbEntity
  8
0
100
AcDbBlockEnd
  0
BLOCK
  5
163
330
162
100
AcDbEntity
  8
0
100
AcDbBlockBegin
  2
INS-D4KXW
 70
     0
 10
0.0
 20
0.0
 30
0.0
  3
INS-D4KXW
  1

  0
TEXT
  5
166
330
162
100
AcDbEntity
  8
寸法
  6
Continuous
100
AcDbText
 10
-17.69954883834088
 20
-39.06000000000363
 30
0.0
 40
19.982
  1
φ166
 50
90.0
 41
1.041145908602337
 72
     1
 11
-17.69954883834088
 21
-0.000000000003638
 31
0.0
100
AcDbText
  0
LINE
  5
167
330
162
100
AcDbEntity
  8
寸法
  6
Continuous
100
AcDbLine
 10
41.30045116165911
 20
-83.00000000000364
 30
0.0
 11
-7.699548838340888
 21
-83.00000000000364
 31
0.0
  0
LINE
  5
168
330
162
100
AcDbEntity
  8
寸法
  6
Continuous
100
AcDbLine
 10
41.30045116165911
 20
82.99999999999636
 30
0.0
 11
-7.699548838340888
 21
82.99999999999636
 31
0.0
  0
LINE
  5
169
330
162
100
AcDbEntity
  8
寸法
  6
Continuous
100
AcDbLine
 10
-7.699548838340888
 20
82.99999999999636
 30
0.0
 11
-7.699548838340888
 21
-83.00000000000364
 31
0.0
  0
LWPOLYLINE
  5
16A
330
162
100
AcDbEntity
  8
寸法
  6
Continuous
100
AcDbPolyline
 90
        3
 70
     0
 43
0.0
 10
-10.28773928936607
 20
73.34074173710542
 10
-7.699548838340888
 20
82.99999999999636
 10
-5.111358387315704
 20
73.34074173710542
  0
LWPOLYLINE
  5
16B
330
162
100
AcDbEntity
  8
寸法
  6
Continuous
100
AcDbPolyline
 90
        3
 70
     0
 43
0.0
 10
-5.111358387315704
 20
-73.3407417371127
 10
-7.699548838340888
 20
-83.00000000000364
 10
-10.28773928936607
 20
-73.3407417371127
  0
ENDBLK
  5
164
330
162
100
AcDbEntity
  8
0
100
AcDbBlockEnd
  0
BLOCK
  5
171
330
170
100
AcDbEntity
  8
0
100
AcDbBlockBegin
  2
INS-D63SX
 70
     0
 10
0.0
 20
0.0
 30
0.0
  3
INS-D63SX
  1

  0
TEXT
  5
174
330
170
100
AcDbEntity
  8
寸法
  6
Continuous
100
AcDbText
 10
-23.57954883834106
 20
19.94999999999709
 30
0.0
 40
19.982
  1
100
 41
1.056781492035411
 72
     1
 11
0.0004511616589298
 21
19.94999999999709
 31
0.0
100
AcDbText
  0
LINE
  5
175
330
170
100
AcDbEntity
  8
寸法
  6
Continuous
100
AcDbLine
 10
50.00045116165893
 20
-43.55000000000291
 30
0.0
 11
50.00045116165893
 21
9.94999999999709
 31
0.0
  0
LINE
  5
176
330
170
100
AcDbEntity
  8
寸法
  6
Continuous
100
AcDbLine
 10
-49.99954883834107
 20
-34.55000000000291
 30
0.0
 11
-49.99954883834107
 21
9.94999999999709
 31
0.0
  0
LINE
  5
177
330
170
100
AcDbEntity
  8
寸法
  6
Continuous
100
AcDbLine
 10
-49.99954883834107
 20
9.94999999999709
 30
0.0
 11
50.00045116165893
 21
9.94999999999709
 31
0.0
  0
LWPOLYLINE
  5
178
330
170
100
AcDbEntity
  8
寸法
  6
Continuous
100
AcDbPolyline
 90
        3
 70
     0
 43
0.0
 10
-40.34029057545013
 20
7.361809548972815
 10
-49.99954883834107
 20
9.94999999999709
 10
-40.34029057545013
 20
12.53819045102136
  0
LWPOLYLINE
  5
179
330
170
100
AcDbEntity
  8
寸法
  6
Continuous
100
AcDbPolyline
 90
        3
 70
     0
 43
0.0
 10
40.34119289876799
 20
12.53819045102136
 10
50.00045116165893
 20
9.94999999999709
 10
40.34119289876799
 20
7.361809548972815
  0
ENDBLK
  5
172
330
170
100
AcDbEntity
  8
0
100
AcDbBlockEnd
  0
BLOCK
  5
17B
330
17A
100
AcDbEntity
  8
0
100
AcDbBlockBegin
  2
INS-D4XS7
 70
     0
 10
0.0
 20
0.0
 30
0.0
  3
INS-D4XS7
  1

  0
TEXT
  5
17E
330
17A
100
AcDbEntity
  8
寸法
  6
Continuous
100
AcDbText
 10
32.70645116165906
 20
-39.06000000000363
 30
0.0
 40
19.982
  1
φ148
 50
90.0
 41
1.041145908602337
 72
     1
 11
32.70645116165906
 21
-0.000000000003638
 31
0.0
100
AcDbText
  0
LINE
  5
17F
330
17A
100
AcDbEntity
  8
寸法
  6
Continuous
100
AcDbLine
 10
-48.29354883834094
 20
-74.00000000000364
 30
0.0
 11
42.70645116165906
 21
-74.00000000000364
 31
0.0
  0
LINE
  5
180
330
17A
100
AcDbEntity
  8
寸法
  6
Continuous
100
AcDbLine
 10
-48.29354883834094
 20
73.99999999999636
 30
0.0
 11
42.70645116165906
 21
73.99999999999636
 31
0.0
  0
LINE
  5
181
330
17A
100
AcDbEntity
  8
寸法
  6
Continuous
100
AcDbLine
 10
42.70645116165906
 20
73.99999999999636
 30
0.0
 11
42.70645116165906
 21
-74.00000000000364
 31
0.0
  0
LWPOLYLINE
  5
182
330
17A
100
AcDbEntity
  8
寸法
  6
Continuous
100
AcDbPolyline
 90
        3
 70
     0
 43
0.0
 10
40.11826071063388
 20
64.34074173710542
 10
42.70645116165906
 20
73.99999999999636
 10
45.29464161268425
 20
64.34074173710542
  0
LWPOLYLINE
  5
183
330
17A
100
AcDbEntity
  8
寸法
  6
Continuous
100
AcDbPolyline
 90
        3
 70
     0
 43
0.0
 10
45.29464161268425
 20
-64.3407417371127
 10
42.70645116165906
 20
-74.00000000000364
 10
40.11826071063388
 20
-64.3407417371127
  0
ENDBLK
  5
17C
330
17A
100
AcDbEntity
  8
0
100
AcDbBlockEnd
  0
BLOCK
  5
18C
330
18B
100
AcDbEntity
  8
0
100
AcDbBlockBegin
  2
INS-D75LM
 70
     0
 10
0.0
 20
0.0
 30
0.0
  3
INS-D75LM
  1

  0
TEXT
  5
18F
330
18B
100
AcDbEntity
  8
寸法
  6
Continuous
100
AcDbText
 10
-17.69954883834088
 20
-35.70000000000363
 30
0.0
 40
19.982
  1
φ191
 50
90.0
 41
1.041145908602337
 72
     1
 11
-17.69954883834088
 21
-0.000000000003638
 31
0.0
100
AcDbText
  0
LINE
  5
190
330
18B
100
AcDbEntity
  8
寸法
  6
Continuous
100
AcDbLine
 10
41.30045116165911
 20
-95.50000000000364
 30
0.0
 11
-7.699548838340888
 21
-95.50000000000364
 31
0.0
  0
LINE
  5
191
330
18B
100
AcDbEntity
  8
寸法
  6
Continuous
100
AcDbLine
 10
41.30045116165911
 20
95.49999999999636
 30
0.0
 11
-7.699548838340888
 21
95.49999999999636
 31
0.0
  0
LINE
  5
192
330
18B
100
AcDbEntity
  8
寸法
  6
Continuous
100
AcDbLine
 10
-7.699548838340888
 20
95.49999999999636
 30
0.0
 11
-7.699548838340888
 21
-95.50000000000364
 31
0.0
  0
LWPOLYLINE
  5
193
330
18B
100
AcDbEntity
  8
寸法
  6
Continuous
100
AcDbPolyline
 90
        3
 70
     0
 43
0.0
 10
-10.28773928936607
 20
85.84074173710542
 10
-7.699548838340888
 20
95.49999999999636
 10
-5.111358387315704
 20
85.84074173710542
  0
LWPOLYLINE
  5
194
330
18B
100
AcDbEntity
  8
寸法
  6
Continuous
100
AcDbPolyline
 90
        3
 70
     0
 43
0.0
 10
-5.111358387315704
 20
-85.8407417371127
 10
-7.699548838340888
 20
-95.50000000000364
 10
-10.28773928936607
 20
-85.8407417371127
  0
ENDBLK
  5
18D
330
18B
100
AcDbEntity
  8
0
100
AcDbBlockEnd
  0
BLOCK
  5
19A
330
199
100
AcDbEntity
  8
0
100
AcDbBlockBegin
  2
INS-DJQ7F
 70
     0
 10
0.0
 20
0.0
 30
0.0
  3
INS-DJQ7F
  1

  0
TEXT
  5
19D
330
199
100
AcDbEntity
  8
寸法
  6
Continuous
100
AcDbText
 10
-23.57954883834106
 20
19.94999999999709
 30
0.0
 40
19.982
  1
100
 41
1.056781492035411
 72
     1
 11
0.0004511616589298
 21
19.94999999999709
 31
0.0
100
AcDbText
  0
LINE
  5
19E
330
199
100
AcDbEntity
  8
寸法
  6
Continuous
100
AcDbLine
 10
50.00045116165893
 20
-43.55000000000291
 30
0.0
 11
50.00045116165893
 21
9.94999999999709
 31
0.0
  0
LINE
  5
19F
330
199
100
AcDbEntity
  8
寸法
  6
Continuous
100
AcDbLine
 10
-49.99954883834107
 20
-34.55000000000291
 30
0.0
 11
-49.99954883834107
 21
9.94999999999709
 31
0.0
  0
LINE
  5
1A0
330
199
100
AcDbEntity
  8
寸法
  6
Continuous
100
AcDbLine
 10
-49.99954883834107
 20
9.94999999999709
 30
0.0
 11
50.00045116165893
 21
9.94999999999709
 31
0.0
  0
LWPOLYLINE
  5
1A1
330
199
100
AcDbEntity
  8
寸法
  6
Continuous
100
AcDbPolyline
 90
        3
 70
     0
 43
0.0
 10
-40.34029057545013
 20
7.361809548972815
 10
-49.99954883834107
 20
9.94999999999709
 10
-40.34029057545013
 20
12.53819045102136
  0
LWPOLYLINE
  5
1A2
330
199
100
AcDbEntity
  8
寸法
  6
Continuous
100
AcDbPolyline
 90
        3
 70
     0
 43
0.0
 10
40.34119289876799
 20
12.53819045102136
 10
50.00045116165893
 20
9.94999999999709
 10
40.34119289876799
 20
7.361809548972815
  0
ENDBLK
  5
19B
330
199
100
AcDbEntity
  8
0
100
AcDbBlockEnd
  0
BLOCK
  5
1A4
330
1A3
100
AcDbEntity
  8
0
100
AcDbBlockBegin
  2
INS-DILS8
 70
     0
 10
0.0
 20
0.0
 30
0.0
  3
INS-DILS8
  1

  0
TEXT
  5
1A7
330
1A3
100
AcDbEntity
  8
寸法
  6
Continuous
100
AcDbText
 10
32.70645116165906
 20
-39.06000000000363
 30
0.0
 40
19.982
  1
φ173
 50
90.0
 41
1.041145908602337
 72
     1
 11
32.70645116165906
 21
-0.000000000003638
 31
0.0
100
AcDbText
  0
LINE
  5
1A8
330
1A3
100
AcDbEntity
  8
寸法
  6
Continuous
100
AcDbLine
 10
-48.29354883834094
 20
-86.50000000000364
 30
0.0
 11
42.70645116165906
 21
-86.50000000000364
 31
0.0
  0
LINE
  5
1A9
330
1A3
100
AcDbEntity
  8
寸法
  6
Continuous
100
AcDbLine
 10
-48.29354883834094
 20
86.49999999999636
 30
0.0
 11
42.70645116165906
 21
86.49999999999636
 31
0.0
  0
LINE
  5
1AA
330
1A3
100
AcDbEntity
  8
寸法
  6
Continuous
100
AcDbLine
 10
42.70645116165906
 20
86.49999999999636
 30
0.0
 11
42.70645116165906
 21
-86.50000000000364
 31
0.0
  0
LWPOLYLINE
  5
1AB
330
1A3
100
AcDbEntity
  8
寸法
  6
Continuous
100
AcDbPolyline
 90
        3
 70
     0
 43
0.0
 10
40.11826071063388
 20
76.84074173710542
 10
42.70645116165906
 20
86.49999999999636
 10
45.29464161268425
 20
76.84074173710542
  0
LWPOLYLINE
  5
1AC
330
1A3
100
AcDbEntity
  8
寸法
  6
Continuous
100
AcDbPolyline
 90
        3
 70
     0
 43
0.0
 10
45.29464161268425
 20
-76.8407417371127
 10
42.70645116165906
 20
-86.50000000000364
 10
40.11826071063388
 20
-76.8407417371127
  0
ENDBLK
  5
1A5
330
1A3
100
AcDbEntity
  8
0
100
AcDbBlockEnd
  0
BLOCK
  5
1B5
330
1B4
100
AcDbEntity
  8
0
100
AcDbBlockBegin
  2
INS-DKRN1
 70
     0
 10
0.0
 20
0.0
 30
0.0
  3
INS-DKRN1
  1

  0
TEXT
  5
1B8
330
1B4
100
AcDbEntity
  8
寸法
  6
Continuous
100
AcDbText
 10
-17.69954883834088
 20
-39.06000000000363
 30
0.0
 40
19.982
  1
φ216
 50
90.0
 41
1.041145908602337
 72
     1
 11
-17.69954883834088
 21
-0.000000000003638
 31
0.0
100
AcDbText
  0
LINE
  5
1B9
330
1B4
100
AcDbEntity
  8
寸法
  6
Continuous
100
AcDbLine
 10
41.30045116165911
 20
-108.0000000000036
 30
0.0
 11
-7.699548838340888
 21
-108.0000000000036
 31
0.0
  0
LINE
  5
1BA
330
1B4
100
AcDbEntity
  8
寸法
  6
Continuous
100
AcDbLine
 10
41.30045116165911
 20
107.9999999999964
 30
0.0
 11
-7.699548838340888
 21
107.9999999999964
 31
0.0
  0
LINE
  5
1BB
330
1B4
100
AcDbEntity
  8
寸法
  6
Continuous
100
AcDbLine
 10
-7.699548838340888
 20
107.9999999999964
 30
0.0
 11
-7.699548838340888
 21
-108.0000000000036
 31
0.0
  0
LWPOLYLINE
  5
1BC
330
1B4
100
AcDbEntity
  8
寸法
  6
Continuous
100
AcDbPolyline
 90
        3
 70
     0
 43
0.0
 10
-10.28773928936607
 20
98.34074173710542
 10
-7.699548838340888
 20
107.9999999999964
 10
-5.111358387315704
 20
98.34074173710542
  0
LWPOLYLINE
  5
1BD
330
1B4
100
AcDbEntity
  8
寸法
  6
Continuous
100
AcDbPolyline
 90
        3
 70
     0
 43
0.0
 10
-5.111358387315704
 20
-98.3407417371127
 10
-7.699548838340888
 20
-108.0000000000036
 10
-10.28773928936607
 20
-98.3407417371127
  0
ENDBLK
  5
1B6
330
1B4
100
AcDbEntity
  8
0
100
AcDbBlockEnd
  0
BLOCK
  5
1C3
330
1C2
100
AcDbEntity
  8
0
100
AcDbBlockBegin
  2
INS-D5OH1
 70
     0
 10
0.0
 20
0.0
 30
0.0
  3
INS-D5OH1
  1

  0
TEXT
  5
1C6
330
1C2
100
AcDbEntity
  8
寸法
  6
Continuous
100
AcDbText
 10
-23.57954883834106
 20
19.94999999999709
 30
0.0
 40
19.982
  1
100
 41
1.056781492035411
 72
     1
 11
0.0004511616589298
 21
19.94999999999709
 31
0.0
100
AcDbText
  0
LINE
  5
1C7
330
1C2
100
AcDbEntity
  8
寸法
  6
Continuous
100
AcDbLine
 10
50.00045116165893
 20
-43.55000000000291
 30
0.0
 11
50.00045116165893
 21
9.94999999999709
 31
0.0
  0
LINE
  5
1C8
330
1C2
100
AcDbEntity
  8
寸法
  6
Continuous
100
AcDbLine
 10
-49.99954883834107
 20
-34.55000000000291
 30
0.0
 11
-49.99954883834107
 21
9.94999999999709
 31
0.0
  0
LINE
  5
1C9
330
1C2
100
AcDbEntity
  8
寸法
  6
Continuous
100
AcDbLine
 10
-49.99954883834107
 20
9.94999999999709
 30
0.0
 11
50.00045116165893
 21
9.94999999999709
 31
0.0
  0
LWPOLYLINE
  5
1CA
330
1C2
100
AcDbEntity
  8
寸法
  6
Continuous
100
AcDbPolyline
 90
        3
 70
     0
 43
0.0
 10
-40.34029057545013
 20
7.361809548972815
 10
-49.99954883834107
 20
9.94999999999709
 10
-40.34029057545013
 20
12.53819045102136
  0
LWPOLYLINE
  5
1CB
330
1C2
100
AcDbEntity
  8
寸法
  6
Continuous
100
AcDbPolyline
 90
        3
 70
     0
 43
0.0
 10
40.34119289876799
 20
12.53819045102136
 10
50.00045116165893
 20
9.94999999999709
 10
40.34119289876799
 20
7.361809548972815
  0
ENDBLK
  5
1C4
330
1C2
100
AcDbEntity
  8
0
100
AcDbBlockEnd
  0
BLOCK
  5
1CD
330
1CC
100
AcDbEntity
  8
0
100
AcDbBlockBegin
  2
INS-D78BR
 70
     0
 10
0.0
 20
0.0
 30
0.0
  3
INS-D78BR
  1

  0
TEXT
  5
1D0
330
1CC
100
AcDbEntity
  8
寸法
  6
Continuous
100
AcDbText
 10
32.70645116165906
 20
-39.06000000000363
 30
0.0
 40
19.982
  1
φ198
 50
90.0
 41
1.041145908602337
 72
     1
 11
32.70645116165906
 21
-0.000000000003638
 31
0.0
100
AcDbText
  0
LINE
  5
1D1
330
1CC
100
AcDbEntity
  8
寸法
  6
Continuous
100
AcDbLine
 10
-48.29354883834094
 20
-99.00000000000364
 30
0.0
 11
42.70645116165906
 21
-99.00000000000364
 31
0.0
  0
LINE
  5
1D2
330
1CC
100
AcDbEntity
  8
寸法
  6
Continuous
100
AcDbLine
 10
-48.29354883834094
 20
98.99999999999636
 30
0.0
 11
42.70645116165906
 21
98.99999999999636
 31
0.0
  0
LINE
  5
1D3
330
1CC
100
AcDbEntity
  8
寸法
  6
Continuous
100
AcDbLine
 10
42.70645116165906
 20
98.99999999999636
 30
0.0
 11
42.70645116165906
 21
-99.00000000000364
 31
0.0
  0
LWPOLYLINE
  5
1D4
330
1CC
100
AcDbEntity
  8
寸法
  6
Continuous
100
AcDbPolyline
 90
        3
 70
     0
 43
0.0
 10
40.11826071063388
 20
89.34074173710542
 10
42.70645116165906
 20
98.99999999999636
 10
45.29464161268425
 20
89.34074173710542
  0
LWPOLYLINE
  5
1D5
330
1CC
100
AcDbEntity
  8
寸法
  6
Continuous
100
AcDbPolyline
 90
        3
 70
     0
 43
0.0
 10
45.29464161268425
 20
-89.3407417371127
 10
42.70645116165906
 20
-99.00000000000364
 10
40.11826071063388
 20
-89.3407417371127
  0
ENDBLK
  5
1CE
330
1CC
100
AcDbEntity
  8
0
100
AcDbBlockEnd
  0
BLOCK
  5
1DE
330
1DD
100
AcDbEntity
  8
0
100
AcDbBlockBegin
  2
INS-D7B96
 70
     0
 10
0.0
 20
0.0
 30
0.0
  3
INS-D7B96
  1

  0
TEXT
  5
1E1
330
1DD
100
AcDbEntity
  8
寸法
  6
Continuous
100
AcDbText
 10
-17.69954883834088
 20
-39.06000000000363
 30
0.0
 40
19.982
  1
φ241
 50
90.0
 41
1.041145908602337
 72
     1
 11
-17.69954883834088
 21
-0.000000000003638
 31
0.0
100
AcDbText
  0
LINE
  5
1E2
330
1DD
100
AcDbEntity
  8
寸法
  6
Continuous
100
AcDbLine
 10
41.30045116165911
 20
-120.5000000000036
 30
0.0
 11
-7.699548838340888
 21
-120.5000000000036
 31
0.0
  0
LINE
  5
1E3
330
1DD
100
AcDbEntity
  8
寸法
  6
Continuous
100
AcDbLine
 10
41.30045116165911
 20
120.4999999999964
 30
0.0
 11
-7.699548838340888
 21
120.4999999999964
 31
0.0
  0
LINE
  5
1E4
330
1DD
100
AcDbEntity
  8
寸法
  6
Continuous
100
AcDbLine
 10
-7.699548838340888
 20
120.4999999999964
 30
0.0
 11
-7.699548838340888
 21
-120.5000000000036
 31
0.0
  0
LWPOLYLINE
  5
1E5
330
1DD
100
AcDbEntity
  8
寸法
  6
Continuous
100
AcDbPolyline
 90
        3
 70
     0
 43
0.0
 10
-10.28773928936607
 20
110.8407417371054
 10
-7.699548838340888
 20
120.4999999999964
 10
-5.111358387315704
 20
110.8407417371054
  0
LWPOLYLINE
  5
1E6
330
1DD
100
AcDbEntity
  8
寸法
  6
Continuous
100
AcDbPolyline
 90
        3
 70
     0
 43
0.0
 10
-5.111358387315704
 20
-110.8407417371127
 10
-7.699548838340888
 20
-120.5000000000036
 10
-10.28773928936607
 20
-110.8407417371127
  0
ENDBLK
  5
1DF
330
1DD
100
AcDbEntity
  8
0
100
AcDbBlockEnd
  0
BLOCK
  5
1EC
330
1EB
100
AcDbEntity
  8
0
100
AcDbBlockBegin
  2
INS-D6E5D
 70
     0
 10
0.0
 20
0.0
 30
0.0
  3
INS-D6E5D
  1

  0
TEXT
  5
1EF
330
1EB
100
AcDbEntity
  8
寸法
  6
Continuous
100
AcDbText
 10
-23.57954883834106
 20
19.94999999999709
 30
0.0
 40
19.982
  1
100
 41
1.056781492035411
 72
     1
 11
0.0004511616589298
 21
19.94999999999709
 31
0.0
100
AcDbText
  0
LINE
  5
1F0
330
1EB
100
AcDbEntity
  8
寸法
  6
Continuous
100
AcDbLine
 10
50.00045116165893
 20
-43.55000000000291
 30
0.0
 11
50.00045116165893
 21
9.94999999999709
 31
0.0
  0
LINE
  5
1F1
330
1EB
100
AcDbEntity
  8
寸法
  6
Continuous
100
AcDbLine
 10
-49.99954883834107
 20
-34.55000000000291
 30
0.0
 11
-49.99954883834107
 21
9.94999999999709
 31
0.0
  0
LINE
  5
1F2
330
1EB
100
AcDbEntity
  8
寸法
  6
Continuous
100
AcDbLine
 10
-49.99954883834107
 20
9.94999999999709
 30
0.0
 11
50.00045116165893
 21
9.94999999999709
 31
0.0
  0
LWPOLYLINE
  5
1F3
330
1EB
100
AcDbEntity
  8
寸法
  6
Continuous
100
AcDbPolyline
 90
        3
 70
     0
 43
0.0
 10
-40.34029057545013
 20
7.361809548972815
 10
-49.99954883834107
 20
9.94999999999709
 10
-40.34029057545013
 20
12.53819045102136
  0
LWPOLYLINE
  5
1F4
330
1EB
100
AcDbEntity
  8
寸法
  6
Continuous
100
AcDbPolyline
 90
        3
 70
     0
 43
0.0
 10
40.34119289876799
 20
12.53819045102136
 10
50.00045116165893
 20
9.94999999999709
 10
40.34119289876799
 20
7.361809548972815
  0
ENDBLK
  5
1ED
330
1EB
100
AcDbEntity
  8
0
100
AcDbBlockEnd
  0
BLOCK
  5
1F6
330
1F5
100
AcDbEntity
  8
0
100
AcDbBlockBegin
  2
INS-DO3Q4
 70
     0
 10
0.0
 20
0.0
 30
0.0
  3
INS-DO3Q4
  1

  0
TEXT
  5
1F9
330
1F5
100
AcDbEntity
  8
寸法
  6
Continuous
100
AcDbText
 10
32.70645116165906
 20
-42.42000000000365
 30
0.0
 40
19.982
  1
φ223
 50
90.0
 41
1.041145908602337
 72
     1
 11
32.70645116165906
 21
-0.0000000000036522
 31
0.0
100
AcDbText
  0
LINE
  5
1FA
330
1F5
100
AcDbEntity
  8
寸法
  6
Continuous
100
AcDbLine
 10
-48.29354883834094
 20
-111.5000000000036
 30
0.0
 11
42.70645116165906
 21
-111.5000000000036
 31
0.0
  0
LINE
  5
1FB
330
1F5
100
AcDbEntity
  8
寸法
  6
Continuous
100
AcDbLine
 10
-48.29354883834094
 20
111.4999999999964
 30
0.0
 11
42.70645116165906
 21
111.4999999999964
 31
0.0
  0
LINE
  5
1FC
330
1F5
100
AcDbEntity
  8
寸法
  6
Continuous
100
AcDbLine
 10
42.70645116165906
 20
111.4999999999964
 30
0.0
 11
42.70645116165906
 21
-111.5000000000036
 31
0.0
  0
LWPOLYLINE
  5
1FD
330
1F5
100
AcDbEntity
  8
寸法
  6
Continuous
100
AcDbPolyline
 90
        3
 70
     0
 43
0.0
 10
40.11826071063388
 20
101.8407417371054
 10
42.70645116165906
 20
111.4999999999964
 10
45.29464161268425
 20
101.8407417371054
  0
LWPOLYLINE
  5
1FE
330
1F5
100
AcDbEntity
  8
寸法
  6
Continuous
100
AcDbPolyline
 90
        3
 70
     0
 43
0.0
 10
45.29464161268425
 20
-101.8407417371127
 10
42.70645116165906
 20
-111.5000000000036
 10
40.11826071063388
 20
-101.8407417371127
  0
ENDBLK
  5
1F7
330
1F5
100
AcDbEntity
  8
0
100
AcDbBlockEnd
  0
BLOCK
  5
207
330
206
100
AcDbEntity
  8
0
100
AcDbBlockBegin
  2
INS-D62OV
 70
     0
 10
0.0
 20
0.0
 30
0.0
  3
INS-D62OV
  1

  0
TEXT
  5
20A
330
206
100
AcDbEntity
  8
寸法
  6
Continuous
100
AcDbText
 10
-17.69954883834088
 20
-42.42000000000363
 30
0.0
 40
19.982
  1
φ266
 50
90.0
 41
1.041145908602337
 72
     1
 11
-17.69954883834088
 21
-0.000000000003638
 31
0.0
100
AcDbText
  0
LINE
  5
20B
330
206
100
AcDbEntity
  8
寸法
  6
Continuous
100
AcDbLine
 10
41.30045116165911
 20
-133.0000000000036
 30
0.0
 11
-7.699548838340888
 21
-133.0000000000036
 31
0.0
  0
LINE
  5
20C
330
206
100
AcDbEntity
  8
寸法
  6
Continuous
100
AcDbLine
 10
41.30045116165911
 20
132.9999999999964
 30
0.0
 11
-7.699548838340888
 21
132.9999999999964
 31
0.0
  0
LINE
  5
20D
330
206
100
AcDbEntity
  8
寸法
  6
Continuous
100
AcDbLine
 10
-7.699548838340888
 20
132.9999999999964
 30
0.0
 11
-7.699548838340888
 21
-133.0000000000036
 31
0.0
  0
LWPOLYLINE
  5
20E
330
206
100
AcDbEntity
  8
寸法
  6
Continuous
100
AcDbPolyline
 90
        3
 70
     0
 43
0.0
 10
-10.28773928936607
 20
123.3407417371054
 10
-7.699548838340888
 20
132.9999999999964
 10
-5.111358387315704
 20
123.3407417371054
  0
LWPOLYLINE
  5
20F
330
206
100
AcDbEntity
  8
寸法
  6
Continuous
100
AcDbPolyline
 90
        3
 70
     0
 43
0.0
 10
-5.111358387315704
 20
-123.3407417371127
 10
-7.699548838340888
 20
-133.0000000000036
 10
-10.28773928936607
 20
-123.3407417371127
  0
ENDBLK
  5
208
330
206
100
AcDbEntity
  8
0
100
AcDbBlockEnd
  0
BLOCK
  5
215
330
214
100
AcDbEntity
  8
0
100
AcDbBlockBegin
  2
INS-DBUYV
 70
     0
 10
0.0
 20
0.0
 30
0.0
  3
INS-DBUYV
  1

  0
TEXT
  5
218
330
214
100
AcDbEntity
  8
寸法
  6
Continuous
100
AcDbText
 10
-23.57954883834106
 20
19.94999999999709
 30
0.0
 40
19.982
  1
100
 41
1.056781492035411
 72
     1
 11
0.0004511616589298
 21
19.94999999999709
 31
0.0
100
AcDbText
  0
LINE
  5
219
330
214
100
AcDbEntity
  8
寸法
  6
Continuous
100
AcDbLine
 10
50.00045116165893
 20
-43.55000000000291
 30
0.0
 11
50.00045116165893
 21
9.94999999999709
 31
0.0
  0
LINE
  5
21A
330
214
100
AcDbEntity
  8
寸法
  6
Continuous
100
AcDbLine
 10
-49.99954883834107
 20
-34.55000000000291
 30
0.0
 11
-49.99954883834107
 21
9.94999999999709
 31
0.0
  0
LINE
  5
21B
330
214
100
AcDbEntity
  8
寸法
  6
Continuous
100
AcDbLine
 10
-49.99954883834107
 20
9.94999999999709
 30
0.0
 11
50.00045116165893
 21
9.94999999999709
 31
0.0
  0
LWPOLYLINE
  5
21C
330
214
100
AcDbEntity
  8
寸法
  6
Continuous
100
AcDbPolyline
 90
        3
 70
     0
 43
0.0
 10
-40.34029057545013
 20
7.361809548972815
 10
-49.99954883834107
 20
9.94999999999709
 10
-40.34029057545013
 20
12.53819045102136
  0
LWPOLYLINE
  5
21D
330
214
100
AcDbEntity
  8
寸法
  6
Continuous
100
AcDbPolyline
 90
        3
 70
     0
 43
0.0
 10
40.34119289876799
 20
12.53819045102136
 10
50.00045116165893
 20
9.94999999999709
 10
40.34119289876799
 20
7.361809548972815
  0
ENDBLK
  5
216
330
214
100
AcDbEntity
  8
0
100
AcDbBlockEnd
  0
BLOCK
  5
21F
330
21E
100
AcDbEntity
  8
0
100
AcDbBlockBegin
  2
INS-D89KT
 70
     0
 10
0.0
 20
0.0
 30
0.0
  3
INS-D89KT
  1

  0
TEXT
  5
222
330
21E
100
AcDbEntity
  8
寸法
  6
Continuous
100
AcDbText
 10
32.70645116165906
 20
-42.42000000000365
 30
0.0
 40
19.982
  1
φ248
 50
90.0
 41
1.041145908602337
 72
     1
 11
32.70645116165906
 21
-0.0000000000036522
 31
0.0
100
AcDbText
  0
LINE
  5
223
330
21E
100
AcDbEntity
  8
寸法
  6
Continuous
100
AcDbLine
 10
-48.29354883834094
 20
-124.0000000000036
 30
0.0
 11
42.70645116165906
 21
-124.0000000000036
 31
0.0
  0
LINE
  5
224
330
21E
100
AcDbEntity
  8
寸法
  6
Continuous
100
AcDbLine
 10
-48.29354883834094
 20
123.9999999999964
 30
0.0
 11
42.70645116165906
 21
123.9999999999964
 31
0.0
  0
LINE
  5
225
330
21E
100
AcDbEntity
  8
寸法
  6
Continuous
100
AcDbLine
 10
42.70645116165906
 20
123.9999999999964
 30
0.0
 11
42.70645116165906
 21
-124.0000000000036
 31
0.0
  0
LWPOLYLINE
  5
226
330
21E
100
AcDbEntity
  8
寸法
  6
Continuous
100
AcDbPolyline
 90
        3
 70
     0
 43
0.0
 10
40.11826071063388
 20
114.3407417371054
 10
42.70645116165906
 20
123.9999999999964
 10
45.29464161268425
 20
114.3407417371054
  0
LWPOLYLINE
  5
227
330
21E
100
AcDbEntity
  8
寸法
  6
Continuous
100
AcDbPolyline
 90
        3
 70
     0
 43
0.0
 10
45.29464161268425
 20
-114.3407417371127
 10
42.70645116165906
 20
-124.0000000000036
 10
40.11826071063388
 20
-114.3407417371127
  0
ENDBLK
  5
220
330
21E
100
AcDbEntity
  8
0
100
AcDbBlockEnd
  0
BLOCK
  5
230
330
22F
100
AcDbEntity
  8
0
100
AcDbBlockBegin
  2
INS-DPQBC
 70
     0
 10
0.0
 20
0.0
 30
0.0
  3
INS-DPQBC
  1

  0
TEXT
  5
233
330
22F
100
AcDbEntity
  8
寸法
  6
Continuous
100
AcDbText
 10
-17.69954883834088
 20
-39.06000000000363
 30
0.0
 40
19.982
  1
φ291
 50
90.0
 41
1.041145908602337
 72
     1
 11
-17.69954883834088
 21
-0.000000000003638
 31
0.0
100
AcDbText
  0
LINE
  5
234
330
22F
100
AcDbEntity
  8
寸法
  6
Continuous
100
AcDbLine
 10
41.30045116165911
 20
-145.5000000000036
 30
0.0
 11
-7.699548838340888
 21
-145.5000000000036
 31
0.0
  0
LINE
  5
235
330
22F
100
AcDbEntity
  8
寸法
  6
Continuous
100
AcDbLine
 10
41.30045116165911
 20
145.4999999999964
 30
0.0
 11
-7.699548838340888
 21
145.4999999999964
 31
0.0
  0
LINE
  5
236
330
22F
100
AcDbEntity
  8
寸法
  6
Continuous
100
AcDbLine
 10
-7.699548838340888
 20
145.4999999999964
 30
0.0
 11
-7.699548838340888
 21
-145.5000000000036
 31
0.0
  0
LWPOLYLINE
  5
237
330
22F
100
AcDbEntity
  8
寸法
  6
Continuous
100
AcDbPolyline
 90
        3
 70
     0
 43
0.0
 10
-10.28773928936607
 20
135.8407417371054
 10
-7.699548838340888
 20
145.4999999999964
 10
-5.111358387315704
 20
135.8407417371054
  0
LWPOLYLINE
  5
238
330
22F
100
AcDbEntity
  8
寸法
  6
Continuous
100
AcDbPolyline
 90
        3
 70
     0
 43
0.0
 10
-5.111358387315704
 20
-135.8407417371127
 10
-7.699548838340888
 20
-145.5000000000036
 10
-10.28773928936607
 20
-135.8407417371127
  0
ENDBLK
  5
231
330
22F
100
AcDbEntity
  8
0
100
AcDbBlockEnd
  0
BLOCK
  5
23E
330
23D
100
AcDbEntity
  8
0
100
AcDbBlockBegin
  2
INS-D4SXQ
 70
     0
 10
0.0
 20
0.0
 30
0.0
  3
INS-D4SXQ
  1

  0
TEXT
  5
241
330
23D
100
AcDbEntity
  8
寸法
  6
Continuous
100
AcDbText
 10
-23.57954883834106
 20
19.94999999999709
 30
0.0
 40
19.982
  1
100
 41
1.056781492035411
 72
     1
 11
0.0004511616589298
 21
19.94999999999709
 31
0.0
100
AcDbText
  0
LINE
  5
242
330
23D
100
AcDbEntity
  8
寸法
  6
Continuous
100
AcDbLine
 10
50.00045116165893
 20
-43.55000000000291
 30
0.0
 11
50.00045116165893
 21
9.94999999999709
 31
0.0
  0
LINE
  5
243
330
23D
100
AcDbEntity
  8
寸法
  6
Continuous
100
AcDbLine
 10
-49.99954883834107
 20
-34.55000000000291
 30
0.0
 11
-49.99954883834107
 21
9.94999999999709
 31
0.0
  0
LINE
  5
244
330
23D
100
AcDbEntity
  8
寸法
  6
Continuous
100
AcDbLine
 10
-49.99954883834107
 20
9.94999999999709
 30
0.0
 11
50.00045116165893
 21
9.94999999999709
 31
0.0
  0
LWPOLYLINE
  5
245
330
23D
100
AcDbEntity
  8
寸法
  6
Continuous
100
AcDbPolyline
 90
        3
 70
     0
 43
0.0
 10
-40.34029057545013
 20
7.361809548972815
 10
-49.99954883834107
 20
9.94999999999709
 10
-40.34029057545013
 20
12.53819045102136
  0
LWPOLYLINE
  5
246
330
23D
100
AcDbEntity
  8
寸法
  6
Continuous
100
AcDbPolyline
 90
        3
 70
     0
 43
0.0
 10
40.34119289876799
 20
12.53819045102136
 10
50.00045116165893
 20
9.94999999999709
 10
40.34119289876799
 20
7.361809548972815
  0
ENDBLK
  5
23F
330
23D
100
AcDbEntity
  8
0
100
AcDbBlockEnd
  0
BLOCK
  5
248
330
247
100
AcDbEntity
  8
0
100
AcDbBlockBegin
  2
INS-DFEUT
 70
     0
 10
0.0
 20
0.0
 30
0.0
  3
INS-DFEUT
  1

  0
TEXT
  5
24B
330
247
100
AcDbEntity
  8
寸法
  6
Continuous
100
AcDbText
 10
32.70645116165906
 20
-42.42000000000365
 30
0.0
 40
19.982
  1
φ273
 50
90.0
 41
1.041145908602337
 72
     1
 11
32.70645116165906
 21
-0.0000000000036522
 31
0.0
100
AcDbText
  0
LINE
  5
24C
330
247
100
AcDbEntity
  8
寸法
  6
Continuous
100
AcDbLine
 10
-48.29354883834094
 20
-136.5000000000036
 30
0.0
 11
42.70645116165906
 21
-136.5000000000036
 31
0.0
  0
LINE
  5
24D
330
247
100
AcDbEntity
  8
寸法
  6
Continuous
100
AcDbLine
 10
-48.29354883834094
 20
136.4999999999964
 30
0.0
 11
42.70645116165906
 21
136.4999999999964
 31
0.0
  0
LINE
  5
24E
330
247
100
AcDbEntity
  8
寸法
  6
Continuous
100
AcDbLine
 10
42.70645116165906
 20
136.4999999999964
 30
0.0
 11
42.70645116165906
 21
-136.5000000000036
 31
0.0
  0
LWPOLYLINE
  5
24F
330
247
100
AcDbEntity
  8
寸法
  6
Continuous
100
AcDbPolyline
 90
        3
 70
     0
 43
0.0
 10
40.11826071063388
 20
126.8407417371054
 10
42.70645116165906
 20
136.4999999999964
 10
45.29464161268425
 20
126.8407417371054
  0
LWPOLYLINE
  5
250
330
247
100
AcDbEntity
  8
寸法
  6
Continuous
100
AcDbPolyline
 90
        3
 70
     0
 43
0.0
 10
45.29464161268425
 20
-126.8407417371127
 10
42.70645116165906
 20
-136.5000000000036
 10
40.11826071063388
 20
-126.8407417371127
  0
ENDBLK
  5
249
330
247
100
AcDbEntity
  8
0
100
AcDbBlockEnd
  0
BLOCK
  5
259
330
258
100
AcDbEntity
  8
0
100
AcDbBlockBegin
  2
INS-D727M
 70
     0
 10
0.0
 20
0.0
 30
0.0
  3
INS-D727M
  1

  0
TEXT
  5
25C
330
258
100
AcDbEntity
  8
寸法
  6
Continuous
100
AcDbText
 10
-17.69954883834088
 20
-39.06000000000363
 30
0.0
 40
19.982
  1
φ316
 50
90.0
 41
1.041145908602337
 72
     1
 11
-17.69954883834088
 21
-0.000000000003638
 31
0.0
100
AcDbText
  0
LINE
  5
25D
330
258
100
AcDbEntity
  8
寸法
  6
Continuous
100
AcDbLine
 10
41.30045116165911
 20
-158.0000000000036
 30
0.0
 11
-7.699548838340888
 21
-158.0000000000036
 31
0.0
  0
LINE
  5
25E
330
258
100
AcDbEntity
  8
寸法
  6
Continuous
100
AcDbLine
 10
41.30045116165911
 20
157.9999999999964
 30
0.0
 11
-7.699548838340888
 21
157.9999999999964
 31
0.0
  0
LINE
  5
25F
330
258
100
AcDbEntity
  8
寸法
  6
Continuous
100
AcDbLine
 10
-7.699548838340888
 20
157.9999999999964
 30
0.0
 11
-7.699548838340888
 21
-158.0000000000036
 31
0.0
  0
LWPOLYLINE
  5
260
330
258
100
AcDbEntity
  8
寸法
  6
Continuous
100
AcDbPolyline
 90
        3
 70
     0
 43
0.0
 10
-10.28773928936607
 20
148.3407417371054
 10
-7.699548838340888
 20
157.9999999999964
 10
-5.111358387315704
 20
148.3407417371054
  0
LWPOLYLINE
  5
261
330
258
100
AcDbEntity
  8
寸法
  6
Continuous
100
AcDbPolyline
 90
        3
 70
     0
 43
0.0
 10
-5.111358387315704
 20
-148.3407417371127
 10
-7.699548838340888
 20
-158.0000000000036
 10
-10.28773928936607
 20
-148.3407417371127
  0
ENDBLK
  5
25A
330
258
100
AcDbEntity
  8
0
100
AcDbBlockEnd
  0
BLOCK
  5
267
330
266
100
AcDbEntity
  8
0
100
AcDbBlockBegin
  2
INS-DBRZD
 70
     0
 10
0.0
 20
0.0
 30
0.0
  3
INS-DBRZD
  1

  0
TEXT
  5
26A
330
266
100
AcDbEntity
  8
寸法
  6
Continuous
100
AcDbText
 10
-23.57954883834106
 20
19.94999999999709
 30
0.0
 40
19.982
  1
100
 41
1.056781492035411
 72
     1
 11
0.0004511616589298
 21
19.94999999999709
 31
0.0
100
AcDbText
  0
LINE
  5
26B
330
266
100
AcDbEntity
  8
寸法
  6
Continuous
100
AcDbLine
 10
50.00045116165893
 20
-43.55000000000291
 30
0.0
 11
50.00045116165893
 21
9.94999999999709
 31
0.0
  0
LINE
  5
26C
330
266
100
AcDbEntity
  8
寸法
  6
Continuous
100
AcDbLine
 10
-49.99954883834107
 20
-34.55000000000291
 30
0.0
 11
-49.99954883834107
 21
9.94999999999709
 31
0.0
  0
LINE
  5
26D
330
266
100
AcDbEntity
  8
寸法
  6
Continuous
100
AcDbLine
 10
-49.99954883834107
 20
9.94999999999709
 30
0.0
 11
50.00045116165893
 21
9.94999999999709
 31
0.0
  0
LWPOLYLINE
  5
26E
330
266
100
AcDbEntity
  8
寸法
  6
Continuous
100
AcDbPolyline
 90
        3
 70
     0
 43
0.0
 10
-40.34029057545013
 20
7.361809548972815
 10
-49.99954883834107
 20
9.94999999999709
 10
-40.34029057545013
 20
12.53819045102136
  0
LWPOLYLINE
  5
26F
330
266
100
AcDbEntity
  8
寸法
  6
Continuous
100
AcDbPolyline
 90
        3
 70
     0
 43
0.0
 10
40.34119289876799
 20
12.53819045102136
 10
50.00045116165893
 20
9.94999999999709
 10
40.34119289876799
 20
7.361809548972815
  0
ENDBLK
  5
268
330
266
100
AcDbEntity
  8
0
100
AcDbBlockEnd
  0
BLOCK
  5
271
330
270
100
AcDbEntity
  8
0
100
AcDbBlockBegin
  2
INS-DVTBV
 70
     0
 10
0.0
 20
0.0
 30
0.0
  3
INS-DVTBV
  1

  0
TEXT
  5
274
330
270
100
AcDbEntity
  8
寸法
  6
Continuous
100
AcDbText
 10
32.70645116165906
 20
-42.42000000000365
 30
0.0
 40
19.982
  1
φ298
 50
90.0
 41
1.041145908602337
 72
     1
 11
32.70645116165906
 21
-0.0000000000036522
 31
0.0
100
AcDbText
  0
LINE
  5
275
330
270
100
AcDbEntity
  8
寸法
  6
Continuous
100
AcDbLine
 10
-48.29354883834094
 20
-149.0000000000036
 30
0.0
 11
42.70645116165906
 21
-149.0000000000036
 31
0.0
  0
LINE
  5
276
330
270
100
AcDbEntity
  8
寸法
  6
Continuous
100
AcDbLine
 10
-48.29354883834094
 20
148.9999999999964
 30
0.0
 11
42.70645116165906
 21
148.9999999999964
 31
0.0
  0
LINE
  5
277
330
270
100
AcDbEntity
  8
寸法
  6
Continuous
100
AcDbLine
 10
42.70645116165906
 20
148.9999999999964
 30
0.0
 11
42.70645116165906
 21
-149.0000000000036
 31
0.0
  0
LWPOLYLINE
  5
278
330
270
100
AcDbEntity
  8
寸法
  6
Continuous
100
AcDbPolyline
 90
        3
 70
     0
 43
0.0
 10
40.11826071063388
 20
139.3407417371054
 10
42.70645116165906
 20
148.9999999999964
 10
45.29464161268425
 20
139.3407417371054
  0
LWPOLYLINE
  5
279
330
270
100
AcDbEntity
  8
寸法
  6
Continuous
100
AcDbPolyline
 90
        3
 70
     0
 43
0.0
 10
45.29464161268425
 20
-139.3407417371127
 10
42.70645116165906
 20
-149.0000000000036
 10
40.11826071063388
 20
-139.3407417371127
  0
ENDBLK
  5
272
330
270
100
AcDbEntity
  8
0
100
AcDbBlockEnd
  0
BLOCK
  5
282
330
281
100
AcDbEntity
  8
0
100
AcDbBlockBegin
  2
INS-D8LLO
 70
     0
 10
0.0
 20
0.0
 30
0.0
  3
INS-D8LLO
  1

  0
TEXT
  5
285
330
281
100
AcDbEntity
  8
寸法
  6
Continuous
100
AcDbText
 10
-17.69954883834088
 20
-39.06000000000363
 30
0.0
 40
19.982
  1
φ341
 50
90.0
 41
1.041145908602337
 72
     1
 11
-17.69954883834088
 21
-0.000000000003638
 31
0.0
100
AcDbText
  0
LINE
  5
286
330
281
100
AcDbEntity
  8
寸法
  6
Continuous
100
AcDbLine
 10
41.30045116165911
 20
-170.5000000000036
 30
0.0
 11
-7.699548838340888
 21
-170.5000000000036
 31
0.0
  0
LINE
  5
287
330
281
100
AcDbEntity
  8
寸法
  6
Continuous
100
AcDbLine
 10
41.30045116165911
 20
170.4999999999964
 30
0.0
 11
-7.699548838340888
 21
170.4999999999964
 31
0.0
  0
LINE
  5
288
330
281
100
AcDbEntity
  8
寸法
  6
Continuous
100
AcDbLine
 10
-7.699548838340888
 20
170.4999999999964
 30
0.0
 11
-7.699548838340888
 21
-170.5000000000036
 31
0.0
  0
LWPOLYLINE
  5
289
330
281
100
AcDbEntity
  8
寸法
  6
Continuous
100
AcDbPolyline
 90
        3
 70
     0
 43
0.0
 10
-10.28773928936607
 20
160.8407417371054
 10
-7.699548838340888
 20
170.4999999999964
 10
-5.111358387315704
 20
160.8407417371054
  0
LWPOLYLINE
  5
28A
330
281
100
AcDbEntity
  8
寸法
  6
Continuous
100
AcDbPolyline
 90
        3
 70
     0
 43
0.0
 10
-5.111358387315704
 20
-160.8407417371127
 10
-7.699548838340888
 20
-170.5000000000036
 10
-10.28773928936607
 20
-160.8407417371127
  0
ENDBLK
  5
283
330
281
100
AcDbEntity
  8
0
100
AcDbBlockEnd
  0
BLOCK
  5
290
330
28F
100
AcDbEntity
  8
0
100
AcDbBlockBegin
  2
INS-D5L65
 70
     0
 10
0.0
 20
0.0
 30
0.0
  3
INS-D5L65
  1

  0
TEXT
  5
293
330
28F
100
AcDbEntity
  8
寸法
  6
Continuous
100
AcDbText
 10
-23.57954883834106
 20
19.94999999999709
 30
0.0
 40
19.982
  1
100
 41
1.056781492035411
 72
     1
 11
0.0004511616589298
 21
19.94999999999709
 31
0.0
100
AcDbText
  0
LINE
  5
294
330
28F
100
AcDbEntity
  8
寸法
  6
Continuous
100
AcDbLine
 10
50.00045116165893
 20
-43.55000000000291
 30
0.0
 11
50.00045116165893
 21
9.94999999999709
 31
0.0
  0
LINE
  5
295
330
28F
100
AcDbEntity
  8
寸法
  6
Continuous
100
AcDbLine
 10
-49.99954883834107
 20
-34.55000000000291
 30
0.0
 11
-49.99954883834107
 21
9.94999999999709
 31
0.0
  0
LINE
  5
296
330
28F
100
AcDbEntity
  8
寸法
  6
Continuous
100
AcDbLine
 10
-49.99954883834107
 20
9.94999999999709
 30
0.0
 11
50.00045116165893
 21
9.94999999999709
 31
0.0
  0
LWPOLYLINE
  5
297
330
28F
100
AcDbEntity
  8
寸法
  6
Continuous
100
AcDbPolyline
 90
        3
 70
     0
 43
0.0
 10
-40.34029057545013
 20
7.361809548972815
 10
-49.99954883834107
 20
9.94999999999709
 10
-40.34029057545013
 20
12.53819045102136
  0
LWPOLYLINE
  5
298
330
28F
100
AcDbEntity
  8
寸法
  6
Continuous
100
AcDbPolyline
 90
        3
 70
     0
 43
0.0
 10
40.34119289876799
 20
12.53819045102136
 10
50.00045116165893
 20
9.94999999999709
 10
40.34119289876799
 20
7.361809548972815
  0
ENDBLK
  5
291
330
28F
100
AcDbEntity
  8
0
100
AcDbBlockEnd
  0
BLOCK
  5
29A
330
299
100
AcDbEntity
  8
0
100
AcDbBlockBegin
  2
INS-D82W5
 70
     0
 10
0.0
 20
0.0
 30
0.0
  3
INS-D82W5
  1

  0
TEXT
  5
29D
330
299
100
AcDbEntity
  8
寸法
  6
Continuous
100
AcDbText
 10
32.70645116165906
 20
-42.42000000000365
 30
0.0
 40
19.982
  1
φ323
 50
90.0
 41
1.041145908602337
 72
     1
 11
32.70645116165906
 21
-0.0000000000036522
 31
0.0
100
AcDbText
  0
LINE
  5
29E
330
299
100
AcDbEntity
  8
寸法
  6
Continuous
100
AcDbLine
 10
-48.29354883834094
 20
-161.5000000000036
 30
0.0
 11
42.70645116165906
 21
-161.5000000000036
 31
0.0
  0
LINE
  5
29F
330
299
100
AcDbEntity
  8
寸法
  6
Continuous
100
AcDbLine
 10
-48.29354883834094
 20
161.4999999999964
 30
0.0
 11
42.70645116165906
 21
161.4999999999964
 31
0.0
  0
LINE
  5
2A0
330
299
100
AcDbEntity
  8
寸法
  6
Continuous
100
AcDbLine
 10
42.70645116165906
 20
161.4999999999964
 30
0.0
 11
42.70645116165906
 21
-161.5000000000036
 31
0.0
  0
LWPOLYLINE
  5
2A1
330
299
100
AcDbEntity
  8
寸法
  6
Continuous
100
AcDbPolyline
 90
        3
 70
     0
 43
0.0
 10
40.11826071063388
 20
151.8407417371054
 10
42.70645116165906
 20
161.4999999999964
 10
45.29464161268425
 20
151.8407417371054
  0
LWPOLYLINE
  5
2A2
330
299
100
AcDbEntity
  8
寸法
  6
Continuous
100
AcDbPolyline
 90
        3
 70
     0
 43
0.0
 10
45.29464161268425
 20
-151.8407417371127
 10
42.70645116165906
 20
-161.5000000000036
 10
40.11826071063388
 20
-151.8407417371127
  0
ENDBLK
  5
29B
330
299
100
AcDbEntity
  8
0
100
AcDbBlockEnd
  0
BLOCK
  5
2AB
330
2AA
100
AcDbEntity
  8
0
100
AcDbBlockBegin
  2
INS-D9528
 70
     0
 10
0.0
 20
0.0
 30
0.0
  3
INS-D9528
  1

  0
TEXT
  5
2AE
330
2AA
100
AcDbEntity
  8
寸法
  6
Continuous
100
AcDbText
 10
-17.69954883834088
 20
-42.42000000000727
 30
0.0
 40
19.982
  1
φ366
 50
90.0
 41
1.041145908602337
 72
     1
 11
-17.69954883834088
 21
-0.000000000007276
 31
0.0
100
AcDbText
  0
LINE
  5
2AF
330
2AA
100
AcDbEntity
  8
寸法
  6
Continuous
100
AcDbLine
 10
41.30045116165911
 20
-183.0000000000073
 30
0.0
 11
-7.699548838340888
 21
-183.0000000000073
 31
0.0
  0
LINE
  5
2B0
330
2AA
100
AcDbEntity
  8
寸法
  6
Continuous
100
AcDbLine
 10
41.30045116165911
 20
182.9999999999927
 30
0.0
 11
-7.699548838340888
 21
182.9999999999927
 31
0.0
  0
LINE
  5
2B1
330
2AA
100
AcDbEntity
  8
寸法
  6
Continuous
100
AcDbLine
 10
-7.699548838340888
 20
182.9999999999927
 30
0.0
 11
-7.699548838340888
 21
-183.0000000000073
 31
0.0
  0
LWPOLYLINE
  5
2B2
330
2AA
100
AcDbEntity
  8
寸法
  6
Continuous
100
AcDbPolyline
 90
        3
 70
     0
 43
0.0
 10
-10.28773928936607
 20
173.3407417371018
 10
-7.699548838340888
 20
182.9999999999927
 10
-5.111358387315704
 20
173.3407417371018
  0
LWPOLYLINE
  5
2B3
330
2AA
100
AcDbEntity
  8
寸法
  6
Continuous
100
AcDbPolyline
 90
        3
 70
     0
 43
0.0
 10
-5.111358387315704
 20
-173.3407417371163
 10
-7.699548838340888
 20
-183.0000000000073
 10
-10.28773928936607
 20
-173.3407417371163
  0
ENDBLK
  5
2AC
330
2AA
100
AcDbEntity
  8
0
100
AcDbBlockEnd
  0
BLOCK
  5
2B9
330
2B8
100
AcDbEntity
  8
0
100
AcDbBlockBegin
  2
INS-D7BGV
 70
     0
 10
0.0
 20
0.0
 30
0.0
  3
INS-D7BGV
  1

  0
TEXT
  5
2BC
330
2B8
100
AcDbEntity
  8
寸法
  6
Continuous
100
AcDbText
 10
-23.57954883834106
 20
19.94999999999345
 30
0.0
 40
19.982
  1
100
 41
1.056781492035411
 72
     1
 11
0.0004511616589298
 21
19.94999999999345
 31
0.0
100
AcDbText
  0
LINE
  5
2BD
330
2B8
100
AcDbEntity
  8
寸法
  6
Continuous
100
AcDbLine
 10
50.00045116165893
 20
-43.55000000000655
 30
0.0
 11
50.00045116165893
 21
9.949999999993452
 31
0.0
  0
LINE
  5
2BE
330
2B8
100
AcDbEntity
  8
寸法
  6
Continuous
100
AcDbLine
 10
-49.99954883834107
 20
-34.55000000000655
 30
0.0
 11
-49.99954883834107
 21
9.949999999993452
 31
0.0
  0
LINE
  5
2BF
330
2B8
100
AcDbEntity
  8
寸法
  6
Continuous
100
AcDbLine
 10
-49.99954883834107
 20
9.949999999993452
 30
0.0
 11
50.00045116165893
 21
9.949999999993452
 31
0.0
  0
LWPOLYLINE
  5
2C0
330
2B8
100
AcDbEntity
  8
寸法
  6
Continuous
100
AcDbPolyline
 90
        3
 70
     0
 43
0.0
 10
-40.34029057545013
 20
7.361809548969177
 10
-49.99954883834107
 20
9.949999999993452
 10
-40.34029057545013
 20
12.53819045101773
  0
LWPOLYLINE
  5
2C1
330
2B8
100
AcDbEntity
  8
寸法
  6
Continuous
100
AcDbPolyline
 90
        3
 70
     0
 43
0.0
 10
40.34119289876799
 20
12.53819045101773
 10
50.00045116165893
 20
9.949999999993452
 10
40.34119289876799
 20
7.361809548969177
  0
ENDBLK
  5
2BA
330
2B8
100
AcDbEntity
  8
0
100
AcDbBlockEnd
  0
BLOCK
  5
2C3
330
2C2
100
AcDbEntity
  8
0
100
AcDbBlockBegin
  2
INS-D9LG9
 70
     0
 10
0.0
 20
0.0
 30
0.0
  3
INS-D9LG9
  1

  0
TEXT
  5
2C6
330
2C2
100
AcDbEntity
  8
寸法
  6
Continuous
100
AcDbText
 10
32.70645116165906
 20
-42.42000000000728
 30
0.0
 40
19.982
  1
φ348
 50
90.0
 41
1.041145908602337
 72
     1
 11
32.70645116165906
 21
-0.0000000000072902
 31
0.0
100
AcDbText
  0
LINE
  5
2C7
330
2C2
100
AcDbEntity
  8
寸法
  6
Continuous
100
AcDbLine
 10
-48.29354883834094
 20
-174.0000000000073
 30
0.0
 11
42.70645116165906
 21
-174.0000000000073
 31
0.0
  0
LINE
  5
2C8
330
2C2
100
AcDbEntity
  8
寸法
  6
Continuous
100
AcDbLine
 10
-48.29354883834094
 20
173.9999999999927
 30
0.0
 11
42.70645116165906
 21
173.9999999999927
 31
0.0
  0
LINE
  5
2C9
330
2C2
100
AcDbEntity
  8
寸法
  6
Continuous
100
AcDbLine
 10
42.70645116165906
 20
173.9999999999927
 30
0.0
 11
42.70645116165906
 21
-174.0000000000073
 31
0.0
  0
LWPOLYLINE
  5
2CA
330
2C2
100
AcDbEntity
  8
寸法
  6
Continuous
100
AcDbPolyline
 90
        3
 70
     0
 43
0.0
 10
40.11826071063388
 20
164.3407417371018
 10
42.70645116165906
 20
173.9999999999927
 10
45.29464161268425
 20
164.3407417371018
  0
LWPOLYLINE
  5
2CB
330
2C2
100
AcDbEntity
  8
寸法
  6
Continuous
100
AcDbPolyline
 90
        3
 70
     0
 43
0.0
 10
45.29464161268425
 20
-164.3407417371163
 10
42.70645116165906
 20
-174.0000000000073
 10
40.11826071063388
 20
-164.3407417371163
  0
ENDBLK
  5
2C4
330
2C2
100
AcDbEntity
  8
0
100
AcDbBlockEnd
  0
BLOCK
  5
2D4
330
2D3
100
AcDbEntity
  8
0
100
AcDbBlockBegin
  2
INS-D7Z34
 70
     0
 10
0.0
 20
0.0
 30
0.0
  3
INS-D7Z34
  1

  0
TEXT
  5
2D7
330
2D3
100
AcDbEntity
  8
寸法
  6
Continuous
100
AcDbText
 10
-17.69954883834088
 20
-39.06000000000727
 30
0.0
 40
19.982
  1
φ391
 50
90.0
 41
1.041145908602337
 72
     1
 11
-17.69954883834088
 21
-0.000000000007276
 31
0.0
100
AcDbText
  0
LINE
  5
2D8
330
2D3
100
AcDbEntity
  8
寸法
  6
Continuous
100
AcDbLine
 10
41.30045116165911
 20
-195.5000000000073
 30
0.0
 11
-7.699548838340888
 21
-195.5000000000073
 31
0.0
  0
LINE
  5
2D9
330
2D3
100
AcDbEntity
  8
寸法
  6
Continuous
100
AcDbLine
 10
41.30045116165911
 20
195.4999999999927
 30
0.0
 11
-7.699548838340888
 21
195.4999999999927
 31
0.0
  0
LINE
  5
2DA
330
2D3
100
AcDbEntity
  8
寸法
  6
Continuous
100
AcDbLine
 10
-7.699548838340888
 20
195.4999999999927
 30
0.0
 11
-7.699548838340888
 21
-195.5000000000073
 31
0.0
  0
LWPOLYLINE
  5
2DB
330
2D3
100
AcDbEntity
  8
寸法
  6
Continuous
100
AcDbPolyline
 90
        3
 70
     0
 43
0.0
 10
-10.28773928936607
 20
185.8407417371018
 10
-7.699548838340888
 20
195.4999999999927
 10
-5.111358387315704
 20
185.8407417371018
  0
LWPOLYLINE
  5
2DC
330
2D3
100
AcDbEntity
  8
寸法
  6
Continuous
100
AcDbPolyline
 90
        3
 70
     0
 43
0.0
 10
-5.111358387315704
 20
-185.8407417371163
 10
-7.699548838340888
 20
-195.5000000000073
 10
-10.28773928936607
 20
-185.8407417371163
  0
ENDBLK
  5
2D5
330
2D3
100
AcDbEntity
  8
0
100
AcDbBlockEnd
  0
BLOCK
  5
2E2
330
2E1
100
AcDbEntity
  8
0
100
AcDbBlockBegin
  2
INS-D64VN
 70
     0
 10
0.0
 20
0.0
 30
0.0
  3
INS-D64VN
  1

  0
TEXT
  5
2E5
330
2E1
100
AcDbEntity
  8
寸法
  6
Continuous
100
AcDbText
 10
-23.57954883834106
 20
19.94999999999345
 30
0.0
 40
19.982
  1
100
 41
1.056781492035411
 72
     1
 11
0.0004511616589298
 21
19.94999999999345
 31
0.0
100
AcDbText
  0
LINE
  5
2E6
330
2E1
100
AcDbEntity
  8
寸法
  6
Continuous
100
AcDbLine
 10
50.00045116165893
 20
-43.55000000000655
 30
0.0
 11
50.00045116165893
 21
9.949999999993452
 31
0.0
  0
LINE
  5
2E7
330
2E1
100
AcDbEntity
  8
寸法
  6
Continuous
100
AcDbLine
 10
-49.99954883834107
 20
-34.55000000000655
 30
0.0
 11
-49.99954883834107
 21
9.949999999993452
 31
0.0
  0
LINE
  5
2E8
330
2E1
100
AcDbEntity
  8
寸法
  6
Continuous
100
AcDbLine
 10
-49.99954883834107
 20
9.949999999993452
 30
0.0
 11
50.00045116165893
 21
9.949999999993452
 31
0.0
  0
LWPOLYLINE
  5
2E9
330
2E1
100
AcDbEntity
  8
寸法
  6
Continuous
100
AcDbPolyline
 90
        3
 70
     0
 43
0.0
 10
-40.34029057545013
 20
7.361809548969177
 10
-49.99954883834107
 20
9.949999999993452
 10
-40.34029057545013
 20
12.53819045101773
  0
LWPOLYLINE
  5
2EA
330
2E1
100
AcDbEntity
  8
寸法
  6
Continuous
100
AcDbPolyline
 90
        3
 70
     0
 43
0.0
 10
40.34119289876799
 20
12.53819045101773
 10
50.00045116165893
 20
9.949999999993452
 10
40.34119289876799
 20
7.361809548969177
  0
ENDBLK
  5
2E3
330
2E1
100
AcDbEntity
  8
0
100
AcDbBlockEnd
  0
BLOCK
  5
2EC
330
2EB
100
AcDbEntity
  8
0
100
AcDbBlockBegin
  2
INS-DR0I2
 70
     0
 10
0.0
 20
0.0
 30
0.0
  3
INS-DR0I2
  1

  0
TEXT
  5
2EF
330
2EB
100
AcDbEntity
  8
寸法
  6
Continuous
100
AcDbText
 10
32.70645116165906
 20
-42.42000000000728
 30
0.0
 40
19.982
  1
φ373
 50
90.0
 41
1.041145908602337
 72
     1
 11
32.70645116165906
 21
-0.0000000000072902
 31
0.0
100
AcDbText
  0
LINE
  5
2F0
330
2EB
100
AcDbEntity
  8
寸法
  6
Continuous
100
AcDbLine
 10
-48.29354883834094
 20
-186.5000000000073
 30
0.0
 11
42.70645116165906
 21
-186.5000000000073
 31
0.0
  0
LINE
  5
2F1
330
2EB
100
AcDbEntity
  8
寸法
  6
Continuous
100
AcDbLine
 10
-48.29354883834094
 20
186.4999999999927
 30
0.0
 11
42.70645116165906
 21
186.4999999999927
 31
0.0
  0
LINE
  5
2F2
330
2EB
100
AcDbEntity
  8
寸法
  6
Continuous
100
AcDbLine
 10
42.70645116165906
 20
186.4999999999927
 30
0.0
 11
42.70645116165906
 21
-186.5000000000073
 31
0.0
  0
LWPOLYLINE
  5
2F3
330
2EB
100
AcDbEntity
  8
寸法
  6
Continuous
100
AcDbPolyline
 90
        3
 70
     0
 43
0.0
 10
40.11826071063388
 20
176.8407417371018
 10
42.70645116165906
 20
186.4999999999927
 10
45.29464161268425
 20
176.8407417371018
  0
LWPOLYLINE
  5
2F4
330
2EB
100
AcDbEntity
  8
寸法
  6
Continuous
100
AcDbPolyline
 90
        3
 70
     0
 43
0.0
 10
45.29464161268425
 20
-176.8407417371163
 10
42.70645116165906
 20
-186.5000000000073
 10
40.11826071063388
 20
-176.8407417371163
  0
ENDBLK
  5
2ED
330
2EB
100
AcDbEntity
  8
0
100
AcDbBlockEnd
  0
BLOCK
  5
2FD
330
2FC
100
AcDbEntity
  8
0
100
AcDbBlockBegin
  2
INS-D72SW
 70
     0
 10
0.0
 20
0.0
 30
0.0
  3
INS-D72SW
  1

  0
TEXT
  5
300
330
2FC
100
AcDbEntity
  8
寸法
  6
Continuous
100
AcDbText
 10
-17.69954883834088
 20
-39.06000000000727
 30
0.0
 40
19.982
  1
φ416
 50
90.0
 41
1.041145908602337
 72
     1
 11
-17.69954883834088
 21
-0.000000000007276
 31
0.0
100
AcDbText
  0
LINE
  5
301
330
2FC
100
AcDbEntity
  8
寸法
  6
Continuous
100
AcDbLine
 10
41.30045116165911
 20
-208.0000000000073
 30
0.0
 11
-7.699548838340888
 21
-208.0000000000073
 31
0.0
  0
LINE
  5
302
330
2FC
100
AcDbEntity
  8
寸法
  6
Continuous
100
AcDbLine
 10
41.30045116165911
 20
207.9999999999927
 30
0.0
 11
-7.699548838340888
 21
207.9999999999927
 31
0.0
  0
LINE
  5
303
330
2FC
100
AcDbEntity
  8
寸法
  6
Continuous
100
AcDbLine
 10
-7.699548838340888
 20
207.9999999999927
 30
0.0
 11
-7.699548838340888
 21
-208.0000000000073
 31
0.0
  0
LWPOLYLINE
  5
304
330
2FC
100
AcDbEntity
  8
寸法
  6
Continuous
100
AcDbPolyline
 90
        3
 70
     0
 43
0.0
 10
-10.28773928936607
 20
198.3407417371018
 10
-7.699548838340888
 20
207.9999999999927
 10
-5.111358387315704
 20
198.3407417371018
  0
LWPOLYLINE
  5
305
330
2FC
100
AcDbEntity
  8
寸法
  6
Continuous
100
AcDbPolyline
 90
        3
 70
     0
 43
0.0
 10
-5.111358387315704
 20
-198.3407417371163
 10
-7.699548838340888
 20
-208.0000000000073
 10
-10.28773928936607
 20
-198.3407417371163
  0
ENDBLK
  5
2FE
330
2FC
100
AcDbEntity
  8
0
100
AcDbBlockEnd
  0
BLOCK
  5
30B
330
30A
100
AcDbEntity
  8
0
100
AcDbBlockBegin
  2
INS-DV143
 70
     0
 10
0.0
 20
0.0
 30
0.0
  3
INS-DV143
  1

  0
TEXT
  5
30E
330
30A
100
AcDbEntity
  8
寸法
  6
Continuous
100
AcDbText
 10
-23.57954883834106
 20
19.94999999999345
 30
0.0
 40
19.982
  1
100
 41
1.056781492035411
 72
     1
 11
0.0004511616589298
 21
19.94999999999345
 31
0.0
100
AcDbText
  0
LINE
  5
30F
330
30A
100
AcDbEntity
  8
寸法
  6
Continuous
100
AcDbLine
 10
50.00045116165893
 20
-43.55000000000655
 30
0.0
 11
50.00045116165893
 21
9.949999999993452
 31
0.0
  0
LINE
  5
310
330
30A
100
AcDbEntity
  8
寸法
  6
Continuous
100
AcDbLine
 10
-49.99954883834107
 20
-34.55000000000655
 30
0.0
 11
-49.99954883834107
 21
9.949999999993452
 31
0.0
  0
LINE
  5
311
330
30A
100
AcDbEntity
  8
寸法
  6
Continuous
100
AcDbLine
 10
-49.99954883834107
 20
9.949999999993452
 30
0.0
 11
50.00045116165893
 21
9.949999999993452
 31
0.0
  0
LWPOLYLINE
  5
312
330
30A
100
AcDbEntity
  8
寸法
  6
Continuous
100
AcDbPolyline
 90
        3
 70
     0
 43
0.0
 10
-40.34029057545013
 20
7.361809548969177
 10
-49.99954883834107
 20
9.949999999993452
 10
-40.34029057545013
 20
12.53819045101773
  0
LWPOLYLINE
  5
313
330
30A
100
AcDbEntity
  8
寸法
  6
Continuous
100
AcDbPolyline
 90
        3
 70
     0
 43
0.0
 10
40.34119289876799
 20
12.53819045101773
 10
50.00045116165893
 20
9.949999999993452
 10
40.34119289876799
 20
7.361809548969177
  0
ENDBLK
  5
30C
330
30A
100
AcDbEntity
  8
0
100
AcDbBlockEnd
  0
BLOCK
  5
315
330
314
100
AcDbEntity
  8
0
100
AcDbBlockBegin
  2
INS-D3U9J
 70
     0
 10
0.0
 20
0.0
 30
0.0
  3
INS-D3U9J
  1

  0
TEXT
  5
318
330
314
100
AcDbEntity
  8
寸法
  6
Continuous
100
AcDbText
 10
32.70645116165906
 20
-42.42000000000728
 30
0.0
 40
19.982
  1
φ398
 50
90.0
 41
1.041145908602337
 72
     1
 11
32.70645116165906
 21
-0.0000000000072902
 31
0.0
100
AcDbText
  0
LINE
  5
319
330
314
100
AcDbEntity
  8
寸法
  6
Continuous
100
AcDbLine
 10
-48.29354883834094
 20
-199.0000000000073
 30
0.0
 11
42.70645116165906
 21
-199.0000000000073
 31
0.0
  0
LINE
  5
31A
330
314
100
AcDbEntity
  8
寸法
  6
Continuous
100
AcDbLine
 10
-48.29354883834094
 20
198.9999999999927
 30
0.0
 11
42.70645116165906
 21
198.9999999999927
 31
0.0
  0
LINE
  5
31B
330
314
100
AcDbEntity
  8
寸法
  6
Continuous
100
AcDbLine
 10
42.70645116165906
 20
198.9999999999927
 30
0.0
 11
42.70645116165906
 21
-199.0000000000073
 31
0.0
  0
LWPOLYLINE
  5
31C
330
314
100
AcDbEntity
  8
寸法
  6
Continuous
100
AcDbPolyline
 90
        3
 70
     0
 43
0.0
 10
40.11826071063388
 20
189.3407417371018
 10
42.70645116165906
 20
198.9999999999927
 10
45.29464161268425
 20
189.3407417371018
  0
LWPOLYLINE
  5
31D
330
314
100
AcDbEntity
  8
寸法
  6
Continuous
100
AcDbPolyline
 90
        3
 70
     0
 43
0.0
 10
45.29464161268425
 20
-189.3407417371163
 10
42.70645116165906
 20
-199.0000000000073
 10
40.11826071063388
 20
-189.3407417371163
  0
ENDBLK
  5
316
330
314
100
AcDbEntity
  8
0
100
AcDbBlockEnd
  0
BLOCK
  5
326
330
325
100
AcDbEntity
  8
0
100
AcDbBlockBegin
  2
INS-DB9R6
 70
     0
 10
0.0
 20
0.0
 30
0.0
  3
INS-DB9R6
  1

  0
TEXT
  5
329
330
325
100
AcDbEntity
  8
寸法
  6
Continuous
100
AcDbText
 10
-17.69954883834088
 20
-42.42000000000727
 30
0.0
 40
19.982
  1
φ466
 50
90.0
 41
1.041145908602337
 72
     1
 11
-17.69954883834088
 21
-0.000000000007276
 31
0.0
100
AcDbText
  0
LINE
  5
32A
330
325
100
AcDbEntity
  8
寸法
  6
Continuous
100
AcDbLine
 10
41.30045116165911
 20
-233.0000000000073
 30
0.0
 11
-7.699548838340888
 21
-233.0000000000073
 31
0.0
  0
LINE
  5
32B
330
325
100
AcDbEntity
  8
寸法
  6
Continuous
100
AcDbLine
 10
41.30045116165911
 20
232.9999999999927
 30
0.0
 11
-7.699548838340888
 21
232.9999999999927
 31
0.0
  0
LINE
  5
32C
330
325
100
AcDbEntity
  8
寸法
  6
Continuous
100
AcDbLine
 10
-7.699548838340888
 20
232.9999999999927
 30
0.0
 11
-7.699548838340888
 21
-233.0000000000073
 31
0.0
  0
LWPOLYLINE
  5
32D
330
325
100
AcDbEntity
  8
寸法
  6
Continuous
100
AcDbPolyline
 90
        3
 70
     0
 43
0.0
 10
-10.28773928936607
 20
223.3407417371018
 10
-7.699548838340888
 20
232.9999999999927
 10
-5.111358387315704
 20
223.3407417371018
  0
LWPOLYLINE
  5
32E
330
325
100
AcDbEntity
  8
寸法
  6
Continuous
100
AcDbPolyline
 90
        3
 70
     0
 43
0.0
 10
-5.111358387315704
 20
-223.3407417371163
 10
-7.699548838340888
 20
-233.0000000000073
 10
-10.28773928936607
 20
-223.3407417371163
  0
ENDBLK
  5
327
330
325
100
AcDbEntity
  8
0
100
AcDbBlockEnd
  0
BLOCK
  5
334
330
333
100
AcDbEntity
  8
0
100
AcDbBlockBegin
  2
INS-DD62T
 70
     0
 10
0.0
 20
0.0
 30
0.0
  3
INS-DD62T
  1

  0
TEXT
  5
337
330
333
100
AcDbEntity
  8
寸法
  6
Continuous
100
AcDbText
 10
-23.57954883834106
 20
19.94999999999345
 30
0.0
 40
19.982
  1
100
 41
1.056781492035411
 72
     1
 11
0.0004511616589298
 21
19.94999999999345
 31
0.0
100
AcDbText
  0
LINE
  5
338
330
333
100
AcDbEntity
  8
寸法
  6
Continuous
100
AcDbLine
 10
50.00045116165893
 20
-43.55000000000655
 30
0.0
 11
50.00045116165893
 21
9.949999999993452
 31
0.0
  0
LINE
  5
339
330
333
100
AcDbEntity
  8
寸法
  6
Continuous
100
AcDbLine
 10
-49.99954883834107
 20
-34.55000000000655
 30
0.0
 11
-49.99954883834107
 21
9.949999999993452
 31
0.0
  0
LINE
  5
33A
330
333
100
AcDbEntity
  8
寸法
  6
Continuous
100
AcDbLine
 10
-49.99954883834107
 20
9.949999999993452
 30
0.0
 11
50.00045116165893
 21
9.949999999993452
 31
0.0
  0
LWPOLYLINE
  5
33B
330
333
100
AcDbEntity
  8
寸法
  6
Continuous
100
AcDbPolyline
 90
        3
 70
     0
 43
0.0
 10
-40.34029057545013
 20
7.361809548969177
 10
-49.99954883834107
 20
9.949999999993452
 10
-40.34029057545013
 20
12.53819045101773
  0
LWPOLYLINE
  5
33C
330
333
100
AcDbEntity
  8
寸法
  6
Continuous
100
AcDbPolyline
 90
        3
 70
     0
 43
0.0
 10
40.34119289876799
 20
12.53819045101773
 10
50.00045116165893
 20
9.949999999993452
 10
40.34119289876799
 20
7.361809548969177
  0
ENDBLK
  5
335
330
333
100
AcDbEntity
  8
0
100
AcDbBlockEnd
  0
BLOCK
  5
33E
330
33D
100
AcDbEntity
  8
0
100
AcDbBlockBegin
  2
INS-D503P
 70
     0
 10
0.0
 20
0.0
 30
0.0
  3
INS-D503P
  1

  0
TEXT
  5
341
330
33D
100
AcDbEntity
  8
寸法
  6
Continuous
100
AcDbText
 10
32.70645116165906
 20
-42.42000000000728
 30
0.0
 40
19.982
  1
φ448
 50
90.0
 41
1.041145908602337
 72
     1
 11
32.70645116165906
 21
-0.0000000000072902
 31
0.0
100
AcDbText
  0
LINE
  5
342
330
33D
100
AcDbEntity
  8
寸法
  6
Continuous
100
AcDbLine
 10
-48.29354883834094
 20
-224.0000000000073
 30
0.0
 11
42.70645116165906
 21
-224.0000000000073
 31
0.0
  0
LINE
  5
343
330
33D
100
AcDbEntity
  8
寸法
  6
Continuous
100
AcDbLine
 10
-48.29354883834094
 20
223.9999999999927
 30
0.0
 11
42.70645116165906
 21
223.9999999999927
 31
0.0
  0
LINE
  5
344
330
33D
100
AcDbEntity
  8
寸法
  6
Continuous
100
AcDbLine
 10
42.70645116165906
 20
223.9999999999927
 30
0.0
 11
42.70645116165906
 21
-224.0000000000073
 31
0.0
  0
LWPOLYLINE
  5
345
330
33D
100
AcDbEntity
  8
寸法
  6
Continuous
100
AcDbPolyline
 90
        3
 70
     0
 43
0.0
 10
40.11826071063388
 20
214.3407417371018
 10
42.70645116165906
 20
223.9999999999927
 10
45.29464161268425
 20
214.3407417371018
  0
LWPOLYLINE
  5
346
330
33D
100
AcDbEntity
  8
寸法
  6
Continuous
100
AcDbPolyline
 90
        3
 70
     0
 43
0.0
 10
45.29464161268425
 20
-214.3407417371163
 10
42.70645116165906
 20
-224.0000000000073
 10
40.11826071063388
 20
-214.3407417371163
  0
ENDBLK
  5
33F
330
33D
100
AcDbEntity
  8
0
100
AcDbBlockEnd
  0
BLOCK
  5
34F
330
34E
100
AcDbEntity
  8
0
100
AcDbBlockBegin
  2
INS-D8CIO
 70
     0
 10
0.0
 20
0.0
 30
0.0
  3
INS-D8CIO
  1

  0
TEXT
  5
352
330
34E
100
AcDbEntity
  8
寸法
  6
Continuous
100
AcDbText
 10
-17.69954883834088
 20
-39.06000000000727
 30
0.0
 40
19.982
  1
φ516
 50
90.0
 41
1.041145908602337
 72
     1
 11
-17.69954883834088
 21
-0.000000000007276
 31
0.0
100
AcDbText
  0
LINE
  5
353
330
34E
100
AcDbEntity
  8
寸法
  6
Continuous
100
AcDbLine
 10
41.30045116165911
 20
-258.0000000000073
 30
0.0
 11
-7.699548838340888
 21
-258.0000000000073
 31
0.0
  0
LINE
  5
354
330
34E
100
AcDbEntity
  8
寸法
  6
Continuous
100
AcDbLine
 10
41.30045116165911
 20
257.9999999999927
 30
0.0
 11
-7.699548838340888
 21
257.9999999999927
 31
0.0
  0
LINE
  5
355
330
34E
100
AcDbEntity
  8
寸法
  6
Continuous
100
AcDbLine
 10
-7.699548838340888
 20
257.9999999999927
 30
0.0
 11
-7.699548838340888
 21
-258.0000000000073
 31
0.0
  0
LWPOLYLINE
  5
356
330
34E
100
AcDbEntity
  8
寸法
  6
Continuous
100
AcDbPolyline
 90
        3
 70
     0
 43
0.0
 10
-10.28773928936607
 20
248.3407417371054
 10
-7.699548838340888
 20
257.9999999999927
 10
-5.111358387315704
 20
248.3407417371054
  0
LWPOLYLINE
  5
357
330
34E
100
AcDbEntity
  8
寸法
  6
Continuous
100
AcDbPolyline
 90
        3
 70
     0
 43
0.0
 10
-5.111358387315704
 20
-248.34074173712
 10
-7.699548838340888
 20
-258.0000000000073
 10
-10.28773928936607
 20
-248.34074173712
  0
ENDBLK
  5
350
330
34E
100
AcDbEntity
  8
0
100
AcDbBlockEnd
  0
BLOCK
  5
35D
330
35C
100
AcDbEntity
  8
0
100
AcDbBlockBegin
  2
INS-D96MH
 70
     0
 10
0.0
 20
0.0
 30
0.0
  3
INS-D96MH
  1

  0
TEXT
  5
360
330
35C
100
AcDbEntity
  8
寸法
  6
Continuous
100
AcDbText
 10
-23.57954883834106
 20
19.94999999998981
 30
0.0
 40
19.982
  1
100
 41
1.056781492035411
 72
     1
 11
0.0004511616589298
 21
19.94999999998981
 31
0.0
100
AcDbText
  0
LINE
  5
361
330
35C
100
AcDbEntity
  8
寸法
  6
Continuous
100
AcDbLine
 10
50.00045116165893
 20
-43.55000000001019
 30
0.0
 11
50.00045116165893
 21
9.949999999989814
 31
0.0
  0
LINE
  5
362
330
35C
100
AcDbEntity
  8
寸法
  6
Continuous
100
AcDbLine
 10
-49.99954883834107
 20
-34.55000000001019
 30
0.0
 11
-49.99954883834107
 21
9.949999999989814
 31
0.0
  0
LINE
  5
363
330
35C
100
AcDbEntity
  8
寸法
  6
Continuous
100
AcDbLine
 10
-49.99954883834107
 20
9.949999999989814
 30
0.0
 11
50.00045116165893
 21
9.949999999989814
 31
0.0
  0
LWPOLYLINE
  5
364
330
35C
100
AcDbEntity
  8
寸法
  6
Continuous
100
AcDbPolyline
 90
        3
 70
     0
 43
0.0
 10
-40.34029057545013
 20
7.361809548965539
 10
-49.99954883834107
 20
9.949999999989814
 10
-40.34029057545013
 20
12.53819045101409
  0
LWPOLYLINE
  5
365
330
35C
100
AcDbEntity
  8
寸法
  6
Continuous
100
AcDbPolyline
 90
        3
 70
     0
 43
0.0
 10
40.34119289876799
 20
12.53819045101409
 10
50.00045116165893
 20
9.949999999989814
 10
40.34119289876799
 20
7.361809548965539
  0
ENDBLK
  5
35E
330
35C
100
AcDbEntity
  8
0
100
AcDbBlockEnd
  0
BLOCK
  5
367
330
366
100
AcDbEntity
  8
0
100
AcDbBlockBegin
  2
INS-DVIVM
 70
     0
 10
0.0
 20
0.0
 30
0.0
  3
INS-DVIVM
  1

  0
TEXT
  5
36A
330
366
100
AcDbEntity
  8
寸法
  6
Continuous
100
AcDbText
 10
32.70645116165906
 20
-42.42000000000728
 30
0.0
 40
19.982
  1
φ498
 50
90.0
 41
1.041145908602337
 72
     1
 11
32.70645116165906
 21
-0.0000000000072902
 31
0.0
100
AcDbText
  0
LINE
  5
36B
330
366
100
AcDbEntity
  8
寸法
  6
Continuous
100
AcDbLine
 10
-48.29354883834094
 20
-249.0000000000073
 30
0.0
 11
42.70645116165906
 21
-249.0000000000073
 31
0.0
  0
LINE
  5
36C
330
366
100
AcDbEntity
  8
寸法
  6
Continuous
100
AcDbLine
 10
-48.29354883834094
 20
248.9999999999927
 30
0.0
 11
42.70645116165906
 21
248.9999999999927
 31
0.0
  0
LINE
  5
36D
330
366
100
AcDbEntity
  8
寸法
  6
Continuous
100
AcDbLine
 10
42.70645116165906
 20
248.9999999999927
 30
0.0
 11
42.70645116165906
 21
-249.0000000000073
 31
0.0
  0
LWPOLYLINE
  5
36E
330
366
100
AcDbEntity
  8
寸法
  6
Continuous
100
AcDbPolyline
 90
        3
 70
     0
 43
0.0
 10
40.11826071063388
 20
239.3407417371054
 10
42.70645116165906
 20
248.9999999999927
 10
45.29464161268425
 20
239.3407417371054
  0
LWPOLYLINE
  5
36F
330
366
100
AcDbEntity
  8
寸法
  6
Continuous
100
AcDbPolyline
 90
        3
 70
     0
 43
0.0
 10
45.29464161268425
 20
-239.34074173712
 10
42.70645116165906
 20
-249.0000000000073
 10
40.11826071063388
 20
-239.34074173712
  0
ENDBLK
  5
368
330
366
100
AcDbEntity
  8
0
100
AcDbBlockEnd
  0
ENDSEC
  0
SECTION
  2
ENTITIES
  0
LINE
  5
B9
330
1F
100
AcDbEntity
  8
シンボル
100
AcDbLine
 10
4825.243451161659
 20
-18000.0
 30
0.0
 11
4825.243451161659
 21
-34000.0
 31
0.0
  0
LINE
  5
BA
330
1F
100
AcDbEntity
  8
シンボル
100
AcDbLine
 10
2825.243451161659
 20
-19400.0
 30
0.0
 11
6825.243451161659
 21
-19400.0
 31
0.0
  0
LINE
  5
BB
330
1F
100
AcDbEntity
  8
シンボル
100
AcDbLine
 10
6825.243451161659
 20
-18000.0
 30
0.0
 11
6825.243451161659
 21
-34000.0
 31
0.0
  0
TEXT
  5
BC
330
1F
100
AcDbEntity
  8
03-文字-2
100
AcDbText
 10
5005.243451161627
 20
-18799.90999999987
 30
0.0
 40
199.82
  1
フランジカラー
 41
0.997383736138513
 72
     1
 11
5825.243451161627
 21
-18699.99999999987
 31
0.0
100
AcDbText
 73
     2
  0
LINE
  5
BD
330
1F
100
AcDbEntity
  8
シンボル
100
AcDbLine
 10
2825.243451161659
 20
-18000.0
 30
0.0
 11
6825.243451161659
 21
-18000.0
 31
0.0
  0
LINE
  5
BE
330
1F
100
AcDbEntity
  8
シンボル
100
AcDbLine
 10
2825.243451161659
 20
-18000.0
 30
0.0
 11
2825.243451161659
 21
-34000.0
 31
0.0
  0
LINE
  5
BF
330
1F
100
AcDbEntity
  8
シンボル
100
AcDbLine
 10
2825.243451161659
 20
-18000.0
 30
0.0
 11
4825.243451159127
 21
-19400.0
 31
0.0
  0
TEXT
  5
C0
330
1F
100
AcDbEntity
  8
03-文字-2
100
AcDbText
 10
3219.743451161659
 20
-19899.91
 30
0.0
 40
199.82
  1
管径 φ75
 41
0.997467188737445
 72
     1
 11
3825.243451161659
 21
-19800.0
 31
0.0
100
AcDbText
 73
     2
  0
LINE
  5
C1
330
1F
100
AcDbEntity
  8
シンボル
100
AcDbLine
 10
2825.243451161659
 20
-20200.0
 30
0.0
 11
6825.243451161659
 21
-20200.0
 31
0.0
  0
TEXT
  5
C2
330
1F
100
AcDbEntity
  8
03-文字-2
100
AcDbText
 10
3185.057736876017
 20
-20699.91000000029
 30
0.0
 40
199.82
  1
管径 φ100
 41
0.997383736138513
 72
     1
 11
3825.243451161731
 21
-20600.00000000029
 31
0.0
100
AcDbText
 73
     2
  0
LINE
  5
C3
330
1F
100
AcDbEntity
  8
04-ダクトセンター
100
AcDbLine
 10
5775.243451161659
 20
-19800.0
 30
0.0
 11
5875.243451161659
 21
-19800.0
 31
0.0
  0
TEXT
  5
C4
330
1F
100
AcDbEntity
  8
03-文字-2
100
AcDbText
 10
5433.495117827892
 20
-19973.16889336846
 30
0.0
 40
49.955
  1
フランジカラーφ75-0.6t
 41
0.99712127968442
 72
     1
 11
5825.243451161225
 21
-19948.19139336846
 31
0.0
100
AcDbText
 73
     2
  0
LINE
  5
C5
330
1F
100
AcDbEntity
  8
05-ダクト外線
100
AcDbLine
 10
5775.243451161659
 20
-19755.0
 30
0.0
 11
5775.243451161659
 21
-19845.0
 31
0.0
  0
LINE
  5
C6
330
1F
100
AcDbEntity
  8
05-ダクト外線
100
AcDbLine
 10
5875.243451161659
 20
-19763.5
 30
0.0
 11
5875.243451161659
 21
-19836.5
 31
0.0
  0
LINE
  5
C7
330
1F
100
AcDbEntity
  8
05-ダクト外線
100
AcDbLine
 10
5775.243451161659
 20
-19845.0
 30
0.0
 11
5775.843451161665
 21
-19845.0
 31
0.0
  0
LINE
  5
C8
330
1F
100
AcDbEntity
  8
05-ダクト外線
100
AcDbLine
 10
5775.243451161659
 20
-19755.0
 30
0.0
 11
5775.843451161665
 21
-19755.0
 31
0.0
  0
LINE
  5
C9
330
1F
100
AcDbEntity
  8
05-ダクト外線
100
AcDbLine
 10
5775.843451161665
 20
-19755.0
 30
0.0
 11
5775.843451161665
 21
-19845.0
 31
0.0
  0
INSERT
  5
CD
330
1F
100
AcDbEntity
  8
寸法
100
AcDbBlockReference
  2
INS-D7NPY
 10
5732.943
 20
-19800.0
 30
0.0
  0
LINE
  5
D4
330
1F
100
AcDbEntity
  8
05-ダクト外線
100
AcDbLine
 10
5775.843451161665
 20
-19836.5
 30
0.0
 11
5875.243451161659
 21
-19836.5
 31
0.0
  0
LINE
  5
D5
330
1F
100
AcDbEntity
  8
05-ダクト外線
100
AcDbLine
 10
5775.843451161665
 20
-19763.5
 30
0.0
 11
5875.243451161659
 21
-19763.5
 31
0.0
  0
LINE
  5
D6
330
1F
100
AcDbEntity
  8
06-ダクト内線
  6
DASHED2
 48
0.2
100
AcDbLine
 10
5775.843451161665
 20
-19835.90000000001
 30
0.0
 11
5875.243451161659
 21
-19835.90000000001
 31
0.0
  0
LINE
  5
D7
330
1F
100
AcDbEntity
  8
06-ダクト内線
  6
DASHED2
 48
0.2
100
AcDbLine
 10
5775.843451161665
 20
-19764.1
 30
0.0
 11
5875.243451161659
 21
-19764.1
 31
0.0
  0
INSERT
  5
DB
330
1F
100
AcDbEntity
  8
寸法
100
AcDbBlockReference
  2
INS-DFLSF
 10
5825.243
 20
-19719.2
 30
0.0
  0
INSERT
  5
E5
330
1F
100
AcDbEntity
  8
寸法
100
AcDbBlockReference
  2
INS-DSGM9
 10
5924.537
 20
-19800.0
 30
0.0
  0
LINE
  5
EC
330
1F
100
AcDbEntity
  8
シンボル
100
AcDbLine
 10
2825.243451161659
 20
-21000.0
 30
0.0
 11
6825.243451161659
 21
-21000.0
 31
0.0
  0
TEXT
  5
ED
330
1F
100
AcDbEntity
  8
03-文字-2
100
AcDbText
 10
3151.086308304508
 20
-21499.91
 30
0.0
 40
199.82
  1
管径 φ125
 41
0.997383736138513
 72
     1
 11
3825.243451161651
 21
-21400.0
 31
0.0
100
AcDbText
 73
     2
  0
LINE
  5
EE
330
1F
100
AcDbEntity
  8
シンボル
100
AcDbLine
 10
2825.243451161659
 20
-21800.0
 30
0.0
 11
6825.243451161659
 21
-21800.0
 31
0.0
  0
TEXT
  5
EF
330
1F
100
AcDbEntity
  8
03-文字-2
100
AcDbText
 10
3168.072022590221
 20
-22299.9099999997
 30
0.0
 40
199.82
  1
管径 φ150
 41
0.997383736138513
 72
     1
 11
3825.24345116165
 21
-22199.9999999997
 31
0.0
100
AcDbText
 73
     2
  0
LINE
  5
F0
330
1F
100
AcDbEntity
  8
シンボル
100
AcDbLine
 10
2825.243451161659
 20
-22600.0
 30
0.0
 11
6825.243451161659
 21
-22600.0
 31
0.0
  0
TEXT
  5
F1
330
1F
100
AcDbEntity
  8
03-文字-2
100
AcDbText
 10
3151.086308304508
 20
-23099.91
 30
0.0
 40
199.82
  1
管径 φ175
 41
0.997383736138513
 72
     1
 11
3825.243451161651
 21
-23000.0
 31
0.0
100
AcDbText
 73
     2
  0
LINE
  5
F2
330
1F
100
AcDbEntity
  8
シンボル
100
AcDbLine
 10
2825.243451161659
 20
-23400.0
 30
0.0
 11
6825.243451161659
 21
-23400.0
 31
0.0
  0
TEXT
  5
F3
330
1F
100
AcDbEntity
  8
03-文字-2
100
AcDbText
 10
3152.257736875924
 20
-23899.90999999988
 30
0.0
 40
199.82
  1
管径 φ200
 41
0.997383736138513
 72
     1
 11
3825.243451161638
 21
-23799.99999999988
 31
0.0
100
AcDbText
 73
     2
  0
LINE
  5
F4
330
1F
100
AcDbEntity
  8
シンボル
100
AcDbLine
 10
2825.243451161659
 20
-24200.0
 30
0.0
 11
6825.243451161659
 21
-24200.0
 31
0.0
  0
TEXT
  5
F5
330
1F
100
AcDbEntity
  8
03-文字-2
100
AcDbText
 10
3118.286308304531
 20
-24699.91000000035
 30
0.0
 40
199.82
  1
管径 φ225
 41
0.997383736138513
 72
     1
 11
3825.243451161674
 21
-24600.00000000035
 31
0.0
100
AcDbText
 73
     2
  0
LINE
  5
F6
330
1F
100
AcDbEntity
  8
シンボル
100
AcDbLine
 10
2825.243451161659
 20
-25000.0
 30
0.0
 11
6825.243451161659
 21
-25000.0
 31
0.0
  0
TEXT
  5
F7
330
1F
100
AcDbEntity
  8
03-文字-2
100
AcDbText
 10
3135.272022590304
 20
-25499.90999999996
 30
0.0
 40
199.82
  1
管径 φ250
 41
0.997383736138513
 72
     1
 11
3825.243451161733
 21
-25399.99999999996
 31
0.0
100
AcDbText
 73
     2
  0
LINE
  5
F8
330
1F
100
AcDbEntity
  8
シンボル
100
AcDbLine
 10
2825.243451161659
 20
-25800.0
 30
0.0
 11
6825.243451161659
 21
-25800.0
 31
0.0
  0
TEXT
  5
F9
330
1F
100
AcDbEntity
  8
03-文字-2
100
AcDbText
 10
3118.28630830451
 20
-26299.91000000019
 30
0.0
 40
199.82
  1
管径 φ275
 41
0.997383736138513
 72
     1
 11
3825.243451161653
 21
-26200.00000000019
 31
0.0
100
AcDbText
 73
     2
  0
LINE
  5
FA
330
1F
100
AcDbEntity
  8
シンボル
100
AcDbLine
 10
2825.243451161659
 20
-26600.0
 30
0.0
 11
6825.243451161659
 21
-26600.0
 31
0.0
  0
TEXT
  5
FB
330
1F
100
AcDbEntity
  8
03-文字-2
100
AcDbText
 10
3152.257736875866
 20
-27199.90999999938
 30
0.0
 40
199.82
  1
管径 φ300
 41
0.997383736138513
 72
     1
 11
3825.24345116158
 21
-27099.99999999938
 31
0.0
100
AcDbText
 73
     2
  0
LINE
  5
FC
330
1F
100
AcDbEntity
  8
シンボル
100
AcDbLine
 10
2825.243451161659
 20
-27600.0
 30
0.0
 11
6825.243451161659
 21
-27600.0
 31
0.0
  0
TEXT
  5
FD
330
1F
100
AcDbEntity
  8
03-文字-2
100
AcDbText
 10
3118.286308304531
 20
-28199.91000000034
 30
0.0
 40
199.82
  1
管径 φ325
 41
0.997383736138513
 72
     1
 11
3825.243451161674
 21
-28100.00000000034
 31
0.0
100
AcDbText
 73
     2
  0
LINE
  5
FE
330
1F
100
AcDbEntity
  8
シンボル
100
AcDbLine
 10
2825.243451161659
 20
-28600.0
 30
0.0
 11
6825.243451161659
 21
-28600.0
 31
0.0
  0
TEXT
  5
FF
330
1F
100
AcDbEntity
  8
03-文字-2
100
AcDbText
 10
3135.272022590246
 20
-29199.91000000021
 30
0.0
 40
199.82
  1
管径 φ350
 41
0.997383736138513
 72
     1
 11
3825.243451161674
 21
-29100.00000000021
 31
0.0
100
AcDbText
 73
     2
  0
LINE
  5
100
330
1F
100
AcDbEntity
  8
シンボル
100
AcDbLine
 10
2825.243451161659
 20
-29600.0
 30
0.0
 11
6825.243451161659
 21
-29600.0
 31
0.0
  0
TEXT
  5
101
330
1F
100
AcDbEntity
  8
03-文字-2
100
AcDbText
 10
3118.286308304415
 20
-30199.91
 30
0.0
 40
199.82
  1
管径 φ375
 41
0.997383736138513
 72
     1
 11
3825.243451161558
 21
-30100.0
 31
0.0
100
AcDbText
 73
     2
  0
LINE
  5
102
330
1F
100
AcDbEntity
  8
シンボル
100
AcDbLine
 10
2825.243451161659
 20
-30600.0
 30
0.0
 11
6825.243451161659
 21
-30600.0
 31
0.0
  0
TEXT
  5
103
330
1F
100
AcDbEntity
  8
03-文字-2
100
AcDbText
 10
3152.257736875955
 20
-31199.90999999986
 30
0.0
 40
199.82
  1
管径 φ400
 41
0.997383736138513
 72
     1
 11
3825.243451161669
 21
-31099.99999999986
 31
0.0
100
AcDbText
 73
     2
  0
LINE
  5
104
330
1F
100
AcDbEntity
  8
シンボル
100
AcDbLine
 10
2825.243451161659
 20
-31600.0
 30
0.0
 11
6825.243451161659
 21
-31600.0
 31
0.0
  0
LINE
  5
105
330
1F
100
AcDbEntity
  8
シンボル
100
AcDbLine
 10
2825.243451161659
 20
-32800.0
 30
0.0
 11
6825.243451161659
 21
-32800.0
 31
0.0
  0
TEXT
  5
106
330
1F
100
AcDbEntity
  8
03-文字-2
100
AcDbText
 10
3135.272022590215
 20
-32299.91
 30
0.0
 40
199.82
  1
管径 φ450
 41
0.997383736138513
 72
     1
 11
3825.243451161643
 21
-32200.0
 31
0.0
100
AcDbText
 73
     2
  0
LINE
  5
107
330
1F
100
AcDbEntity
  8
シンボル
100
AcDbLine
 10
2825.243451161659
 20
-34000.0
 30
0.0
 11
6825.243451161659
 21
-34000.0
 31
0.0
  0
TEXT
  5
108
330
1F
100
AcDbEntity
  8
03-文字-2
100
AcDbText
 10
3152.257736876013
 20
-33499.90999999911
 30
0.0
 40
199.82
  1
管径 φ500
 41
0.997383736138513
 72
     1
 11
3825.243451161727
 21
-33399.99999999911
 31
0.0
100
AcDbText
 73
     2
  0
LINE
  5
109
330
1F
100
AcDbEntity
  8
04-ダクトセンター
100
AcDbLine
 10
5775.243451161659
 20
-20600.0
 30
0.0
 11
5875.243451161659
 21
-20600.0
 31
0.0
  0
TEXT
  5
10A
330
1F
100
AcDbEntity
  8
03-文字-2
100
AcDbText
 10
5425.055951161199
 20
-20785.66889337032
 30
0.0
 40
49.955
  1
フランジカラーφ100-0.6t
 41
0.9971071247761646
 72
     1
 11
5825.243451161199
 21
-20760.69139337032
 31
0.0
100
AcDbText
 73
     2
  0
LINE
  5
10B
330
1F
100
AcDbEntity
  8
05-ダクト外線
100
AcDbLine
 10
5775.243451161659
 20
-20542.0
 30
0.0
 11
5775.243451161659
 21
-20658.0
 31
0.0
  0
LINE
  5
10C
330
1F
100
AcDbEntity
  8
05-ダクト外線
100
AcDbLine
 10
5875.243451161659
 20
-20551.0
 30
0.0
 11
5875.243451161659
 21
-20649.0
 31
0.0
  0
LINE
  5
10D
330
1F
100
AcDbEntity
  8
05-ダクト外線
100
AcDbLine
 10
5775.243451161659
 20
-20658.0
 30
0.0
 11
5775.843451161665
 21
-20658.0
 31
0.0
  0
LINE
  5
10E
330
1F
100
AcDbEntity
  8
05-ダクト外線
100
AcDbLine
 10
5775.243451161659
 20
-20542.0
 30
0.0
 11
5775.843451161665
 21
-20542.0
 31
0.0
  0
LINE
  5
10F
330
1F
100
AcDbEntity
  8
05-ダクト外線
100
AcDbLine
 10
5775.843451161665
 20
-20542.0
 30
0.0
 11
5775.843451161665
 21
-20658.0
 31
0.0
  0
INSERT
  5
113
330
1F
100
AcDbEntity
  8
寸法
100
AcDbBlockReference
  2
INS-D3LW6
 10
5732.943
 20
-20600.0
 30
0.0
  0
LINE
  5
11A
330
1F
100
AcDbEntity
  8
05-ダクト外線
100
AcDbLine
 10
5775.843451161665
 20
-20649.0
 30
0.0
 11
5875.243451161659
 21
-20649.0
 31
0.0
  0
LINE
  5
11B
330
1F
100
AcDbEntity
  8
05-ダクト外線
100
AcDbLine
 10
5775.843451161665
 20
-20551.0
 30
0.0
 11
5875.243451161659
 21
-20551.0
 31
0.0
  0
LINE
  5
11C
330
1F
100
AcDbEntity
  8
06-ダクト内線
  6
DASHED2
 48
0.2
100
AcDbLine
 10
5775.843451161665
 20
-20648.40000000001
 30
0.0
 11
5875.243451161659
 21
-20648.40000000001
 31
0.0
  0
LINE
  5
11D
330
1F
100
AcDbEntity
  8
06-ダクト内線
  6
DASHED2
 48
0.2
100
AcDbLine
 10
5775.843451161665
 20
-20551.6
 30
0.0
 11
5875.243451161659
 21
-20551.6
 31
0.0
  0
INSERT
  5
121
330
1F
100
AcDbEntity
  8
寸法
100
AcDbBlockReference
  2
INS-DA1FE
 10
5825.243
 20
-20506.45
 30
0.0
  0
INSERT
  5
12B
330
1F
100
AcDbEntity
  8
寸法
100
AcDbBlockReference
  2
INS-D7MR0
 10
5924.537
 20
-20600.0
 30
0.0
  0
LINE
  5
132
330
1F
100
AcDbEntity
  8
04-ダクトセンター
100
AcDbLine
 10
5775.243451161659
 20
-21400.0
 30
0.0
 11
5875.243451161659
 21
-21400.0
 31
0.0
  0
TEXT
  5
133
330
1F
100
AcDbEntity
  8
03-文字-2
100
AcDbText
 10
5416.446576161463
 20
-21598.16889336948
 30
0.0
 40
49.955
  1
フランジカラーφ125-0.6t
 41
0.9971071247761646
 72
     1
 11
5825.243451161463
 21
-21573.19139336948
 31
0.0
100
AcDbText
 73
     2
  0
LINE
  5
134
330
1F
100
AcDbEntity
  8
05-ダクト外線
100
AcDbLine
 10
5775.243451161659
 20
-21329.5
 30
0.0
 11
5775.243451161659
 21
-21470.5
 31
0.0
  0
LINE
  5
135
330
1F
100
AcDbEntity
  8
05-ダクト外線
100
AcDbLine
 10
5875.243451161659
 20
-21338.5
 30
0.0
 11
5875.243451161659
 21
-21461.5
 31
0.0
  0
LINE
  5
136
330
1F
100
AcDbEntity
  8
05-ダクト外線
100
AcDbLine
 10
5775.243451161659
 20
-21470.5
 30
0.0
 11
5775.843451161665
 21
-21470.5
 31
0.0
  0
LINE
  5
137
330
1F
100
AcDbEntity
  8
05-ダクト外線
100
AcDbLine
 10
5775.243451161659
 20
-21329.5
 30
0.0
 11
5775.843451161665
 21
-21329.5
 31
0.0
  0
LINE
  5
138
330
1F
100
AcDbEntity
  8
05-ダクト外線
100
AcDbLine
 10
5775.843451161665
 20
-21329.5
 30
0.0
 11
5775.843451161665
 21
-21470.5
 31
0.0
  0
INSERT
  5
13C
330
1F
100
AcDbEntity
  8
寸法
100
AcDbBlockReference
  2
INS-D78OA
 10
5732.943
 20
-21400.0
 30
0.0
  0
LINE
  5
143
330
1F
100
AcDbEntity
  8
05-ダクト外線
100
AcDbLine
 10
5775.843451161665
 20
-21461.5
 30
0.0
 11
5875.243451161659
 21
-21461.5
 31
0.0
  0
LINE
  5
144
330
1F
100
AcDbEntity
  8
05-ダクト外線
100
AcDbLine
 10
5775.843451161665
 20
-21338.5
 30
0.0
 11
5875.243451161659
 21
-21338.5
 31
0.0
  0
LINE
  5
145
330
1F
100
AcDbEntity
  8
06-ダクト内線
  6
DASHED2
 48
0.2
100
AcDbLine
 10
5775.843451161665
 20
-21460.90000000001
 30
0.0
 11
5875.243451161659
 21
-21460.90000000001
 31
0.0
  0
LINE
  5
146
330
1F
100
AcDbEntity
  8
06-ダクト内線
  6
DASHED2
 48
0.2
100
AcDbLine
 10
5775.843451161665
 20
-21339.1
 30
0.0
 11
5875.243451161659
 21
-21339.1
 31
0.0
  0
INSERT
  5
14A
330
1F
100
AcDbEntity
  8
寸法
100
AcDbBlockReference
  2
INS-DNDMR
 10
5825.243
 20
-21293.95
 30
0.0
  0
INSERT
  5
154
330
1F
100
AcDbEntity
  8
寸法
100
AcDbBlockReference
  2
INS-DSGG4
 10
5924.537
 20
-21400.0
 30
0.0
  0
LINE
  5
15B
330
1F
100
AcDbEntity
  8
04-ダクトセンター
100
AcDbLine
 10
5775.243451161659
 20
-22200.0
 30
0.0
 11
5875.243451161659
 21
-22200.0
 31
0.0
  0
TEXT
  5
15C
330
1F
100
AcDbEntity
  8
03-文字-2
100
AcDbText
 10
5420.751263661436
 20
-22410.6688933698
 30
0.0
 40
49.955
  1
フランジカラーφ150-0.6t
 41
0.9971071247761646
 72
     1
 11
5825.243451161436
 21
-22385.69139336979
 31
0.0
100
AcDbText
 73
     2
  0
LINE
  5
15D
330
1F
100
AcDbEntity
  8
05-ダクト外線
100
AcDbLine
 10
5775.243451161659
 20
-22117.0
 30
0.0
 11
5775.243451161659
 21
-22283.0
 31
0.0
  0
LINE
  5
15E
330
1F
100
AcDbEntity
  8
05-ダクト外線
100
AcDbLine
 10
5875.243451161659
 20
-22126.0
 30
0.0
 11
5875.243451161659
 21
-22274.0
 31
0.0
  0
LINE
  5
15F
330
1F
100
AcDbEntity
  8
05-ダクト外線
100
AcDbLine
 10
5775.243451161659
 20
-22283.0
 30
0.0
 11
5775.843451161665
 21
-22283.0
 31
0.0
  0
LINE
  5
160
330
1F
100
AcDbEntity
  8
05-ダクト外線
100
AcDbLine
 10
5775.243451161659
 20
-22117.0
 30
0.0
 11
5775.843451161665
 21
-22117.0
 31
0.0
  0
LINE
  5
161
330
1F
100
AcDbEntity
  8
05-ダクト外線
100
AcDbLine
 10
5775.843451161665
 20
-22117.0
 30
0.0
 11
5775.843451161665
 21
-22283.0
 31
0.0
  0
INSERT
  5
165
330
1F
100
AcDbEntity
  8
寸法
100
AcDbBlockReference
  2
INS-D4KXW
 10
5732.943
 20
-22200.0
 30
0.0
  0
LINE
  5
16C
330
1F
100
AcDbEntity
  8
05-ダクト外線
100
AcDbLine
 10
5775.843451161665
 20
-22274.0
 30
0.0
 11
5875.243451161659
 21
-22274.0
 31
0.0
  0
LINE
  5
16D
330
1F
100
AcDbEntity
  8
05-ダクト外線
100
AcDbLine
 10
5775.843451161665
 20
-22126.0
 30
0.0
 11
5875.243451161659
 21
-22126.0
 31
0.0
  0
LINE
  5
16E
330
1F
100
AcDbEntity
  8
06-ダクト内線
  6
DASHED2
 48
0.2
100
AcDbLine
 10
5775.843451161665
 20
-22273.40000000001
 30
0.0
 11
5875.243451161659
 21
-22273.40000000001
 31
0.0
  0
LINE
  5
16F
330
1F
100
AcDbEntity
  8
06-ダクト内線
  6
DASHED2
 48
0.2
100
AcDbLine
 10
5775.843451161665
 20
-22126.6
 30
0.0
 11
5875.243451161659
 21
-22126.6
 31
0.0
  0
INSERT
  5
173
330
1F
100
AcDbEntity
  8
寸法
100
AcDbBlockReference
  2
INS-D63SX
 10
5825.243
 20
-22081.45
 30
0.0
  0
INSERT
  5
17D
330
1F
100
AcDbEntity
  8
寸法
100
AcDbBlockReference
  2
INS-D4XS7
 10
5924.537
 20
-22200.0
 30
0.0
  0
LINE
  5
184
330
1F
100
AcDbEntity
  8
04-ダクトセンター
100
AcDbLine
 10
5775.243451161659
 20
-23000.0
 30
0.0
 11
5875.243451161659
 21
-23000.0
 31
0.0
  0
TEXT
  5
185
330
1F
100
AcDbEntity
  8
03-文字-2
100
AcDbText
 10
5416.446576161929
 20
-23223.16889336893
 30
0.0
 40
49.955
  1
フランジカラーφ175-0.6t
 41
0.9971071247761646
 72
     1
 11
5825.243451161929
 21
-23198.19139336892
 31
0.0
100
AcDbText
 73
     2
  0
LINE
  5
186
330
1F
100
AcDbEntity
  8
05-ダクト外線
100
AcDbLine
 10
5775.243451161659
 20
-22904.5
 30
0.0
 11
5775.243451161659
 21
-23095.5
 31
0.0
  0
LINE
  5
187
330
1F
100
AcDbEntity
  8
05-ダクト外線
100
AcDbLine
 10
5875.243451161659
 20
-22913.5
 30
0.0
 11
5875.243451161659
 21
-23086.5
 31
0.0
  0
LINE
  5
188
330
1F
100
AcDbEntity
  8
05-ダクト外線
100
AcDbLine
 10
5775.243451161659
 20
-23095.5
 30
0.0
 11
5775.843451161665
 21
-23095.5
 31
0.0
  0
LINE
  5
189
330
1F
100
AcDbEntity
  8
05-ダクト外線
100
AcDbLine
 10
5775.243451161659
 20
-22904.5
 30
0.0
 11
5775.843451161665
 21
-22904.5
 31
0.0
  0
LINE
  5
18A
330
1F
100
AcDbEntity
  8
05-ダクト外線
100
AcDbLine
 10
5775.843451161665
 20
-22904.5
 30
0.0
 11
5775.843451161665
 21
-23095.5
 31
0.0
  0
INSERT
  5
18E
330
1F
100
AcDbEntity
  8
寸法
100
AcDbBlockReference
  2
INS-D75LM
 10
5732.943
 20
-23000.0
 30
0.0
  0
LINE
  5
195
330
1F
100
AcDbEntity
  8
05-ダクト外線
100
AcDbLine
 10
5775.843451161665
 20
-23086.5
 30
0.0
 11
5875.243451161659
 21
-23086.5
 31
0.0
  0
LINE
  5
196
330
1F
100
AcDbEntity
  8
05-ダクト外線
100
AcDbLine
 10
5775.843451161665
 20
-22913.5
 30
0.0
 11
5875.243451161659
 21
-22913.5
 31
0.0
  0
LINE
  5
197
330
1F
100
AcDbEntity
  8
06-ダクト内線
  6
DASHED2
 48
0.2
100
AcDbLine
 10
5775.843451161665
 20
-23085.90000000001
 30
0.0
 11
5875.243451161659
 21
-23085.90000000001
 31
0.0
  0
LINE
  5
198
330
1F
100
AcDbEntity
  8
06-ダクト内線
  6
DASHED2
 48
0.2
100
AcDbLine
 10
5775.843451161665
 20
-22914.1
 30
0.0
 11
5875.243451161659
 21
-22914.1
 31
0.0
  0
INSERT
  5
19C
330
1F
100
AcDbEntity
  8
寸法
100
AcDbBlockReference
  2
INS-DJQ7F
 10
5825.243
 20
-22868.95
 30
0.0
  0
INSERT
  5
1A6
330
1F
100
AcDbEntity
  8
寸法
100
AcDbBlockReference
  2
INS-DILS8
 10
5924.537
 20
-23000.0
 30
0.0
  0
LINE
  5
1AD
330
1F
100
AcDbEntity
  8
04-ダクトセンター
100
AcDbLine
 10
5775.243451161659
 20
-23800.0
 30
0.0
 11
5875.243451161659
 21
-23800.0
 31
0.0
  0
TEXT
  5
1AE
330
1F
100
AcDbEntity
  8
03-文字-2
100
AcDbText
 10
5416.743451161861
 20
-24035.66889337013
 30
0.0
 40
49.955
  1
フランジカラーφ200-0.6t
 41
0.9971071247761646
 72
     1
 11
5825.243451161861
 21
-24010.69139337013
 31
0.0
100
AcDbText
 73
     2
  0
LINE
  5
1AF
330
1F
100
AcDbEntity
  8
05-ダクト外線
100
AcDbLine
 10
5775.243451161659
 20
-23692.0
 30
0.0
 11
5775.243451161659
 21
-23908.0
 31
0.0
  0
LINE
  5
1B0
330
1F
100
AcDbEntity
  8
05-ダクト外線
100
AcDbLine
 10
5875.243451161659
 20
-23701.0
 30
0.0
 11
5875.243451161659
 21
-23899.0
 31
0.0
  0
LINE
  5
1B1
330
1F
100
AcDbEntity
  8
05-ダクト外線
100
AcDbLine
 10
5775.243451161659
 20
-23908.0
 30
0.0
 11
5775.843451161665
 21
-23908.0
 31
0.0
  0
LINE
  5
1B2
330
1F
100
AcDbEntity
  8
05-ダクト外線
100
AcDbLine
 10
5775.243451161659
 20
-23692.0
 30
0.0
 11
5775.843451161665
 21
-23692.0
 31
0.0
  0
LINE
  5
1B3
330
1F
100
AcDbEntity
  8
05-ダクト外線
100
AcDbLine
 10
5775.843451161665
 20
-23692.0
 30
0.0
 11
5775.843451161665
 21
-23908.0
 31
0.0
  0
INSERT
  5
1B7
330
1F
100
AcDbEntity
  8
寸法
100
AcDbBlockReference
  2
INS-DKRN1
 10
5732.943
 20
-23800.0
 30
0.0
  0
LINE
  5
1BE
330
1F
100
AcDbEntity
  8
05-ダクト外線
100
AcDbLine
 10
5775.843451161665
 20
-23899.0
 30
0.0
 11
5875.243451161659
 21
-23899.0
 31
0.0
  0
LINE
  5
1BF
330
1F
100
AcDbEntity
  8
05-ダクト外線
100
AcDbLine
 10
5775.843451161665
 20
-23701.0
 30
0.0
 11
5875.243451161659
 21
-23701.0
 31
0.0
  0
LINE
  5
1C0
330
1F
100
AcDbEntity
  8
06-ダクト内線
  6
DASHED2
 48
0.2
100
AcDbLine
 10
5775.843451161665
 20
-23898.40000000001
 30
0.0
 11
5875.243451161659
 21
-23898.40000000001
 31
0.0
  0
LINE
  5
1C1
330
1F
100
AcDbEntity
  8
06-ダクト内線
  6
DASHED2
 48
0.2
100
AcDbLine
 10
5775.843451161665
 20
-23701.6
 30
0.0
 11
5875.243451161659
 21
-23701.6
 31
0.0
  0
INSERT
  5
1C5
330
1F
100
AcDbEntity
  8
寸法
100
AcDbBlockReference
  2
INS-D5OH1
 10
5825.243
 20
-23656.45
 30
0.0
  0
INSERT
  5
1CF
330
1F
100
AcDbEntity
  8
寸法
100
AcDbBlockReference
  2
INS-D78BR
 10
5924.537
 20
-23800.0
 30
0.0
  0
LINE
  5
1D6
330
1F
100
AcDbEntity
  8
04-ダクトセンター
100
AcDbLine
 10
5775.243451161659
 20
-24600.0
 30
0.0
 11
5875.243451161659
 21
-24600.0
 31
0.0
  0
TEXT
  5
1D7
330
1F
100
AcDbEntity
  8
03-文字-2
100
AcDbText
 10
5408.134076161659
 20
-24848.16889336939
 30
0.0
 40
49.955
  1
フランジカラーφ225-0.6t
 41
0.9971071247761646
 72
     1
 11
5825.243451161659
 21
-24823.19139336939
 31
0.0
100
AcDbText
 73
     2
  0
LINE
  5
1D8
330
1F
100
AcDbEntity
  8
05-ダクト外線
100
AcDbLine
 10
5775.243451161659
 20
-24479.5
 30
0.0
 11
5775.243451161659
 21
-24720.5
 31
0.0
  0
LINE
  5
1D9
330
1F
100
AcDbEntity
  8
05-ダクト外線
100
AcDbLine
 10
5875.243451161659
 20
-24488.5
 30
0.0
 11
5875.243451161659
 21
-24711.5
 31
0.0
  0
LINE
  5
1DA
330
1F
100
AcDbEntity
  8
05-ダクト外線
100
AcDbLine
 10
5775.243451161659
 20
-24720.5
 30
0.0
 11
5775.843451161665
 21
-24720.5
 31
0.0
  0
LINE
  5
1DB
330
1F
100
AcDbEntity
  8
05-ダクト外線
100
AcDbLine
 10
5775.243451161659
 20
-24479.5
 30
0.0
 11
5775.843451161665
 21
-24479.5
 31
0.0
  0
LINE
  5
1DC
330
1F
100
AcDbEntity
  8
05-ダクト外線
100
AcDbLine
 10
5775.843451161665
 20
-24479.5
 30
0.0
 11
5775.843451161665
 21
-24720.5
 31
0.0
  0
INSERT
  5
1E0
330
1F
100
AcDbEntity
  8
寸法
100
AcDbBlockReference
  2
INS-D7B96
 10
5732.943
 20
-24600.0
 30
0.0
  0
LINE
  5
1E7
330
1F
100
AcDbEntity
  8
05-ダクト外線
100
AcDbLine
 10
5775.843451161665
 20
-24711.5
 30
0.0
 11
5875.243451161659
 21
-24711.5
 31
0.0
  0
LINE
  5
1E8
330
1F
100
AcDbEntity
  8
05-ダクト外線
100
AcDbLine
 10
5775.843451161665
 20
-24488.5
 30
0.0
 11
5875.243451161659
 21
-24488.5
 31
0.0
  0
LINE
  5
1E9
330
1F
100
AcDbEntity
  8
06-ダクト内線
  6
DASHED2
 48
0.2
100
AcDbLine
 10
5775.843451161665
 20
-24710.90000000001
 30
0.0
 11
5875.243451161659
 21
-24710.90000000001
 31
0.0
  0
LINE
  5
1EA
330
1F
100
AcDbEntity
  8
06-ダクト内線
  6
DASHED2
 48
0.2
100
AcDbLine
 10
5775.843451161665
 20
-24489.1
 30
0.0
 11
5875.243451161659
 21
-24489.1
 31
0.0
  0
INSERT
  5
1EE
330
1F
100
AcDbEntity
  8
寸法
100
AcDbBlockReference
  2
INS-D6E5D
 10
5825.243
 20
-24443.95
 30
0.0
  0
INSERT
  5
1F8
330
1F
100
AcDbEntity
  8
寸法
100
AcDbBlockReference
  2
INS-DO3Q4
 10
5924.537
 20
-24600.0
 30
0.0
  0
LINE
  5
1FF
330
1F
100
AcDbEntity
  8
04-ダクトセンター
100
AcDbLine
 10
5775.243451161659
 20
-25400.0
 30
0.0
 11
5875.243451161659
 21
-25400.0
 31
0.0
  0
TEXT
  5
200
330
1F
100
AcDbEntity
  8
03-文字-2
100
AcDbText
 10
5412.438763661659
 20
-25660.66889336939
 30
0.0
 40
49.955
  1
フランジカラーφ250-0.6t
 41
0.9971071247761646
 72
     1
 11
5825.243451161659
 21
-25635.69139336939
 31
0.0
100
AcDbText
 73
     2
  0
LINE
  5
201
330
1F
100
AcDbEntity
  8
05-ダクト外線
100
AcDbLine
 10
5775.243451161659
 20
-25267.0
 30
0.0
 11
5775.243451161659
 21
-25533.0
 31
0.0
  0
LINE
  5
202
330
1F
100
AcDbEntity
  8
05-ダクト外線
100
AcDbLine
 10
5875.243451161659
 20
-25276.0
 30
0.0
 11
5875.243451161659
 21
-25524.0
 31
0.0
  0
LINE
  5
203
330
1F
100
AcDbEntity
  8
05-ダクト外線
100
AcDbLine
 10
5775.243451161659
 20
-25533.0
 30
0.0
 11
5775.843451161665
 21
-25533.0
 31
0.0
  0
LINE
  5
204
330
1F
100
AcDbEntity
  8
05-ダクト外線
100
AcDbLine
 10
5775.243451161659
 20
-25267.0
 30
0.0
 11
5775.843451161665
 21
-25267.0
 31
0.0
  0
LINE
  5
205
330
1F
100
AcDbEntity
  8
05-ダクト外線
100
AcDbLine
 10
5775.843451161665
 20
-25267.0
 30
0.0
 11
5775.843451161665
 21
-25533.0
 31
0.0
  0
INSERT
  5
209
330
1F
100
AcDbEntity
  8
寸法
100
AcDbBlockReference
  2
INS-D62OV
 10
5732.943
 20
-25400.0
 30
0.0
  0
LINE
  5
210
330
1F
100
AcDbEntity
  8
05-ダクト外線
100
AcDbLine
 10
5775.843451161665
 20
-25524.0
 30
0.0
 11
5875.243451161659
 21
-25524.0
 31
0.0
  0
LINE
  5
211
330
1F
100
AcDbEntity
  8
05-ダクト外線
100
AcDbLine
 10
5775.843451161665
 20
-25276.0
 30
0.0
 11
5875.243451161659
 21
-25276.0
 31
0.0
  0
LINE
  5
212
330
1F
100
AcDbEntity
  8
06-ダクト内線
  6
DASHED2
 48
0.2
100
AcDbLine
 10
5775.843451161665
 20
-25523.40000000001
 30
0.0
 11
5875.243451161659
 21
-25523.40000000001
 31
0.0
  0
LINE
  5
213
330
1F
100
AcDbEntity
  8
06-ダクト内線
  6
DASHED2
 48
0.2
100
AcDbLine
 10
5775.843451161665
 20
-25276.6
 30
0.0
 11
5875.243451161659
 21
-25276.6
 31
0.0
  0
INSERT
  5
217
330
1F
100
AcDbEntity
  8
寸法
100
AcDbBlockReference
  2
INS-DBUYV
 10
5825.243
 20
-25231.45
 30
0.0
  0
INSERT
  5
221
330
1F
100
AcDbEntity
  8
寸法
100
AcDbBlockReference
  2
INS-D89KT
 10
5924.537
 20
-25400.0
 30
0.0
  0
LINE
  5
228
330
1F
100
AcDbEntity
  8
04-ダクトセンター
100
AcDbLine
 10
5775.243451161659
 20
-26200.0
 30
0.0
 11
5875.243451161659
 21
-26200.0
 31
0.0
  0
TEXT
  5
229
330
1F
100
AcDbEntity
  8
03-文字-2
100
AcDbText
 10
5408.134076162125
 20
-26473.16889337125
 30
0.0
 40
49.955
  1
フランジカラーφ275-0.6t
 41
0.9971071247761646
 72
     1
 11
5825.243451162125
 21
-26448.19139337125
 31
0.0
100
AcDbText
 73
     2
  0
LINE
  5
22A
330
1F
100
AcDbEntity
  8
05-ダクト外線
100
AcDbLine
 10
5775.243451161659
 20
-26054.5
 30
0.0
 11
5775.243451161659
 21
-26345.5
 31
0.0
  0
LINE
  5
22B
330
1F
100
AcDbEntity
  8
05-ダクト外線
100
AcDbLine
 10
5875.243451161659
 20
-26063.5
 30
0.0
 11
5875.243451161659
 21
-26336.5
 31
0.0
  0
LINE
  5
22C
330
1F
100
AcDbEntity
  8
05-ダクト外線
100
AcDbLine
 10
5775.243451161659
 20
-26345.5
 30
0.0
 11
5775.843451161665
 21
-26345.5
 31
0.0
  0
LINE
  5
22D
330
1F
100
AcDbEntity
  8
05-ダクト外線
100
AcDbLine
 10
5775.243451161659
 20
-26054.5
 30
0.0
 11
5775.843451161665
 21
-26054.5
 31
0.0
  0
LINE
  5
22E
330
1F
100
AcDbEntity
  8
05-ダクト外線
100
AcDbLine
 10
5775.843451161665
 20
-26054.5
 30
0.0
 11
5775.843451161665
 21
-26345.5
 31
0.0
  0
INSERT
  5
232
330
1F
100
AcDbEntity
  8
寸法
100
AcDbBlockReference
  2
INS-DPQBC
 10
5732.943
 20
-26200.0
 30
0.0
  0
LINE
  5
239
330
1F
100
AcDbEntity
  8
05-ダクト外線
100
AcDbLine
 10
5775.843451161665
 20
-26336.5
 30
0.0
 11
5875.243451161659
 21
-26336.5
 31
0.0
  0
LINE
  5
23A
330
1F
100
AcDbEntity
  8
05-ダクト外線
100
AcDbLine
 10
5775.843451161665
 20
-26063.5
 30
0.0
 11
5875.243451161659
 21
-26063.5
 31
0.0
  0
LINE
  5
23B
330
1F
100
AcDbEntity
  8
06-ダクト内線
  6
DASHED2
 48
0.2
100
AcDbLine
 10
5775.843451161665
 20
-26335.90000000001
 30
0.0
 11
5875.243451161659
 21
-26335.90000000001
 31
0.0
  0
LINE
  5
23C
330
1F
100
AcDbEntity
  8
06-ダクト内線
  6
DASHED2
 48
0.2
100
AcDbLine
 10
5775.843451161665
 20
-26064.1
 30
0.0
 11
5875.243451161659
 21
-26064.1
 31
0.0
  0
INSERT
  5
240
330
1F
100
AcDbEntity
  8
寸法
100
AcDbBlockReference
  2
INS-D4SXQ
 10
5825.243
 20
-26018.95
 30
0.0
  0
INSERT
  5
24A
330
1F
100
AcDbEntity
  8
寸法
100
AcDbBlockReference
  2
INS-DFEUT
 10
5924.537
 20
-26200.0
 30
0.0
  0
LINE
  5
251
330
1F
100
AcDbEntity
  8
04-ダクトセンター
100
AcDbLine
 10
5775.243451161659
 20
-27100.0
 30
0.0
 11
5875.243451161659
 21
-27100.0
 31
0.0
  0
TEXT
  5
252
330
1F
100
AcDbEntity
  8
03-文字-2
100
AcDbText
 10
5416.743451161597
 20
-27385.66889336942
 30
0.0
 40
49.955
  1
フランジカラーφ300-0.6t
 41
0.9971071247761646
 72
     1
 11
5825.243451161597
 21
-27360.69139336942
 31
0.0
100
AcDbText
 73
     2
  0
LINE
  5
253
330
1F
100
AcDbEntity
  8
05-ダクト外線
100
AcDbLine
 10
5775.243451161659
 20
-26942.0
 30
0.0
 11
5775.243451161659
 21
-27258.0
 31
0.0
  0
LINE
  5
254
330
1F
100
AcDbEntity
  8
05-ダクト外線
100
AcDbLine
 10
5875.243451161659
 20
-26951.0
 30
0.0
 11
5875.243451161659
 21
-27249.0
 31
0.0
  0
LINE
  5
255
330
1F
100
AcDbEntity
  8
05-ダクト外線
100
AcDbLine
 10
5775.243451161659
 20
-27258.0
 30
0.0
 11
5775.843451161665
 21
-27258.0
 31
0.0
  0
LINE
  5
256
330
1F
100
AcDbEntity
  8
05-ダクト外線
100
AcDbLine
 10
5775.243451161659
 20
-26942.0
 30
0.0
 11
5775.843451161665
 21
-26942.0
 31
0.0
  0
LINE
  5
257
330
1F
100
AcDbEntity
  8
05-ダクト外線
100
AcDbLine
 10
5775.843451161665
 20
-26942.0
 30
0.0
 11
5775.843451161665
 21
-27258.0
 31
0.0
  0
INSERT
  5
25B
330
1F
100
AcDbEntity
  8
寸法
100
AcDbBlockReference
  2
INS-D727M
 10
5732.943
 20
-27100.0
 30
0.0
  0
LINE
  5
262
330
1F
100
AcDbEntity
  8
05-ダクト外線
100
AcDbLine
 10
5775.843451161665
 20
-27249.0
 30
0.0
 11
5875.243451161659
 21
-27249.0
 31
0.0
  0
LINE
  5
263
330
1F
100
AcDbEntity
  8
05-ダクト外線
100
AcDbLine
 10
5775.843451161665
 20
-26951.0
 30
0.0
 11
5875.243451161659
 21
-26951.0
 31
0.0
  0
LINE
  5
264
330
1F
100
AcDbEntity
  8
06-ダクト内線
  6
DASHED2
 48
0.2
100
AcDbLine
 10
5775.843451161665
 20
-27248.40000000001
 30
0.0
 11
5875.243451161659
 21
-27248.40000000001
 31
0.0
  0
LINE
  5
265
330
1F
100
AcDbEntity
  8
06-ダクト内線
  6
DASHED2
 48
0.2
100
AcDbLine
 10
5775.843451161665
 20
-26951.6
 30
0.0
 11
5875.243451161659
 21
-26951.6
 31
0.0
  0
INSERT
  5
269
330
1F
100
AcDbEntity
  8
寸法
100
AcDbBlockReference
  2
INS-DBRZD
 10
5825.243
 20
-26906.45
 30
0.0
  0
INSERT
  5
273
330
1F
100
AcDbEntity
  8
寸法
100
AcDbBlockReference
  2
INS-DVTBV
 10
5924.537
 20
-27100.0
 30
0.0
  0
LINE
  5
27A
330
1F
100
AcDbEntity
  8
04-ダクトセンター
100
AcDbLine
 10
5775.243451161659
 20
-28100.0
 30
0.0
 11
5875.243451161659
 21
-28100.0
 31
0.0
  0
TEXT
  5
27B
330
1F
100
AcDbEntity
  8
03-文字-2
100
AcDbText
 10
5408.134076161809
 20
-28385.66889337053
 30
0.0
 40
49.955
  1
フランジカラーφ325-0.8t
 41
0.9971071247761646
 72
     1
 11
5825.243451161809
 21
-28360.69139337053
 31
0.0
100
AcDbText
 73
     2
  0
LINE
  5
27C
330
1F
100
AcDbEntity
  8
05-ダクト外線
100
AcDbLine
 10
5775.243451161659
 20
-27929.5
 30
0.0
 11
5775.243451161659
 21
-28270.5
 31
0.0
  0
LINE
  5
27D
330
1F
100
AcDbEntity
  8
05-ダクト外線
100
AcDbLine
 10
5875.243451161659
 20
-27938.5
 30
0.0
 11
5875.243451161659
 21
-28261.5
 31
0.0
  0
LINE
  5
27E
330
1F
100
AcDbEntity
  8
05-ダクト外線
100
AcDbLine
 10
5775.243451161659
 20
-28270.5
 30
0.0
 11
5776.043451161648
 21
-28270.5
 31
0.0
  0
LINE
  5
27F
330
1F
100
AcDbEntity
  8
05-ダクト外線
100
AcDbLine
 10
5775.243451161659
 20
-27929.5
 30
0.0
 11
5776.043451161648
 21
-27929.5
 31
0.0
  0
LINE
  5
280
330
1F
100
AcDbEntity
  8
05-ダクト外線
100
AcDbLine
 10
5776.043451161648
 20
-27929.5
 30
0.0
 11
5776.043451161648
 21
-28270.5
 31
0.0
  0
INSERT
  5
284
330
1F
100
AcDbEntity
  8
寸法
100
AcDbBlockReference
  2
INS-D8LLO
 10
5732.943
 20
-28100.0
 30
0.0
  0
LINE
  5
28B
330
1F
100
AcDbEntity
  8
05-ダクト外線
100
AcDbLine
 10
5776.043451161648
 20
-28261.5
 30
0.0
 11
5875.243451161659
 21
-28261.5
 31
0.0
  0
LINE
  5
28C
330
1F
100
AcDbEntity
  8
05-ダクト外線
100
AcDbLine
 10
5776.043451161648
 20
-27938.5
 30
0.0
 11
5875.243451161659
 21
-27938.5
 31
0.0
  0
LINE
  5
28D
330
1F
100
AcDbEntity
  8
06-ダクト内線
  6
DASHED2
 62
    20
 48
0.2
100
AcDbLine
 10
5776.043451161648
 20
-28260.7
 30
0.0
 11
5875.243451161659
 21
-28260.7
 31
0.0
  0
LINE
  5
28E
330
1F
100
AcDbEntity
  8
06-ダクト内線
  6
DASHED2
 62
    20
 48
0.2
100
AcDbLine
 10
5776.043451161648
 20
-27939.3
 30
0.0
 11
5875.243451161659
 21
-27939.3
 31
0.0
  0
INSERT
  5
292
330
1F
100
AcDbEntity
  8
寸法
100
AcDbBlockReference
  2
INS-D5L65
 10
5825.243
 20
-27893.95
 30
0.0
  0
INSERT
  5
29C
330
1F
100
AcDbEntity
  8
寸法
100
AcDbBlockReference
  2
INS-D82W5
 10
5924.537
 20
-28100.0
 30
0.0
  0
LINE
  5
2A3
330
1F
100
AcDbEntity
  8
04-ダクトセンター
100
AcDbLine
 10
5775.243451161659
 20
-29100.00000000001
 30
0.0
 11
5875.243451161659
 21
-29100.00000000001
 31
0.0
  0
TEXT
  5
2A4
330
1F
100
AcDbEntity
  8
03-文字-2
100
AcDbText
 10
5412.438763662125
 20
-29398.16889337125
 30
0.0
 40
49.955
  1
フランジカラーφ350-0.8t
 41
0.9971071247761646
 72
     1
 11
5825.243451162125
 21
-29373.19139337125
 31
0.0
100
AcDbText
 73
     2
  0
LINE
  5
2A5
330
1F
100
AcDbEntity
  8
05-ダクト外線
100
AcDbLine
 10
5775.243451161659
 20
-28917.00000000001
 30
0.0
 11
5775.243451161659
 21
-29283.00000000001
 31
0.0
  0
LINE
  5
2A6
330
1F
100
AcDbEntity
  8
05-ダクト外線
100
AcDbLine
 10
5875.243451161659
 20
-28926.00000000001
 30
0.0
 11
5875.243451161659
 21
-29274.00000000001
 31
0.0
  0
LINE
  5
2A7
330
1F
100
AcDbEntity
  8
05-ダクト外線
100
AcDbLine
 10
5775.243451161659
 20
-29283.00000000001
 30
0.0
 11
5776.043451161648
 21
-29283.00000000001
 31
0.0
  0
LINE
  5
2A8
330
1F
100
AcDbEntity
  8
05-ダクト外線
100
AcDbLine
 10
5775.243451161659
 20
-28917.00000000001
 30
0.0
 11
5776.043451161648
 21
-28917.00000000001
 31
0.0
  0
LINE
  5
2A9
330
1F
100
AcDbEntity
  8
05-ダクト外線
100
AcDbLine
 10
5776.043451161648
 20
-28917.00000000001
 30
0.0
 11
5776.043451161648
 21
-29283.00000000001
 31
0.0
  0
INSERT
  5
2AD
330
1F
100
AcDbEntity
  8
寸法
100
AcDbBlockReference
  2
INS-D9528
 10
5732.943
 20
-29100.0
 30
0.0
  0
LINE
  5
2B4
330
1F
100
AcDbEntity
  8
05-ダクト外線
100
AcDbLine
 10
5776.043451161648
 20
-29274.00000000001
 30
0.0
 11
5875.243451161659
 21
-29274.00000000001
 31
0.0
  0
LINE
  5
2B5
330
1F
100
AcDbEntity
  8
05-ダクト外線
100
AcDbLine
 10
5776.043451161648
 20
-28926.00000000001
 30
0.0
 11
5875.243451161659
 21
-28926.00000000001
 31
0.0
  0
LINE
  5
2B6
330
1F
100
AcDbEntity
  8
06-ダクト内線
  6
DASHED2
 62
    20
 48
0.2
100
AcDbLine
 10
5776.043451161648
 20
-29273.20000000001
 30
0.0
 11
5875.243451161659
 21
-29273.20000000001
 31
0.0
  0
LINE
  5
2B7
330
1F
100
AcDbEntity
  8
06-ダクト内線
  6
DASHED2
 62
    20
 48
0.2
100
AcDbLine
 10
5776.043451161648
 20
-28926.80000000001
 30
0.0
 11
5875.243451161659
 21
-28926.80000000001
 31
0.0
  0
INSERT
  5
2BB
330
1F
100
AcDbEntity
  8
寸法
100
AcDbBlockReference
  2
INS-D7BGV
 10
5825.243
 20
-28881.45
 30
0.0
  0
INSERT
  5
2C5
330
1F
100
AcDbEntity
  8
寸法
100
AcDbBlockReference
  2
INS-D9LG9
 10
5924.537
 20
-29100.0
 30
0.0
  0
LINE
  5
2CC
330
1F
100
AcDbEntity
  8
04-ダクトセンター
100
AcDbLine
 10
5775.243451161659
 20
-30100.00000000001
 30
0.0
 11
5875.243451161659
 21
-30100.00000000001
 31
0.0
  0
TEXT
  5
2CD
330
1F
100
AcDbEntity
  8
03-文字-2
100
AcDbText
 10
5408.134076162125
 20
-30410.66889337312
 30
0.0
 40
49.955
  1
フランジカラーφ375-0.8t
 41
0.9971071247761646
 72
     1
 11
5825.243451162125
 21
-30385.69139337312
 31
0.0
100
AcDbText
 73
     2
  0
LINE
  5
2CE
330
1F
100
AcDbEntity
  8
05-ダクト外線
100
AcDbLine
 10
5775.243451161659
 20
-29904.50000000001
 30
0.0
 11
5775.243451161659
 21
-30295.50000000001
 31
0.0
  0
LINE
  5
2CF
330
1F
100
AcDbEntity
  8
05-ダクト外線
100
AcDbLine
 10
5875.243451161659
 20
-29913.50000000001
 30
0.0
 11
5875.243451161659
 21
-30286.50000000001
 31
0.0
  0
LINE
  5
2D0
330
1F
100
AcDbEntity
  8
05-ダクト外線
100
AcDbLine
 10
5775.243451161659
 20
-30295.50000000001
 30
0.0
 11
5776.043451161648
 21
-30295.50000000001
 31
0.0
  0
LINE
  5
2D1
330
1F
100
AcDbEntity
  8
05-ダクト外線
100
AcDbLine
 10
5775.243451161659
 20
-29904.50000000001
 30
0.0
 11
5776.043451161648
 21
-29904.50000000001
 31
0.0
  0
LINE
  5
2D2
330
1F
100
AcDbEntity
  8
05-ダクト外線
100
AcDbLine
 10
5776.043451161648
 20
-29904.50000000001
 30
0.0
 11
5776.043451161648
 21
-30295.50000000001
 31
0.0
  0
INSERT
  5
2D6
330
1F
100
AcDbEntity
  8
寸法
100
AcDbBlockReference
  2
INS-D7Z34
 10
5732.943
 20
-30100.0
 30
0.0
  0
LINE
  5
2DD
330
1F
100
AcDbEntity
  8
05-ダクト外線
100
AcDbLine
 10
5776.043451161648
 20
-30286.50000000001
 30
0.0
 11
5875.243451161659
 21
-30286.50000000001
 31
0.0
  0
LINE
  5
2DE
330
1F
100
AcDbEntity
  8
05-ダクト外線
100
AcDbLine
 10
5776.043451161648
 20
-29913.50000000001
 30
0.0
 11
5875.243451161659
 21
-29913.50000000001
 31
0.0
  0
LINE
  5
2DF
330
1F
100
AcDbEntity
  8
06-ダクト内線
  6
DASHED2
 62
    20
 48
0.2
100
AcDbLine
 10
5776.043451161648
 20
-30285.70000000001
 30
0.0
 11
5875.243451161659
 21
-30285.70000000001
 31
0.0
  0
LINE
  5
2E0
330
1F
100
AcDbEntity
  8
06-ダクト内線
  6
DASHED2
 62
    20
 48
0.2
100
AcDbLine
 10
5776.043451161648
 20
-29914.30000000001
 30
0.0
 11
5875.243451161659
 21
-29914.30000000001
 31
0.0
  0
INSERT
  5
2E4
330
1F
100
AcDbEntity
  8
寸法
100
AcDbBlockReference
  2
INS-D64VN
 10
5825.243
 20
-29868.95
 30
0.0
  0
INSERT
  5
2EE
330
1F
100
AcDbEntity
  8
寸法
100
AcDbBlockReference
  2
INS-DR0I2
 10
5924.537
 20
-30100.0
 30
0.0
  0
LINE
  5
2F5
330
1F
100
AcDbEntity
  8
04-ダクトセンター
100
AcDbLine
 10
5775.243451161659
 20
-31100.00000000001
 30
0.0
 11
5875.243451161659
 21
-31100.00000000001
 31
0.0
  0
TEXT
  5
2F6
330
1F
100
AcDbEntity
  8
03-文字-2
100
AcDbText
 10
5416.743451162063
 20
-31423.16889337203
 30
0.0
 40
49.955
  1
フランジカラーφ400-0.8t
 41
0.9971071247761646
 72
     1
 11
5825.243451162063
 21
-31398.19139337202
 31
0.0
100
AcDbText
 73
     2
  0
LINE
  5
2F7
330
1F
100
AcDbEntity
  8
05-ダクト外線
100
AcDbLine
 10
5775.243451161659
 20
-30892.00000000001
 30
0.0
 11
5775.243451161659
 21
-31308.00000000001
 31
0.0
  0
LINE
  5
2F8
330
1F
100
AcDbEntity
  8
05-ダクト外線
100
AcDbLine
 10
5875.243451161659
 20
-30901.00000000001
 30
0.0
 11
5875.243451161659
 21
-31299.00000000001
 31
0.0
  0
LINE
  5
2F9
330
1F
100
AcDbEntity
  8
05-ダクト外線
100
AcDbLine
 10
5775.243451161659
 20
-31308.00000000001
 30
0.0
 11
5776.043451161648
 21
-31308.00000000001
 31
0.0
  0
LINE
  5
2FA
330
1F
100
AcDbEntity
  8
05-ダクト外線
100
AcDbLine
 10
5775.243451161659
 20
-30892.00000000001
 30
0.0
 11
5776.043451161648
 21
-30892.00000000001
 31
0.0
  0
LINE
  5
2FB
330
1F
100
AcDbEntity
  8
05-ダクト外線
100
AcDbLine
 10
5776.043451161648
 20
-30892.00000000001
 30
0.0
 11
5776.043451161648
 21
-31308.00000000001
 31
0.0
  0
INSERT
  5
2FF
330
1F
100
AcDbEntity
  8
寸法
100
AcDbBlockReference
  2
INS-D72SW
 10
5732.943
 20
-31100.0
 30
0.0
  0
LINE
  5
306
330
1F
100
AcDbEntity
  8
05-ダクト外線
100
AcDbLine
 10
5776.043451161648
 20
-31299.00000000001
 30
0.0
 11
5875.243451161659
 21
-31299.00000000001
 31
0.0
  0
LINE
  5
307
330
1F
100
AcDbEntity
  8
05-ダクト外線
100
AcDbLine
 10
5776.043451161648
 20
-30901.00000000001
 30
0.0
 11
5875.243451161659
 21
-30901.00000000001
 31
0.0
  0
LINE
  5
308
330
1F
100
AcDbEntity
  8
06-ダクト内線
  6
DASHED2
 62
    20
 48
0.2
100
AcDbLine
 10
5776.043451161648
 20
-31298.20000000001
 30
0.0
 11
5875.243451161659
 21
-31298.20000000001
 31
0.0
  0
LINE
  5
309
330
1F
100
AcDbEntity
  8
06-ダクト内線
  6
DASHED2
 62
    20
 48
0.2
100
AcDbLine
 10
5776.043451161648
 20
-30901.80000000001
 30
0.0
 11
5875.243451161659
 21
-30901.80000000001
 31
0.0
  0
INSERT
  5
30D
330
1F
100
AcDbEntity
  8
寸法
100
AcDbBlockReference
  2
INS-DV143
 10
5825.243
 20
-30856.45
 30
0.0
  0
INSERT
  5
317
330
1F
100
AcDbEntity
  8
寸法
100
AcDbBlockReference
  2
INS-D3U9J
 10
5924.537
 20
-31100.0
 30
0.0
  0
LINE
  5
31E
330
1F
100
AcDbEntity
  8
04-ダクトセンター
100
AcDbLine
 10
5775.243451161659
 20
-32200.00000000001
 30
0.0
 11
5875.243451161659
 21
-32200.00000000001
 31
0.0
  0
TEXT
  5
31F
330
1F
100
AcDbEntity
  8
03-文字-2
100
AcDbText
 10
5412.438763662016
 20
-32548.16889336922
 30
0.0
 40
49.955
  1
フランジカラーφ450-0.8t
 41
0.9971071247761646
 72
     1
 11
5825.243451162016
 21
-32523.19139336922
 31
0.0
100
AcDbText
 73
     2
  0
LINE
  5
320
330
1F
100
AcDbEntity
  8
05-ダクト外線
100
AcDbLine
 10
5775.243451161659
 20
-31967.00000000001
 30
0.0
 11
5775.243451161659
 21
-32433.00000000001
 31
0.0
  0
LINE
  5
321
330
1F
100
AcDbEntity
  8
05-ダクト外線
100
AcDbLine
 10
5875.243451161659
 20
-31976.00000000001
 30
0.0
 11
5875.243451161659
 21
-32424.00000000001
 31
0.0
  0
LINE
  5
322
330
1F
100
AcDbEntity
  8
05-ダクト外線
100
AcDbLine
 10
5775.243451161659
 20
-32433.00000000001
 30
0.0
 11
5776.043451161648
 21
-32433.00000000001
 31
0.0
  0
LINE
  5
323
330
1F
100
AcDbEntity
  8
05-ダクト外線
100
AcDbLine
 10
5775.243451161659
 20
-31967.00000000001
 30
0.0
 11
5776.043451161648
 21
-31967.00000000001
 31
0.0
  0
LINE
  5
324
330
1F
100
AcDbEntity
  8
05-ダクト外線
100
AcDbLine
 10
5776.043451161648
 20
-31967.00000000001
 30
0.0
 11
5776.043451161648
 21
-32433.00000000001
 31
0.0
  0
INSERT
  5
328
330
1F
100
AcDbEntity
  8
寸法
100
AcDbBlockReference
  2
INS-DB9R6
 10
5732.943
 20
-32200.0
 30
0.0
  0
LINE
  5
32F
330
1F
100
AcDbEntity
  8
05-ダクト外線
100
AcDbLine
 10
5776.043451161648
 20
-32424.00000000001
 30
0.0
 11
5875.243451161659
 21
-32424.00000000001
 31
0.0
  0
LINE
  5
330
330
1F
100
AcDbEntity
  8
05-ダクト外線
100
AcDbLine
 10
5776.043451161648
 20
-31976.00000000001
 30
0.0
 11
5875.243451161659
 21
-31976.00000000001
 31
0.0
  0
LINE
  5
331
330
1F
100
AcDbEntity
  8
06-ダクト内線
  6
DASHED2
 62
    20
 48
0.2
100
AcDbLine
 10
5776.043451161648
 20
-32423.20000000001
 30
0.0
 11
5875.243451161659
 21
-32423.20000000001
 31
0.0
  0
LINE
  5
332
330
1F
100
AcDbEntity
  8
06-ダクト内線
  6
DASHED2
 62
    20
 48
0.2
100
AcDbLine
 10
5776.043451161648
 20
-31976.80000000001
 30
0.0
 11
5875.243451161659
 21
-31976.80000000001
 31
0.0
  0
INSERT
  5
336
330
1F
100
AcDbEntity
  8
寸法
100
AcDbBlockReference
  2
INS-DD62T
 10
5825.243
 20
-31931.45
 30
0.0
  0
INSERT
  5
340
330
1F
100
AcDbEntity
  8
寸法
100
AcDbBlockReference
  2
INS-D503P
 10
5924.537
 20
-32200.0
 30
0.0
  0
LINE
  5
347
330
1F
100
AcDbEntity
  8
04-ダクトセンター
100
AcDbLine
 10
5775.243451161659
 20
-33400.00000000001
 30
0.0
 11
5875.243451161659
 21
-33400.00000000001
 31
0.0
  0
TEXT
  5
348
330
1F
100
AcDbEntity
  8
03-文字-2
100
AcDbText
 10
5416.743451161132
 20
-33773.16889336633
 30
0.0
 40
49.955
  1
フランジカラーφ500-0.8t
 41
0.9971071247761646
 72
     1
 11
5825.243451161132
 21
-33748.19139336633
 31
0.0
100
AcDbText
 73
     2
  0
LINE
  5
349
330
1F
100
AcDbEntity
  8
05-ダクト外線
100
AcDbLine
 10
5775.243451161659
 20
-33142.00000000001
 30
0.0
 11
5775.243451161659
 21
-33658.00000000001
 31
0.0
  0
LINE
  5
34A
330
1F
100
AcDbEntity
  8
05-ダクト外線
100
AcDbLine
 10
5875.243451161659
 20
-33151.00000000001
 30
0.0
 11
5875.243451161659
 21
-33649.00000000001
 31
0.0
  0
LINE
  5
34B
330
1F
100
AcDbEntity
  8
05-ダクト外線
100
AcDbLine
 10
5775.243451161659
 20
-33658.00000000001
 30
0.0
 11
5776.043451161648
 21
-33658.00000000001
 31
0.0
  0
LINE
  5
34C
330
1F
100
AcDbEntity
  8
05-ダクト外線
100
AcDbLine
 10
5775.243451161659
 20
-33142.00000000001
 30
0.0
 11
5776.043451161648
 21
-33142.00000000001
 31
0.0
  0
LINE
  5
34D
330
1F
100
AcDbEntity
  8
05-ダクト外線
100
AcDbLine
 10
5776.043451161648
 20
-33142.00000000001
 30
0.0
 11
5776.043451161648
 21
-33658.00000000001
 31
0.0
  0
INSERT
  5
351
330
1F
100
AcDbEntity
  8
寸法
100
AcDbBlockReference
  2
INS-D8CIO
 10
5732.943
 20
-33400.0
 30
0.0
  0
LINE
  5
358
330
1F
100
AcDbEntity
  8
05-ダクト外線
100
AcDbLine
 10
5776.043451161648
 20
-33649.00000000001
 30
0.0
 11
5875.243451161659
 21
-33649.00000000001
 31
0.0
  0
LINE
  5
359
330
1F
100
AcDbEntity
  8
05-ダクト外線
100
AcDbLine
 10
5776.043451161648
 20
-33151.00000000001
 30
0.0
 11
5875.243451161659
 21
-33151.00000000001
 31
0.0
  0
LINE
  5
35A
330
1F
100
AcDbEntity
  8
06-ダクト内線
  6
DASHED2
 62
    20
 48
0.2
100
AcDbLine
 10
5776.043451161648
 20
-33648.20000000001
 30
0.0
 11
5875.243451161659
 21
-33648.20000000001
 31
0.0
  0
LINE
  5
35B
330
1F
100
AcDbEntity
  8
06-ダクト内線
  6
DASHED2
 62
    20
 48
0.2
100
AcDbLine
 10
5776.043451161648
 20
-33151.8
 30
0.0
 11
5875.243451161659
 21
-33151.8
 31
0.0
  0
INSERT
  5
35F
330
1F
100
AcDbEntity
  8
寸法
100
AcDbBlockReference
  2
INS-D96MH
 10
5825.243
 20
-33106.45
 30
0.0
  0
INSERT
  5
369
330
1F
100
AcDbEntity
  8
寸法
100
AcDbBlockReference
  2
INS-DVIVM
 10
5924.537
 20
-33400.0
 30
0.0
  0
ENDSEC
  0
SECTION
  2
OBJECTS
  0
DICTIONARY
  5
C
330
0
100
AcDbDictionary
281
     1
  3
ACAD_GROUP
350
D
  3
ACAD_LAYOUT
350
1A
  3
ACAD_MATERIAL
350
43
  3
ACAD_MLEADERSTYLE
350
6B
  3
ACAD_MLINESTYLE
350
17
  3
ACAD_PLOTSETTINGS
350
19
  3
ACAD_PLOTSTYLENAME
350
E
  3
ACAD_SCALELIST
350
47
  3
ACAD_TABLESTYLE
350
69
  3
ACAD_VISUALSTYLE
350
2A
  3
AcDbVariableDictionary
350
370
  3
DWGPROPS
350
378
  0
DICTIONARY
  5
379
330
8
100
AcDbDictionary
280
     1
281
     1
  3
ACAD_XREC_ROUNDTRIP
360
37A
  0
DICTIONARY
  5
D
102
{ACAD_REACTORS
330
C
102
}
330
C
100
AcDbDictionary
281
     1
  0
DICTIONARY
  5
1A
102
{ACAD_REACTORS
330
C
102
}
330
C
100
AcDbDictionary
281
     1
  3
Layout1
350
1E
  3
Model
350
22
  0
DICTIONARY
  5
43
102
{ACAD_REACTORS
330
C
102
}
330
C
100
AcDbDictionary
281
     1
  3
ByBlock
350
45
  3
ByLayer
350
44
  3
Global
350
46
  0
DICTIONARY
  5
6B
102
{ACAD_REACTORS
330
C
102
}
330
C
100
AcDbDictionary
281
     1
  3
Standard
350
6C
  0
DICTIONARY
  5
17
102
{ACAD_REACTORS
330
C
102
}
330
C
100
AcDbDictionary
281
     1
  3
Standard
350
18
  0
DICTIONARY
  5
19
102
{ACAD_REACTORS
330
C
102
}
330
C
100
AcDbDictionary
281
     1
  0
ACDBDICTIONARYWDFLT
  5
E
102
{ACAD_REACTORS
330
C
102
}
330
C
100
AcDbDictionary
281
     1
  3
Normal
350
F
100
AcDbDictionaryWithDefault
340
F
  0
DICTIONARY
  5
47
102
{ACAD_REACTORS
330
C
102
}
330
C
100
AcDbDictionary
281
     1
  3
A0
350
48
  3
A1
350
49
  3
A2
350
4A
  3
A3
350
4B
  3
A4
350
4C
  3
A5
350
4D
  3
A6
350
4E
  3
A7
350
4F
  3
A8
350
50
  3
A9
350
51
  3
B0
350
52
  3
B1
350
53
  3
B2
350
54
  3
B3
350
55
  3
B4
350
56
  3
B5
350
57
  3
B6
350
58
  3
B7
350
59
  3
B8
350
5A
  3
B9
350
5B
  3
C0
350
5C
  3
C1
350
5D
  3
C2
350
5E
  3
C3
350
5F
  3
C4
350
60
  3
C5
350
61
  3
C6
350
62
  3
C7
350
63
  3
C8
350
64
  3
C9
350
65
  3
D0
350
66
  3
D1
350
67
  3
D2
350
68
  0
DICTIONARY
  5
69
102
{ACAD_REACTORS
330
C
102
}
330
C
100
AcDbDictionary
281
     1
  3
Standard
350
6A
  0
DICTIONARY
  5
2A
102
{ACAD_REACTORS
330
C
102
}
330
C
100
AcDbDictionary
281
     1
  3
2dWireframe
350
2F
  3
Basic
350
32
  3
Brighten
350
36
  3
ColorChange
350
3A
  3
Conceptual
350
34
  3
Dim
350
35
  3
EdgeColorOff
350
3D
  3
Facepattern
350
39
  3
Flat
350
2B
  3
FlatWithEdges
350
2C
  3
Gouraud
350
2D
  3
GouraudWithEdges
350
2E
  3
Hidden
350
31
  3
JitterOff
350
3B
  3
Linepattern
350
38
  3
OverhangOff
350
3C
  3
Realistic
350
33
  3
Shaded
350
42
  3
Shaded with edges
350
41
  3
Shades of Gray
350
3E
  3
Sketchy
350
3F
  3
Thicken
350
37
  3
Wireframe
350
30
  3
X-Ray
350
40
  0
DICTIONARY
  5
370
102
{ACAD_REACTORS
330
C
102
}
330
C
100
AcDbDictionary
281
     1
  3
CANNOSCALE
350
37B
  3
CMLEADERSTYLE
350
372
  3
CTABLESTYLE
350
371
  3
DIMASSOC
350
376
  3
HIDETEXT
350
377
  3
MSLTSCALE
350
37C
  3
XCLIPFRAME
350
373
  0
XRECORD
  5
378
102
{ACAD_REACTORS
330
C
102
}
330
C
100
AcDbXrecord
280
     1
  1
DWGPROPS COOKIE
  2

  3

  4

  6

  7

  8
kakz194
  9

300
=
301
=
302
=
303
=
304
=
305
=
306
=
307
=
308
=
309
=
 40
0.0
 41
2460341.725219907
 42
2460341.350230382
  1

 90
        0
  0
XRECORD
  5
37A
102
{ACAD_REACTORS
330
379
102
}
330
379
100
AcDbXrecord
280
     1
102
VTR_0.000_0.000_1.000_1.000_VISUALSTYLE
340
2F
102
VTR_0.000_0.000_1.000_1.000_GRIDDISPLAY
 70
     3
102
VTR_0.000_0.000_1.000_1.000_GRIDMAJOR
 70
     5
102
VTR_0.000_0.000_1.000_1.000_DEFAULTLIGHTING
280
     1
102
VTR_0.000_0.000_1.000_1.000_DEFAULTLIGHTINGTYPE
 70
     1
102
VTR_0.000_0.000_1.000_1.000_BRIGHTNESS
141
0.0
102
VTR_0.000_0.000_1.000_1.000_CONTRAST
142
0.0
  0
LAYOUT
  5
1E
102
{ACAD_REACTORS
330
1A
102
}
330
1A
100
AcDbPlotSettings
  1

  2
none_device
  4

  6

 40
0.0
 41
0.0
 42
0.0
 43
0.0
 44
0.0
 45
0.0
 46
0.0
 47
0.0
 48
0.0
 49
0.0
140
0.0
141
0.0
142
1.0
143
1.0
 70
   688
 72
     0
 73
     0
 74
     5
  7

 75
    16
147
1.0
148
0.0
149
0.0
100
AcDbLayout
  1
Layout1
 70
     1
 71
     1
 10
0.0
 20
0.0
 11
12.0
 21
9.0
 12
0.0
 22
0.0
 32
0.0
 14
0.0
 24
0.0
 34
0.0
 15
12.0
 25
9.0
 35
0.0
146
0.0
 13
0.0
 23
0.0
 33
0.0
 16
1.0
 26
0.0
 36
0.0
 17
0.0
 27
1.0
 37
0.0
 76
     0
330
1B
  0
LAYOUT
  5
22
102
{ACAD_REACTORS
330
1A
102
}
330
1A
100
AcDbPlotSettings
  1

  2
none_device
  4
ISO_A1_(594.00_x_841.00_MM)
  6

 40
0.0
 41
0.0
 42
0.0
 43
0.0
 44
594.0
 45
841.0
 46
0.0
 47
0.0
 48
0.0
 49
0.0
140
0.0
141
0.0
142
1.0
143
1.0
 70
  1712
 72
     1
 73
     1
 74
     0
  7

 75
    16
147
1.0
148
0.0
149
0.0
100
AcDbLayout
  1
Model
 70
     1
 71
     0
 10
0.0
 20
0.0
 11
30276.0
 21
21384.0
 12
0.0
 22
0.0
 32
0.0
 14
0.0
 24
0.0
 34
0.0
 15
25230.0
 25
17820.0
 35
0.0
146
0.0
 13
0.0
 23
0.0
 33
0.0
 16
1.0
 26
0.0
 36
0.0
 17
0.0
 27
1.0
 37
0.0
 76
     0
330
1F
331
29
  0
MATERIAL
  5
45
102
{ACAD_REACTORS
330
43
102
}
102
{ACAD_XDICTIONARY
360
3AF
102
}
330
43
100
AcDbMaterial
  1
ByBlock
  0
MATERIAL
  5
44
102
{ACAD_REACTORS
330
43
102
}
102
{ACAD_XDICTIONARY
360
3AD
102
}
330
43
100
AcDbMaterial
  1
ByLayer
  0
MATERIAL
  5
46
102
{ACAD_REACTORS
330
43
102
}
102
{ACAD_XDICTIONARY
360
3B1
102
}
330
43
100
AcDbMaterial
  1
Global
  0
MLEADERSTYLE
  5
6C
102
{ACAD_REACTORS
330
6B
102
}
102
{ACAD_XDICTIONARY
360
3B4
102
}
330
6B
100
AcDbMLeaderStyle
170
     2
171
     1
172
     0
 90
        2
 40
0.0
 41
0.0
173
     1
 91
-1056964608
340
14
 92
       -2
290
     1
 42
0.09
291
     1
 43
0.36
  3
Standard
341
0
 44
0.18
300

342
11
174
     1
178
     6
175
     1
176
     0
 93
-1056964608
 45
0.18
292
     0
297
     0
 46
0.18
343
0
 94
-1056964608
 47
1.0
 49
1.0
140
1.0
293
     1
141
0.0
294
     1
177
     0
142
1.0
295
     0
296
     0
143
0.125
1001
ACAD_MLEADERVER
1070
     2
  0
MLINESTYLE
  5
18
102
{ACAD_REACTORS
330
17
102
}
330
17
100
AcDbMlineStyle
  2
Standard
 70
     0
  3

 62
   256
 51
90.0
 52
90.0
 71
     2
 49
0.5
 62
   256
  6
BYLAYER
 49
-0.5
 62
   256
  6
BYLAYER
  0
ACDBPLACEHOLDER
  5
F
102
{ACAD_REACTORS
330
E
102
}
330
E
  0
SCALE
  5
48
102
{ACAD_REACTORS
330
47
102
}
330
47
100
AcDbScale
 70
     0
300
1:1
140
1.0
141
1.0
290
     1
  0
SCALE
  5
49
102
{ACAD_REACTORS
330
47
102
}
330
47
100
AcDbScale
 70
     0
300
1:2
140
1.0
141
2.0
290
     0
  0
SCALE
  5
4A
102
{ACAD_REACTORS
330
47
102
}
330
47
100
AcDbScale
 70
     0
300
1:4
140
1.0
141
4.0
290
     0
  0
SCALE
  5
4B
102
{ACAD_REACTORS
330
47
102
}
330
47
100
AcDbScale
 70
     0
300
1:5
140
1.0
141
5.0
290
     0
  0
SCALE
  5
4C
102
{ACAD_REACTORS
330
47
102
}
330
47
100
AcDbScale
 70
     0
300
1:8
140
1.0
141
8.0
290
     0
  0
SCALE
  5
4D
102
{ACAD_REACTORS
330
47
102
}
330
47
100
AcDbScale
 70
     0
300
1:10
140
1.0
141
10.0
290
     0
  0
SCALE
  5
4E
102
{ACAD_REACTORS
330
47
102
}
330
47
100
AcDbScale
 70
     0
300
1:16
140
1.0
141
16.0
290
     0
  0
SCALE
  5
4F
102
{ACAD_REACTORS
330
47
102
}
330
47
100
AcDbScale
 70
     0
300
1:20
140
1.0
141
20.0
290
     0
  0
SCALE
  5
50
102
{ACAD_REACTORS
330
47
102
}
330
47
100
AcDbScale
 70
     0
300
1:30
140
1.0
141
30.0
290
     0
  0
SCALE
  5
51
102
{ACAD_REACTORS
330
47
102
}
330
47
100
AcDbScale
 70
     0
300
1:40
140
1.0
141
40.0
290
     0
  0
SCALE
  5
52
102
{ACAD_REACTORS
330
47
102
}
330
47
100
AcDbScale
 70
     0
300
1:50
140
1.0
141
50.0
290
     0
  0
SCALE
  5
53
102
{ACAD_REACTORS
330
47
102
}
330
47
100
AcDbScale
 70
     0
300
1:100
140
1.0
141
100.0
290
     0
  0
SCALE
  5
54
102
{ACAD_REACTORS
330
47
102
}
330
47
100
AcDbScale
 70
     0
300
2:1
140
2.0
141
1.0
290
     0
  0
SCALE
  5
55
102
{ACAD_REACTORS
330
47
102
}
330
47
100
AcDbScale
 70
     0
300
4:1
140
4.0
141
1.0
290
     0
  0
SCALE
  5
56
102
{ACAD_REACTORS
330
47
102
}
330
47
100
AcDbScale
 70
     0
300
8:1
140
8.0
141
1.0
290
     0
  0
SCALE
  5
57
102
{ACAD_REACTORS
330
47
102
}
330
47
100
AcDbScale
 70
     0
300
10:1
140
10.0
141
1.0
290
     0
  0
SCALE
  5
58
102
{ACAD_REACTORS
330
47
102
}
330
47
100
AcDbScale
 70
     0
300
100:1
140
100.0
141
1.0
290
     0
  0
SCALE
  5
59
102
{ACAD_REACTORS
330
47
102
}
330
47
100
AcDbScale
 70
     0
300
1/128" = 1'-0"
140
0.0078125
141
12.0
290
     0
  0
SCALE
  5
5A
102
{ACAD_REACTORS
330
47
102
}
330
47
100
AcDbScale
 70
     0
300
1/64" = 1'-0"
140
0.015625
141
12.0
290
     0
  0
SCALE
  5
5B
102
{ACAD_REACTORS
330
47
102
}
330
47
100
AcDbScale
 70
     0
300
1/32" = 1'-0"
140
0.03125
141
12.0
290
     0
  0
SCALE
  5
5C
102
{ACAD_REACTORS
330
47
102
}
330
47
100
AcDbScale
 70
     0
300
1/16" = 1'-0"
140
0.0625
141
12.0
290
     0
  0
SCALE
  5
5D
102
{ACAD_REACTORS
330
47
102
}
330
47
100
AcDbScale
 70
     0
300
3/32" = 1'-0"
140
0.09375
141
12.0
290
     0
  0
SCALE
  5
5E
102
{ACAD_REACTORS
330
47
102
}
330
47
100
AcDbScale
 70
     0
300
1/8" = 1'-0"
140
0.125
141
12.0
290
     0
  0
SCALE
  5
5F
102
{ACAD_REACTORS
330
47
102
}
330
47
100
AcDbScale
 70
     0
300
3/16" = 1'-0"
140
0.1875
141
12.0
290
     0
  0
SCALE
  5
60
102
{ACAD_REACTORS
330
47
102
}
330
47
100
AcDbScale
 70
     0
300
1/4" = 1'-0"
140
0.25
141
12.0
290
     0
  0
SCALE
  5
61
102
{ACAD_REACTORS
330
47
102
}
330
47
100
AcDbScale
 70
     0
300
3/8" = 1'-0"
140
0.375
141
12.0
290
     0
  0
SCALE
  5
62
102
{ACAD_REACTORS
330
47
102
}
330
47
100
AcDbScale
 70
     0
300
1/2" = 1'-0"
140
0.5
141
12.0
290
     0
  0
SCALE
  5
63
102
{ACAD_REACTORS
330
47
102
}
330
47
100
AcDbScale
 70
     0
300
3/4" = 1'-0"
140
0.75
141
12.0
290
     0
  0
SCALE
  5
64
102
{ACAD_REACTORS
330
47
102
}
330
47
100
AcDbScale
 70
     0
300
1" = 1'-0"
140
1.0
141
12.0
290
     0
  0
SCALE
  5
65
102
{ACAD_REACTORS
330
47
102
}
330
47
100
AcDbScale
 70
     0
300
1-1/2" = 1'-0"
140
1.5
141
12.0
290
     0
  0
SCALE
  5
66
102
{ACAD_REACTORS
330
47
102
}
330
47
100
AcDbScale
 70
     0
300
3" = 1'-0"
140
3.0
141
12.0
290
     0
  0
SCALE
  5
67
102
{ACAD_REACTORS
330
47
102
}
330
47
100
AcDbScale
 70
     0
300
6" = 1'-0"
140
6.0
141
12.0
290
     0
  0
SCALE
  5
68
102
{ACAD_REACTORS
330
47
102
}
330
47
100
AcDbScale
 70
     0
300
1'-0" = 1'-0"
140
12.0
141
12.0
290
     0
  0
TABLESTYLE
  5
6A
102
{ACAD_REACTORS
330
69
102
}
330
69
100
AcDbTableStyle
  3
Standard
 70
     0
 71
     0
 40
0.06
 41
0.06
280
     0
281
     0
  7
Standard
140
0.18
170
     2
 62
     0
 63
   257
283
     0
274
    -2
284
     1
 64
     0
275
    -2
285
     1
 65
     0
276
    -2
286
     1
 66
     0
277
    -2
287
     1
 67
     0
278
    -2
288
     1
 68
     0
279
    -2
289
     1
 69
     0
  7
Standard
140
0.25
170
     5
 62
     0
 63
   257
283
     0
274
    -2
284
     1
 64
     0
275
    -2
285
     1
 65
     0
276
    -2
286
     1
 66
     0
277
    -2
287
     1
 67
     0
278
    -2
288
     1
 68
     0
279
    -2
289
     1
 69
     0
  7
Standard
140
0.18
170
     5
 62
     0
 63
   257
283
     0
274
    -2
284
     1
 64
     0
275
    -2
285
     1
 65
     0
276
    -2
286
     1
 66
     0
277
    -2
287
     1
 67
     0
278
    -2
288
     1
 68
     0
279
    -2
289
     1
 69
     0
  0
VISUALSTYLE
  5
2F
102
{ACAD_REACTORS
330
2A
102
}
102
{ACAD_XDICTIONARY
360
385
102
}
330
2A
100
AcDbVisualStyle
  2
2dWireframe
 70
     4
 71
     0
 72
     2
 73
     0
 90
        0
 40
0.6
 41
30.0
 62
     5
 63
     7
 74
     1
 91
        4
 64
     7
 65
   257
 75
     1
175
     1
 42
1.0
 92
        0
 66
   257
 43
1.0
 76
     1
 77
     6
 78
     2
 67
     7
 79
     5
170
     0
171
     0
290
     0
174
     0
 93
        1
 44
0.0
173
     0
291
     0
 45
0.0
1001
ACAD
1000
AcDbSavedByObjectVersion
1070
     0
  0
VISUALSTYLE
  5
32
102
{ACAD_REACTORS
330
2A
102
}
102
{ACAD_XDICTIONARY
360
38B
102
}
330
2A
100
AcDbVisualStyle
  2
Basic
 70
     7
 71
     1
 72
     0
 73
     1
 90
        0
 40
0.6
 41
30.0
 62
     5
 63
     7
 74
     0
 91
        4
 64
     7
 65
   257
 75
     1
175
     1
 42
1.0
 92
        8
 66
     7
 43
1.0
 76
     1
 77
     6
 78
     2
 67
     7
 79
     5
170
     0
171
     0
290
     0
174
     0
 93
        1
 44
0.0
173
     0
291
     1
 45
0.0
1001
ACAD
1000
AcDbSavedByObjectVersion
1070
     0
  0
VISUALSTYLE
  5
36
102
{ACAD_REACTORS
330
2A
102
}
102
{ACAD_XDICTIONARY
360
393
102
}
330
2A
100
AcDbVisualStyle
  2
Brighten
 70
    12
 71
     2
 72
     2
 73
     0
 90
        0
 40
0.6
 41
30.0
 62
     5
 63
     7
 74
     1
 91
        4
 64
     7
 65
   257
 75
     1
175
     1
 42
1.0
 92
        8
 66
     7
 43
1.0
 76
     1
 77
     6
 78
     2
 67
     7
 79
     5
170
     0
171
     0
290
     0
174
     0
 93
        1
 44
50.0
173
     0
291
     1
 45
0.0
1001
ACAD
1000
AcDbSavedByObjectVersion
1070
     0
  0
VISUALSTYLE
  5
3A
102
{ACAD_REACTORS
330
2A
102
}
102
{ACAD_XDICTIONARY
360
39B
102
}
330
2A
100
AcDbVisualStyle
  2
ColorChange
 70
    16
 71
     2
 72
     2
 73
     3
 90
        0
 40
0.6
 41
30.0
 62
     5
 63
     8
 74
     1
 91
        4
 64
     7
 65
   257
 75
     1
175
     1
 42
1.0
 92
        8
 66
     8
 43
1.0
 76
     1
 77
     6
 78
     2
 67
     7
 79
     5
170
     0
171
     0
290
     0
174
     0
 93
        1
 44
0.0
173
     0
291
     1
 45
0.0
1001
ACAD
1000
AcDbSavedByObjectVersion
1070
     0
  0
VISUALSTYLE
  5
34
102
{ACAD_REACTORS
330
2A
102
}
102
{ACAD_XDICTIONARY
360
38F
102
}
330
2A
100
AcDbVisualStyle
  2
Conceptual
 70
     9
 71
     3
 72
     2
 73
     0
 90
        0
 40
0.6
 41
30.0
 62
     5
 63
     7
 74
     2
 91
        2
 64
     7
 65
   257
 75
     1
175
     1
 42
179.0
 92
        8
 66
     7
 43
1.0
 76
     1
 77
     6
 78
     2
 67
     7
 79
     3
170
     0
171
     0
290
     0
174
     0
 93
        1
 44
0.0
173
     0
291
     0
 45
0.0
1001
ACAD
1000
AcDbSavedByObjectVersion
1070
     0
  0
VISUALSTYLE
  5
35
102
{ACAD_REACTORS
330
2A
102
}
102
{ACAD_XDICTIONARY
360
391
102
}
330
2A
100
AcDbVisualStyle
  2
Dim
 70
    11
 71
     2
 72
     2
 73
     0
 90
        0
 40
0.6
 41
30.0
 62
     5
 63
     7
 74
     1
 91
        4
 64
     7
 65
   257
 75
     1
175
     1
 42
1.0
 92
        8
 66
     7
 43
1.0
 76
     1
 77
     6
 78
     2
 67
     7
 79
     5
170
     0
171
     0
290
     0
174
     0
 93
        1
 44
-50.0
173
     0
291
     1
 45
0.0
1001
ACAD
1000
AcDbSavedByObjectVersion
1070
     0
  0
VISUALSTYLE
  5
3D
102
{ACAD_REACTORS
330
2A
102
}
102
{ACAD_XDICTIONARY
360
3A1
102
}
330
2A
100
AcDbVisualStyle
  2
EdgeColorOff
 70
    22
 71
     2
 72
     2
 73
     0
 90
        0
 40
0.6
 41
30.0
 62
     5
 63
     7
 74
     1
 91
        4
 64
     7
 65
   257
 75
     1
175
     1
 42
1.0
 92
        8
 66
     7
 43
1.0
 76
     1
 77
     6
 78
     2
 67
     7
 79
     5
170
     0
171
     0
290
     0
174
     0
 93
        1
 44
0.0
173
     0
291
     1
 45
0.0
1001
ACAD
1000
AcDbSavedByObjectVersion
1070
     0
  0
VISUALSTYLE
  5
39
102
{ACAD_REACTORS
330
2A
102
}
102
{ACAD_XDICTIONARY
360
399
102
}
330
2A
100
AcDbVisualStyle
  2
Facepattern
 70
    15
 71
     2
 72
     2
 73
     0
 90
        0
 40
0.6
 41
30.0
 62
     5
 63
     7
 74
     1
 91
        4
 64
     7
 65
   257
 75
     1
175
     1
 42
1.0
 92
        8
 66
     7
 43
1.0
 76
     1
 77
     6
 78
     2
 67
     7
 79
     5
170
     0
171
     0
290
     0
174
     0
 93
        1
 44
0.0
173
     0
291
     1
 45
0.0
1001
ACAD
1000
AcDbSavedByObjectVersion
1070
     0
  0
VISUALSTYLE
  5
2B
102
{ACAD_REACTORS
330
2A
102
}
102
{ACAD_XDICTIONARY
360
37D
102
}
330
2A
100
AcDbVisualStyle
  2
Flat
 70
     0
 71
     2
 72
     1
 73
     1
 90
        2
 40
0.6
 41
30.0
 62
     5
 63
     7
 74
     0
 91
        0
 64
     7
 65
   257
 75
     1
175
     1
 42
1.0
 92
        8
 66
     7
 43
1.0
 76
     1
 77
     6
 78
     2
 67
     7
 79
     5
170
     0
171
     0
290
     0
174
     0
 93
       13
 44
0.0
173
     0
291
     1
 45
0.0
1001
ACAD
1000
AcDbSavedByObjectVersion
1070
     0
  0
VISUALSTYLE
  5
2C
102
{ACAD_REACTORS
330
2A
102
}
102
{ACAD_XDICTIONARY
360
37F
102
}
330
2A
100
AcDbVisualStyle
  2
FlatWithEdges
 70
     1
 71
     2
 72
     1
 73
     1
 90
        2
 40
0.6
 41
30.0
 62
     5
 63
     7
 74
     1
 91
        0
 64
     7
 65
   257
 75
     1
175
     1
 42
1.0
 92
        0
 66
   257
 43
1.0
 76
     1
 77
     6
 78
     2
 67
     7
 79
     5
170
     0
171
     0
290
     0
174
     0
 93
       13
 44
0.0
173
     0
291
     1
 45
0.0
1001
ACAD
1000
AcDbSavedByObjectVersion
1070
     0
  0
VISUALSTYLE
  5
2D
102
{ACAD_REACTORS
330
2A
102
}
102
{ACAD_XDICTIONARY
360
381
102
}
330
2A
100
AcDbVisualStyle
  2
Gouraud
 70
     2
 71
     2
 72
     2
 73
     1
 90
        2
 40
0.6
 41
30.0
 62
     5
 63
     7
 74
     0
 91
        0
 64
     7
 65
   257
 75
     1
175
     1
 42
1.0
 92
        0
 66
     7
 43
1.0
 76
     1
 77
     6
 78
     2
 67
     7
 79
     5
170
     0
171
     0
290
     0
174
     0
 93
       13
 44
0.0
173
     0
291
     1
 45
0.0
1001
ACAD
1000
AcDbSavedByObjectVersion
1070
     0
  0
VISUALSTYLE
  5
2E
102
{ACAD_REACTORS
330
2A
102
}
102
{ACAD_XDICTIONARY
360
383
102
}
330
2A
100
AcDbVisualStyle
  2
GouraudWithEdges
 70
     3
 71
     2
 72
     2
 73
     1
 90
        2
 40
0.6
 41
30.0
 62
     5
 63
     7
 74
     1
 91
        0
 64
     7
 65
   257
 75
     1
175
     1
 42
1.0
 92
        0
 66
   257
 43
1.0
 76
     1
 77
     6
 78
     2
 67
     7
 79
     5
170
     0
171
     0
290
     0
174
     0
 93
       13
 44
0.0
173
     0
291
     1
 45
0.0
1001
ACAD
1000
AcDbSavedByObjectVersion
1070
     0
  0
VISUALSTYLE
  5
31
102
{ACAD_REACTORS
330
2A
102
}
102
{ACAD_XDICTIONARY
360
389
102
}
330
2A
100
AcDbVisualStyle
  2
Hidden
 70
     6
 71
     1
 72
     2
 73
     2
 90
        0
 40
0.6
 41
30.0
 62
     5
 63
     7
 74
     2
 91
        2
 64
     7
 65
   257
 75
     2
175
     1
 42
40.0
 92
        0
 66
   257
 43
1.0
 76
     1
 77
     6
 78
     2
 67
     7
 79
     3
170
     0
171
     0
290
     0
174
     0
 93
        1
 44
0.0
173
     0
291
     0
 45
0.0
1001
ACAD
1000
AcDbSavedByObjectVersion
1070
     0
  0
VISUALSTYLE
  5
3B
102
{ACAD_REACTORS
330
2A
102
}
102
{ACAD_XDICTIONARY
360
39D
102
}
330
2A
100
AcDbVisualStyle
  2
JitterOff
 70
    20
 71
     2
 72
     2
 73
     0
 90
        0
 40
0.6
 41
30.0
 62
     5
 63
     7
 74
     1
 91
        4
 64
     7
 65
   257
 75
     1
175
     1
 42
1.0
 92
       10
 66
     7
 43
1.0
 76
     1
 77
     6
 78
     2
 67
     7
 79
     5
170
     0
171
     0
290
     0
174
     0
 93
        1
 44
0.0
173
     0
291
     1
 45
0.0
1001
ACAD
1000
AcDbSavedByObjectVersion
1070
     0
  0
VISUALSTYLE
  5
38
102
{ACAD_REACTORS
330
2A
102
}
102
{ACAD_XDICTIONARY
360
397
102
}
330
2A
100
AcDbVisualStyle
  2
Linepattern
 70
    14
 71
     2
 72
     2
 73
     0
 90
        0
 40
0.6
 41
30.0
 62
     5
 63
     7
 74
     1
 91
        4
 64
     7
 65
   257
 75
     7
175
     7
 42
1.0
 92
        8
 66
     7
 43
1.0
 76
     1
 77
     6
 78
     2
 67
     7
 79
     5
170
     0
171
     0
290
     0
174
     0
 93
        1
 44
0.0
173
     0
291
     1
 45
0.0
1001
ACAD
1000
AcDbSavedByObjectVersion
1070
     0
  0
VISUALSTYLE
  5
3C
102
{ACAD_REACTORS
330
2A
102
}
102
{ACAD_XDICTIONARY
360
39F
102
}
330
2A
100
AcDbVisualStyle
  2
OverhangOff
 70
    21
 71
     2
 72
     2
 73
     0
 90
        0
 40
0.6
 41
30.0
 62
     5
 63
     7
 74
     1
 91
        4
 64
     7
 65
   257
 75
     1
175
     1
 42
1.0
 92
        9
 66
     7
 43
1.0
 76
     1
 77
     6
 78
     2
 67
     7
 79
     5
170
     0
171
     0
290
     0
174
     0
 93
        1
 44
0.0
173
     0
291
     1
 45
0.0
1001
ACAD
1000
AcDbSavedByObjectVersion
1070
     0
  0
VISUALSTYLE
  5
33
102
{ACAD_REACTORS
330
2A
102
}
102
{ACAD_XDICTIONARY
360
38D
102
}
330
2A
100
AcDbVisualStyle
  2
Realistic
 70
     8
 71
     2
 72
     3
 73
     0
 90
        2
 40
0.6
 41
30.0
 62
     5
 63
     7
 74
     0
 91
        0
 64
     7
 65
   257
 75
     1
175
     1
 42
1.0
 92
        8
 66
   257
 43
1.0
 76
     1
 77
     6
 78
     2
 67
     7
 79
     3
170
     0
171
     0
290
     0
174
     0
 93
       13
 44
0.0
173
     0
291
     0
 45
0.0
1001
ACAD
1000
AcDbSavedByObjectVersion
1070
     0
  0
VISUALSTYLE
  5
42
102
{ACAD_REACTORS
330
2A
102
}
102
{ACAD_XDICTIONARY
360
3AB
102
}
330
2A
100
AcDbVisualStyle
  2
Shaded
 70
    27
 71
     2
 72
     2
 73
     1
 90
        2
 40
0.6
 41
30.0
 62
     5
 63
     7
 74
     0
 91
        4
 64
     7
 65
   257
 75
     1
175
     1
 42
1.0
 92
        8
 66
   257
 43
1.0
 76
     1
 77
     6
 78
     2
 67
     8
 79
     3
170
     0
171
     0
290
     0
174
     0
 93
        5
 44
0.0
173
     0
291
     0
 45
0.0
1001
ACAD
1000
AcDbSavedByObjectVersion
1070
     0
  0
VISUALSTYLE
  5
41
102
{ACAD_REACTORS
330
2A
102
}
102
{ACAD_XDICTIONARY
360
3A9
102
}
330
2A
100
AcDbVisualStyle
  2
Shaded with edges
 70
    26
 71
     2
 72
     2
 73
     1
 90
        2
 40
0.6
 41
30.0
 62
     5
 63
     7
 74
     1
 91
       10
 64
     7
 65
   257
 75
     2
175
     1
 42
1.0
 92
        8
 66
   257
 43
1.0
 76
     1
 77
     6
 78
     2
 67
     7
 79
     3
170
     0
171
     0
290
     0
174
     0
 93
        5
 44
0.0
173
     0
291
     0
 45
0.0
1001
ACAD
1000
AcDbSavedByObjectVersion
1070
     0
  0
VISUALSTYLE
  5
3E
102
{ACAD_REACTORS
330
2A
102
}
102
{ACAD_XDICTIONARY
360
3A3
102
}
330
2A
100
AcDbVisualStyle
  2
Shades of Gray
 70
    23
 71
     2
 72
     2
 73
     3
 90
        0
 40
0.6
 41
30.0
 62
     5
 63
     7
 74
     2
 91
        2
 64
     7
 65
     7
 75
     1
175
     1
 42
40.0
 92
        8
 66
     7
 43
1.0
 76
     1
 77
     6
 78
     2
 67
     7
 79
     3
170
     0
171
     0
290
     0
174
     0
 93
        1
 44
0.0
173
     0
291
     0
 45
0.0
1001
ACAD
1000
AcDbSavedByObjectVersion
1070
     0
  0
VISUALSTYLE
  5
3F
102
{ACAD_REACTORS
330
2A
102
}
102
{ACAD_XDICTIONARY
360
3A5
102
}
330
2A
100
AcDbVisualStyle
  2
Sketchy
 70
    24
 71
     1
 72
     2
 73
     2
 90
        0
 40
0.6
 41
30.0
 62
     5
 63
     7
 74
     2
 91
        2
 64
     7
 65
     7
 75
     1
175
     1
 42
40.0
 92
       11
 66
     7
 43
1.0
 76
     1
 77
     6
 78
     2
 67
     7
 79
     6
170
     0
171
     0
290
     0
174
     0
 93
        1
 44
0.0
173
     0
291
     0
 45
0.0
1001
ACAD
1000
AcDbSavedByObjectVersion
1070
     0
  0
VISUALSTYLE
  5
37
102
{ACAD_REACTORS
330
2A
102
}
102
{ACAD_XDICTIONARY
360
395
102
}
330
2A
100
AcDbVisualStyle
  2
Thicken
 70
    13
 71
     2
 72
     2
 73
     0
 90
        0
 40
0.6
 41
30.0
 62
     5
 63
     7
 74
     1
 91
        4
 64
     7
 65
   257
 75
     1
175
     1
 42
1.0
 92
       12
 66
     7
 43
1.0
 76
     1
 77
     6
 78
     2
 67
     7
 79
     5
170
     0
171
     0
290
     0
174
     0
 93
        1
 44
0.0
173
     0
291
     1
 45
0.0
1001
ACAD
1000
AcDbSavedByObjectVersion
1070
     0
  0
VISUALSTYLE
  5
30
102
{ACAD_REACTORS
330
2A
102
}
102
{ACAD_XDICTIONARY
360
387
102
}
330
2A
100
AcDbVisualStyle
  2
Wireframe
 70
     5
 71
     0
 72
     2
 73
     0
 90
        0
 40
0.6
 41
30.0
 62
     5
 63
     7
 74
     1
 91
        4
 64
     7
 65
   257
 75
     1
175
     1
 42
1.0
 92
        0
 66
   257
 43
1.0
 76
     1
 77
     6
 78
     2
 67
     7
 79
     3
170
     0
171
     0
290
     0
174
     0
 93
        1
 44
0.0
173
     0
291
     0
 45
0.0
1001
ACAD
1000
AcDbSavedByObjectVersion
1070
     0
  0
VISUALSTYLE
  5
40
102
{ACAD_REACTORS
330
2A
102
}
102
{ACAD_XDICTIONARY
360
3A7
102
}
330
2A
100
AcDbVisualStyle
  2
X-Ray
 70
    25
 71
     2
 72
     2
 73
     1
 90
        1
 40
0.5
 41
30.0
 62
     5
 63
     7
 74
     1
 91
        0
 64
     7
 65
   257
 75
     1
175
     1
 42
1.0
 92
        8
 66
     7
 43
1.0
 76
     1
 77
     6
 78
     2
 67
     7
 79
     3
170
     0
171
     0
290
     0
174
     0
 93
       13
 44
0.0
173
     0
291
     0
 45
0.0
1001
ACAD
1000
AcDbSavedByObjectVersion
1070
     0
  0
DICTIONARYVAR
  5
37B
102
{ACAD_REACTORS
330
370
102
}
330
370
100
DictionaryVariables
280
     0
  1
1:1
  0
DICTIONARYVAR
  5
372
102
{ACAD_REACTORS
330
370
102
}
330
370
100
DictionaryVariables
280
     0
  1
Standard
  0
DICTIONARYVAR
  5
371
102
{ACAD_REACTORS
330
370
102
}
330
370
100
DictionaryVariables
280
     0
  1
Standard
  0
DICTIONARYVAR
  5
376
102
{ACAD_REACTORS
330
370
102
}
330
370
100
DictionaryVariables
280
     0
  1
2
  0
DICTIONARYVAR
  5
377
102
{ACAD_REACTORS
330
370
102
}
330
370
100
DictionaryVariables
280
     0
  1
1
  0
DICTIONARYVAR
  5
37C
102
{ACAD_REACTORS
330
370
102
}
330
370
100
DictionaryVariables
280
     0
  1
1
  0
DICTIONARYVAR
  5
373
102
{ACAD_REACTORS
330
370
102
}
330
370
100
DictionaryVariables
280
     0
  1
0
  0
DICTIONARY
  5
3AF
330
45
100
AcDbDictionary
280
     1
281
     1
  3
ACAD_XREC_ROUNDTRIP
360
3B0
  0
DICTIONARY
  5
3AD
330
44
100
AcDbDictionary
280
     1
281
     1
  3
ACAD_XREC_ROUNDTRIP
360
3AE
  0
DICTIONARY
  5
3B1
330
46
100
AcDbDictionary
280
     1
281
     1
  3
ACAD_XREC_ROUNDTRIP
360
3B2
  0
DICTIONARY
  5
3B4
330
6C
100
AcDbDictionary
280
     1
281
     1
  3
ACAD_XREC_ROUNDTRIP
360
3B5
  0
DICTIONARY
  5
385
330
2F
100
AcDbDictionary
280
     1
281
     1
  3
ACAD_XREC_ROUNDTRIP
360
386
  0
DICTIONARY
  5
38B
330
32
100
AcDbDictionary
280
     1
281
     1
  3
ACAD_XREC_ROUNDTRIP
360
38C
  0
DICTIONARY
  5
393
330
36
100
AcDbDictionary
280
     1
281
     1
  3
ACAD_XREC_ROUNDTRIP
360
394
  0
DICTIONARY
  5
39B
330
3A
100
AcDbDictionary
280
     1
281
     1
  3
ACAD_XREC_ROUNDTRIP
360
39C
  0
DICTIONARY
  5
38F
330
34
100
AcDbDictionary
280
     1
281
     1
  3
ACAD_XREC_ROUNDTRIP
360
390
  0
DICTIONARY
  5
391
330
35
100
AcDbDictionary
280
     1
281
     1
  3
ACAD_XREC_ROUNDTRIP
360
392
  0
DICTIONARY
  5
3A1
330
3D
100
AcDbDictionary
280
     1
281
     1
  3
ACAD_XREC_ROUNDTRIP
360
3A2
  0
DICTIONARY
  5
399
330
39
100
AcDbDictionary
280
     1
281
     1
  3
ACAD_XREC_ROUNDTRIP
360
39A
  0
DICTIONARY
  5
37D
330
2B
100
AcDbDictionary
280
     1
281
     1
  3
ACAD_XREC_ROUNDTRIP
360
37E
  0
DICTIONARY
  5
37F
330
2C
100
AcDbDictionary
280
     1
281
     1
  3
ACAD_XREC_ROUNDTRIP
360
380
  0
DICTIONARY
  5
381
330
2D
100
AcDbDictionary
280
     1
281
     1
  3
ACAD_XREC_ROUNDTRIP
360
382
  0
DICTIONARY
  5
383
330
2E
100
AcDbDictionary
280
     1
281
     1
  3
ACAD_XREC_ROUNDTRIP
360
384
  0
DICTIONARY
  5
389
330
31
100
AcDbDictionary
280
     1
281
     1
  3
ACAD_XREC_ROUNDTRIP
360
38A
  0
DICTIONARY
  5
39D
330
3B
100
AcDbDictionary
280
     1
281
     1
  3
ACAD_XREC_ROUNDTRIP
360
39E
  0
DICTIONARY
  5
397
330
38
100
AcDbDictionary
280
     1
281
     1
  3
ACAD_XREC_ROUNDTRIP
360
398
  0
DICTIONARY
  5
39F
330
3C
100
AcDbDictionary
280
     1
281
     1
  3
ACAD_XREC_ROUNDTRIP
360
3A0
  0
DICTIONARY
  5
38D
330
33
100
AcDbDictionary
280
     1
281
     1
  3
ACAD_XREC_ROUNDTRIP
360
38E
  0
DICTIONARY
  5
3AB
330
42
100
AcDbDictionary
280
     1
281
     1
  3
ACAD_XREC_ROUNDTRIP
360
3AC
  0
DICTIONARY
  5
3A9
330
41
100
AcDbDictionary
280
     1
281
     1
  3
ACAD_XREC_ROUNDTRIP
360
3AA
  0
DICTIONARY
  5
3A3
330
3E
100
AcDbDictionary
280
     1
281
     1
  3
ACAD_XREC_ROUNDTRIP
360
3A4
  0
DICTIONARY
  5
3A5
330
3F
100
AcDbDictionary
280
     1
281
     1
  3
ACAD_XREC_ROUNDTRIP
360
3A6
  0
DICTIONARY
  5
395
330
37
100
AcDbDictionary
280
     1
281
     1
  3
ACAD_XREC_ROUNDTRIP
360
396
  0
DICTIONARY
  5
387
330
30
100
AcDbDictionary
280
     1
281
     1
  3
ACAD_XREC_ROUNDTRIP
360
388
  0
DICTIONARY
  5
3A7
330
40
100
AcDbDictionary
280
     1
281
     1
  3
ACAD_XREC_ROUNDTRIP
360
3A8
  0
XRECORD
  5
3B0
102
{ACAD_REACTORS
330
3AF
102
}
330
3AF
100
AcDbXrecord
280
     1
102
MATERIAL
148
0.0
149
0.0
149
0.0
 93
        0
 94
      127
282
     0
 72
     1
 77
     1
171
     1
175
     1
179
     1
273
     0
  0
XRECORD
  5
3AE
102
{ACAD_REACTORS
330
3AD
102
}
330
3AD
100
AcDbXrecord
280
     1
102
MATERIAL
148
0.0
149
0.0
149
0.0
 93
        0
 94
      127
282
     0
 72
     1
 77
     1
171
     1
175
     1
179
     1
273
     0
  0
XRECORD
  5
3B2
102
{ACAD_REACTORS
330
3B1
102
}
330
3B1
100
AcDbXrecord
280
     1
102
MATERIAL
148
0.0
149
0.0
149
0.0
 93
        0
 94
      127
282
     0
 72
     1
 77
     1
171
     1
175
     1
179
     1
273
     0
  0
XRECORD
  5
3B5
102
{ACAD_REACTORS
330
3B4
102
}
330
3B4
100
AcDbXrecord
280
     1
102
ACAD_ROUNDTRIP_2010_MLEADER_STYLE
  0
XRECORD
  5
386
102
{ACAD_REACTORS
330
385
102
}
330
385
100
AcDbXrecord
280
     1
102
RTVSPropertyOp0
 70
     1
102
RTVSPropertyOp1
 70
     1
102
RTVSPropertyOp2
 70
     1
102
RTVSPropertyOp3
 70
     1
102
RTVSPropertyOp4
 70
     1
102
RTVSPropertyOp5
 70
     1
102
RTVSPropertyOp6
 70
     1
102
RTVSPropertyOp7
 70
     1
102
RTVSPropertyOp8
 70
     1
102
RTVSPropertyOp9
 70
     1
102
RTVSPropertyOp10
 70
     1
102
RTVSPropertyOp11
 70
     1
102
RTVSPropertyOp12
 70
     1
102
RTVSPropertyOp13
 70
     1
102
RTVSPropertyOp14
 70
     1
102
RTVSPropertyOp15
 70
     1
102
RTVSPropertyOp16
 70
     1
102
RTVSPropertyOp17
 70
     1
102
RTVSPropertyOp18
 70
     1
102
RTVSPropertyOp19
 70
     1
102
RTVSPropertyOp20
 70
     1
102
RTVSPropertyOp21
 70
     1
102
RTVSPropertyOp22
 70
     1
102
RTVSPropertyOp23
 70
     1
102
RTVSPropertyOp24
 70
     1
102
RTVSPropertyOp25
 70
     1
102
RTVSPropertyOp26
 70
     1
102
RTVSPropertyOp27
 70
     1
102
RTVSPropertyOp28
 70
     1
102
RTVSPropertyOp29
 70
     1
102
RTVSPropertyOp30
 70
     1
102
RTVSPropertyOp31
 70
     1
102
RTVSPropertyOp32
 70
     1
102
RTVSPropertyOp33
 70
     1
102
RTVSPropertyOp34
 70
     1
102
RTVSPropertyOp35
 70
     1
102
RTVSPropertyOp36
 70
     1
102
RTVSPropertyOp37
 70
     1
102
RTVSPropertyOp38
 70
     1
102
RTVSPropertyOp39
 70
     1
102
RTVSPropertyOp40
 70
     1
102
RTVSPropertyOp41
 70
     1
102
RTVSPropertyOp42
 70
     1
102
RTVSPropertyOp43
 70
     1
102
RTVSPropertyOp44
 70
     1
102
RTVSPropertyOp45
 70
     1
102
RTVSPropertyOp46
 70
     1
102
RTVSPropertyOp47
 70
     1
102
RTVSPropertyOp48
 70
     1
102
RTVSPropertyOp49
 70
     1
102
RTVSPropertyOp50
 70
     1
102
RTVSPropertyOp51
 70
     0
102
RTVSPropertyOp52
 70
     0
102
RTVSPropertyOp53
 70
     1
102
RTVSPropertyOp54
 70
     1
102
RTVSPropertyOp55
 70
     1
102
RTVSPropertyOp56
 70
     1
102
RTVSPropertyOp57
 70
     1
102
RTVSPost2010Prop28
280
     1
102
RTVSPost2010PropOp28
 70
     1
102
RTVSPost2010Prop29
280
     1
102
RTVSPost2010PropOp29
 70
     1
102
RTVSPost2010Prop30
280
     0
102
RTVSPost2010PropOp30
 70
     1
102
RTVSPost2010Prop31
280
     0
102
RTVSPost2010PropOp31
 70
     1
102
RTVSPost2010Prop32
280
     0
102
RTVSPost2010PropOp32
 70
     1
102
RTVSPost2010Prop33
280
     0
102
RTVSPost2010PropOp33
 70
     1
102
RTVSPost2010Prop34
280
     0
102
RTVSPost2010PropOp34
 70
     1
102
RTVSPost2010Prop35
280
     0
102
RTVSPost2010PropOp35
 70
     1
102
RTVSPost2010Prop36
280
     0
102
RTVSPost2010PropOp36
 70
     1
102
RTVSPost2010Prop37
 90
       50
102
RTVSPost2010PropOp37
 70
     1
102
RTVSPost2010Prop38
140
0.0
102
RTVSPost2010PropOp38
 70
     1
102
RTVSPost2010Prop39
140
1.0
102
RTVSPost2010PropOp39
 70
     1
102
RTVSPost2010Prop40
 90
        0
102
RTVSPost2010PropOp40
 70
     1
102
RTVSPost2010Prop41ColorIndex
 90
       18
102
RTVSPost2010Prop41ColorRGB
 90
        0
102
RTVSPost2010PropOp41
 70
     1
102
RTVSPost2010Prop42
 90
       50
102
RTVSPost2010PropOp42
 70
     1
102
RTVSPost2010Prop43
 90
        3
102
RTVSPost2010PropOp43
 70
     1
102
RTVSPost2010Prop44ColorIndex
 90
        5
102
RTVSPost2010Prop44ColorRGB
 90
      255
102
RTVSPost2010PropOp44
 70
     1
102
RTVSPost2010Prop45
280
     0
102
RTVSPost2010PropOp45
 70
     1
102
RTVSPost2010Prop46
 90
       50
102
RTVSPost2010PropOp46
 70
     1
102
RTVSPost2010Prop47
 90
       50
102
RTVSPost2010PropOp47
 70
     1
102
RTVSPost2010Prop48
 90
       50
102
RTVSPost2010PropOp48
 70
     1
102
RTVSPost2010Prop49
280
     0
102
RTVSPost2010PropOp49
 70
     1
102
RTVSPost2010Prop50
 90
       50
102
RTVSPost2010PropOp50
 70
     1
102
RTVSPost2010Prop51ColorIndex
 90
      256
102
RTVSPost2010Prop51ColorRGB
 90
-16777216
102
RTVSPost2010PropOp51
 70
     0
102
RTVSPost2010Prop52
140
1.0
102
RTVSPost2010PropOp52
 70
     0
102
RTVSPost2010Prop53
 90
        2
102
RTVSPost2010PropOp53
 70
     1
102
RTVSPost2010Prop54
  1
strokes_ogs.tif
102
RTVSPost2010PropOp54
 70
     1
102
RTVSPost2010Prop55
280
     0
102
RTVSPost2010PropOp55
 70
     1
102
RTVSPost2010Prop56
140
1.0
102
RTVSPost2010PropOp56
 70
     1
102
RTVSPost2010Prop57
140
1.0
102
RTVSPost2010PropOp57
 70
     1
  0
XRECORD
  5
38C
102
{ACAD_REACTORS
330
38B
102
}
330
38B
100
AcDbXrecord
280
     1
102
RTVSPropertyOp0
 70
     1
102
RTVSPropertyOp1
 70
     1
102
RTVSPropertyOp2
 70
     1
102
RTVSPropertyOp3
 70
     1
102
RTVSPropertyOp4
 70
     1
102
RTVSPropertyOp5
 70
     1
102
RTVSPropertyOp6
 70
     1
102
RTVSPropertyOp7
 70
     1
102
RTVSPropertyOp8
 70
     1
102
RTVSPropertyOp9
 70
     1
102
RTVSPropertyOp10
 70
     1
102
RTVSPropertyOp11
 70
     1
102
RTVSPropertyOp12
 70
     1
102
RTVSPropertyOp13
 70
     1
102
RTVSPropertyOp14
 70
     1
102
RTVSPropertyOp15
 70
     1
102
RTVSPropertyOp16
 70
     1
102
RTVSPropertyOp17
 70
     1
102
RTVSPropertyOp18
 70
     1
102
RTVSPropertyOp19
 70
     1
102
RTVSPropertyOp20
 70
     1
102
RTVSPropertyOp21
 70
     1
102
RTVSPropertyOp22
 70
     1
102
RTVSPropertyOp23
 70
     1
102
RTVSPropertyOp24
 70
     1
102
RTVSPropertyOp25
 70
     1
102
RTVSPropertyOp26
 70
     1
102
RTVSPropertyOp27
 70
     1
102
RTVSPropertyOp28
 70
     1
102
RTVSPropertyOp29
 70
     1
102
RTVSPropertyOp30
 70
     1
102
RTVSPropertyOp31
 70
     1
102
RTVSPropertyOp32
 70
     1
102
RTVSPropertyOp33
 70
     1
102
RTVSPropertyOp34
 70
     1
102
RTVSPropertyOp35
 70
     1
102
RTVSPropertyOp36
 70
     1
102
RTVSPropertyOp37
 70
     1
102
RTVSPropertyOp38
 70
     1
102
RTVSPropertyOp39
 70
     1
102
RTVSPropertyOp40
 70
     1
102
RTVSPropertyOp41
 70
     1
102
RTVSPropertyOp42
 70
     1
102
RTVSPropertyOp43
 70
     1
102
RTVSPropertyOp44
 70
     1
102
RTVSPropertyOp45
 70
     1
102
RTVSPropertyOp46
 70
     1
102
RTVSPropertyOp47
 70
     1
102
RTVSPropertyOp48
 70
     1
102
RTVSPropertyOp49
 70
     1
102
RTVSPropertyOp50
 70
     1
102
RTVSPropertyOp51
 70
     0
102
RTVSPropertyOp52
 70
     0
102
RTVSPropertyOp53
 70
     1
102
RTVSPropertyOp54
 70
     1
102
RTVSPropertyOp55
 70
     1
102
RTVSPropertyOp56
 70
     1
102
RTVSPropertyOp57
 70
     1
102
RTVSPost2010Prop28
280
     0
102
RTVSPost2010PropOp28
 70
     1
102
RTVSPost2010Prop29
280
     1
102
RTVSPost2010PropOp29
 70
     1
102
RTVSPost2010Prop30
280
     1
102
RTVSPost2010PropOp30
 70
     1
102
RTVSPost2010Prop31
280
     0
102
RTVSPost2010PropOp31
 70
     1
102
RTVSPost2010Prop32
280
     0
102
RTVSPost2010PropOp32
 70
     1
102
RTVSPost2010Prop33
280
     0
102
RTVSPost2010PropOp33
 70
     1
102
RTVSPost2010Prop34
280
     0
102
RTVSPost2010PropOp34
 70
     1
102
RTVSPost2010Prop35
280
     0
102
RTVSPost2010PropOp35
 70
     1
102
RTVSPost2010Prop36
280
     0
102
RTVSPost2010PropOp36
 70
     1
102
RTVSPost2010Prop37
 90
       50
102
RTVSPost2010PropOp37
 70
     1
102
RTVSPost2010Prop38
140
0.0
102
RTVSPost2010PropOp38
 70
     1
102
RTVSPost2010Prop39
140
1.0
102
RTVSPost2010PropOp39
 70
     1
102
RTVSPost2010Prop40
 90
        0
102
RTVSPost2010PropOp40
 70
     1
102
RTVSPost2010Prop41ColorIndex
 90
       18
102
RTVSPost2010Prop41ColorRGB
 90
        0
102
RTVSPost2010PropOp41
 70
     1
102
RTVSPost2010Prop42
 90
       50
102
RTVSPost2010PropOp42
 70
     1
102
RTVSPost2010Prop43
 90
        3
102
RTVSPost2010PropOp43
 70
     1
102
RTVSPost2010Prop44ColorIndex
 90
        5
102
RTVSPost2010Prop44ColorRGB
 90
      255
102
RTVSPost2010PropOp44
 70
     1
102
RTVSPost2010Prop45
280
     0
102
RTVSPost2010PropOp45
 70
     1
102
RTVSPost2010Prop46
 90
       50
102
RTVSPost2010PropOp46
 70
     1
102
RTVSPost2010Prop47
 90
       50
102
RTVSPost2010PropOp47
 70
     1
102
RTVSPost2010Prop48
 90
       50
102
RTVSPost2010PropOp48
 70
     1
102
RTVSPost2010Prop49
280
     0
102
RTVSPost2010PropOp49
 70
     1
102
RTVSPost2010Prop50
 90
       50
102
RTVSPost2010PropOp50
 70
     1
102
RTVSPost2010Prop51ColorIndex
 90
      256
102
RTVSPost2010Prop51ColorRGB
 90
-16777216
102
RTVSPost2010PropOp51
 70
     0
102
RTVSPost2010Prop52
140
1.0
102
RTVSPost2010PropOp52
 70
     0
102
RTVSPost2010Prop53
 90
        2
102
RTVSPost2010PropOp53
 70
     1
102
RTVSPost2010Prop54
  1
strokes_ogs.tif
102
RTVSPost2010PropOp54
 70
     1
102
RTVSPost2010Prop55
280
     0
102
RTVSPost2010PropOp55
 70
     1
102
RTVSPost2010Prop56
140
1.0
102
RTVSPost2010PropOp56
 70
     1
102
RTVSPost2010Prop57
140
1.0
102
RTVSPost2010PropOp57
 70
     1
  0
XRECORD
  5
394
102
{ACAD_REACTORS
330
393
102
}
330
393
100
AcDbXrecord
280
     1
102
RTVSPropertyOp0
 70
     1
102
RTVSPropertyOp1
 70
     1
102
RTVSPropertyOp2
 70
     1
102
RTVSPropertyOp3
 70
     1
102
RTVSPropertyOp4
 70
     1
102
RTVSPropertyOp5
 70
     1
102
RTVSPropertyOp6
 70
     1
102
RTVSPropertyOp7
 70
     1
102
RTVSPropertyOp8
 70
     1
102
RTVSPropertyOp9
 70
     1
102
RTVSPropertyOp10
 70
     1
102
RTVSPropertyOp11
 70
     1
102
RTVSPropertyOp12
 70
     1
102
RTVSPropertyOp13
 70
     1
102
RTVSPropertyOp14
 70
     1
102
RTVSPropertyOp15
 70
     1
102
RTVSPropertyOp16
 70
     1
102
RTVSPropertyOp17
 70
     1
102
RTVSPropertyOp18
 70
     1
102
RTVSPropertyOp19
 70
     1
102
RTVSPropertyOp20
 70
     1
102
RTVSPropertyOp21
 70
     1
102
RTVSPropertyOp22
 70
     1
102
RTVSPropertyOp23
 70
     1
102
RTVSPropertyOp24
 70
     1
102
RTVSPropertyOp25
 70
     1
102
RTVSPropertyOp26
 70
     1
102
RTVSPropertyOp27
 70
     1
102
RTVSPropertyOp28
 70
     1
102
RTVSPropertyOp29
 70
     1
102
RTVSPropertyOp30
 70
     1
102
RTVSPropertyOp31
 70
     1
102
RTVSPropertyOp32
 70
     1
102
RTVSPropertyOp33
 70
     1
102
RTVSPropertyOp34
 70
     1
102
RTVSPropertyOp35
 70
     1
102
RTVSPropertyOp36
 70
     1
102
RTVSPropertyOp37
 70
     1
102
RTVSPropertyOp38
 70
     1
102
RTVSPropertyOp39
 70
     1
102
RTVSPropertyOp40
 70
     1
102
RTVSPropertyOp41
 70
     1
102
RTVSPropertyOp42
 70
     1
102
RTVSPropertyOp43
 70
     1
102
RTVSPropertyOp44
 70
     1
102
RTVSPropertyOp45
 70
     1
102
RTVSPropertyOp46
 70
     1
102
RTVSPropertyOp47
 70
     1
102
RTVSPropertyOp48
 70
     1
102
RTVSPropertyOp49
 70
     1
102
RTVSPropertyOp50
 70
     1
102
RTVSPropertyOp51
 70
     0
102
RTVSPropertyOp52
 70
     0
102
RTVSPropertyOp53
 70
     1
102
RTVSPropertyOp54
 70
     1
102
RTVSPropertyOp55
 70
     1
102
RTVSPropertyOp56
 70
     1
102
RTVSPropertyOp57
 70
     1
102
RTVSPost2010Prop28
280
     0
102
RTVSPost2010PropOp28
 70
     1
102
RTVSPost2010Prop29
280
     1
102
RTVSPost2010PropOp29
 70
     1
102
RTVSPost2010Prop30
280
     1
102
RTVSPost2010PropOp30
 70
     1
102
RTVSPost2010Prop31
280
     0
102
RTVSPost2010PropOp31
 70
     1
102
RTVSPost2010Prop32
280
     0
102
RTVSPost2010PropOp32
 70
     1
102
RTVSPost2010Prop33
280
     0
102
RTVSPost2010PropOp33
 70
     1
102
RTVSPost2010Prop34
280
     0
102
RTVSPost2010PropOp34
 70
     1
102
RTVSPost2010Prop35
280
     0
102
RTVSPost2010PropOp35
 70
     1
102
RTVSPost2010Prop36
280
     0
102
RTVSPost2010PropOp36
 70
     1
102
RTVSPost2010Prop37
 90
       50
102
RTVSPost2010PropOp37
 70
     1
102
RTVSPost2010Prop38
140
0.0
102
RTVSPost2010PropOp38
 70
     1
102
RTVSPost2010Prop39
140
1.0
102
RTVSPost2010PropOp39
 70
     1
102
RTVSPost2010Prop40
 90
        0
102
RTVSPost2010PropOp40
 70
     1
102
RTVSPost2010Prop41ColorIndex
 90
       18
102
RTVSPost2010Prop41ColorRGB
 90
        0
102
RTVSPost2010PropOp41
 70
     1
102
RTVSPost2010Prop42
 90
       50
102
RTVSPost2010PropOp42
 70
     1
102
RTVSPost2010Prop43
 90
        3
102
RTVSPost2010PropOp43
 70
     1
102
RTVSPost2010Prop44ColorIndex
 90
        5
102
RTVSPost2010Prop44ColorRGB
 90
      255
102
RTVSPost2010PropOp44
 70
     1
102
RTVSPost2010Prop45
280
     0
102
RTVSPost2010PropOp45
 70
     1
102
RTVSPost2010Prop46
 90
       50
102
RTVSPost2010PropOp46
 70
     1
102
RTVSPost2010Prop47
 90
       50
102
RTVSPost2010PropOp47
 70
     1
102
RTVSPost2010Prop48
 90
       50
102
RTVSPost2010PropOp48
 70
     1
102
RTVSPost2010Prop49
280
     0
102
RTVSPost2010PropOp49
 70
     1
102
RTVSPost2010Prop50
 90
       50
102
RTVSPost2010PropOp50
 70
     1
102
RTVSPost2010Prop51ColorIndex
 90
      256
102
RTVSPost2010Prop51ColorRGB
 90
-16777216
102
RTVSPost2010PropOp51
 70
     0
102
RTVSPost2010Prop52
140
1.0
102
RTVSPost2010PropOp52
 70
     0
102
RTVSPost2010Prop53
 90
        2
102
RTVSPost2010PropOp53
 70
     1
102
RTVSPost2010Prop54
  1
strokes_ogs.tif
102
RTVSPost2010PropOp54
 70
     1
102
RTVSPost2010Prop55
280
     0
102
RTVSPost2010PropOp55
 70
     1
102
RTVSPost2010Prop56
140
1.0
102
RTVSPost2010PropOp56
 70
     1
102
RTVSPost2010Prop57
140
1.0
102
RTVSPost2010PropOp57
 70
     1
  0
XRECORD
  5
39C
102
{ACAD_REACTORS
330
39B
102
}
330
39B
100
AcDbXrecord
280
     1
102
RTVSPropertyOp0
 70
     1
102
RTVSPropertyOp1
 70
     1
102
RTVSPropertyOp2
 70
     1
102
RTVSPropertyOp3
 70
     1
102
RTVSPropertyOp4
 70
     1
102
RTVSPropertyOp5
 70
     1
102
RTVSPropertyOp6
 70
     1
102
RTVSPropertyOp7
 70
     1
102
RTVSPropertyOp8
 70
     1
102
RTVSPropertyOp9
 70
     1
102
RTVSPropertyOp10
 70
     1
102
RTVSPropertyOp11
 70
     1
102
RTVSPropertyOp12
 70
     1
102
RTVSPropertyOp13
 70
     1
102
RTVSPropertyOp14
 70
     1
102
RTVSPropertyOp15
 70
     1
102
RTVSPropertyOp16
 70
     1
102
RTVSPropertyOp17
 70
     1
102
RTVSPropertyOp18
 70
     1
102
RTVSPropertyOp19
 70
     1
102
RTVSPropertyOp20
 70
     1
102
RTVSPropertyOp21
 70
     1
102
RTVSPropertyOp22
 70
     1
102
RTVSPropertyOp23
 70
     1
102
RTVSPropertyOp24
 70
     1
102
RTVSPropertyOp25
 70
     1
102
RTVSPropertyOp26
 70
     1
102
RTVSPropertyOp27
 70
     1
102
RTVSPropertyOp28
 70
     1
102
RTVSPropertyOp29
 70
     1
102
RTVSPropertyOp30
 70
     1
102
RTVSPropertyOp31
 70
     1
102
RTVSPropertyOp32
 70
     1
102
RTVSPropertyOp33
 70
     1
102
RTVSPropertyOp34
 70
     1
102
RTVSPropertyOp35
 70
     1
102
RTVSPropertyOp36
 70
     1
102
RTVSPropertyOp37
 70
     1
102
RTVSPropertyOp38
 70
     1
102
RTVSPropertyOp39
 70
     1
102
RTVSPropertyOp40
 70
     1
102
RTVSPropertyOp41
 70
     1
102
RTVSPropertyOp42
 70
     1
102
RTVSPropertyOp43
 70
     1
102
RTVSPropertyOp44
 70
     1
102
RTVSPropertyOp45
 70
     1
102
RTVSPropertyOp46
 70
     1
102
RTVSPropertyOp47
 70
     1
102
RTVSPropertyOp48
 70
     1
102
RTVSPropertyOp49
 70
     1
102
RTVSPropertyOp50
 70
     1
102
RTVSPropertyOp51
 70
     0
102
RTVSPropertyOp52
 70
     0
102
RTVSPropertyOp53
 70
     1
102
RTVSPropertyOp54
 70
     1
102
RTVSPropertyOp55
 70
     1
102
RTVSPropertyOp56
 70
     1
102
RTVSPropertyOp57
 70
     1
102
RTVSPost2010Prop28
280
     0
102
RTVSPost2010PropOp28
 70
     1
102
RTVSPost2010Prop29
280
     1
102
RTVSPost2010PropOp29
 70
     1
102
RTVSPost2010Prop30
280
     1
102
RTVSPost2010PropOp30
 70
     1
102
RTVSPost2010Prop31
280
     0
102
RTVSPost2010PropOp31
 70
     1
102
RTVSPost2010Prop32
280
     0
102
RTVSPost2010PropOp32
 70
     1
102
RTVSPost2010Prop33
280
     0
102
RTVSPost2010PropOp33
 70
     1
102
RTVSPost2010Prop34
280
     0
102
RTVSPost2010PropOp34
 70
     1
102
RTVSPost2010Prop35
280
     0
102
RTVSPost2010PropOp35
 70
     1
102
RTVSPost2010Prop36
280
     0
102
RTVSPost2010PropOp36
 70
     1
102
RTVSPost2010Prop37
 90
       50
102
RTVSPost2010PropOp37
 70
     1
102
RTVSPost2010Prop38
140
0.0
102
RTVSPost2010PropOp38
 70
     1
102
RTVSPost2010Prop39
140
1.0
102
RTVSPost2010PropOp39
 70
     1
102
RTVSPost2010Prop40
 90
        0
102
RTVSPost2010PropOp40
 70
     1
102
RTVSPost2010Prop41ColorIndex
 90
       18
102
RTVSPost2010Prop41ColorRGB
 90
        0
102
RTVSPost2010PropOp41
 70
     1
102
RTVSPost2010Prop42
 90
       50
102
RTVSPost2010PropOp42
 70
     1
102
RTVSPost2010Prop43
 90
        3
102
RTVSPost2010PropOp43
 70
     1
102
RTVSPost2010Prop44ColorIndex
 90
        5
102
RTVSPost2010Prop44ColorRGB
 90
      255
102
RTVSPost2010PropOp44
 70
     1
102
RTVSPost2010Prop45
280
     0
102
RTVSPost2010PropOp45
 70
     1
102
RTVSPost2010Prop46
 90
       50
102
RTVSPost2010PropOp46
 70
     1
102
RTVSPost2010Prop47
 90
       50
102
RTVSPost2010PropOp47
 70
     1
102
RTVSPost2010Prop48
 90
       50
102
RTVSPost2010PropOp48
 70
     1
102
RTVSPost2010Prop49
280
     0
102
RTVSPost2010PropOp49
 70
     1
102
RTVSPost2010Prop50
 90
       50
102
RTVSPost2010PropOp50
 70
     1
102
RTVSPost2010Prop51ColorIndex
 90
      256
102
RTVSPost2010Prop51ColorRGB
 90
-16777216
102
RTVSPost2010PropOp51
 70
     0
102
RTVSPost2010Prop52
140
1.0
102
RTVSPost2010PropOp52
 70
     0
102
RTVSPost2010Prop53
 90
        2
102
RTVSPost2010PropOp53
 70
     1
102
RTVSPost2010Prop54
  1
strokes_ogs.tif
102
RTVSPost2010PropOp54
 70
     1
102
RTVSPost2010Prop55
280
     0
102
RTVSPost2010PropOp55
 70
     1
102
RTVSPost2010Prop56
140
1.0
102
RTVSPost2010PropOp56
 70
     1
102
RTVSPost2010Prop57
140
1.0
102
RTVSPost2010PropOp57
 70
     1
  0
XRECORD
  5
390
102
{ACAD_REACTORS
330
38F
102
}
330
38F
100
AcDbXrecord
280
     1
102
RTVSPropertyOp0
 70
     1
102
RTVSPropertyOp1
 70
     1
102
RTVSPropertyOp2
 70
     1
102
RTVSPropertyOp3
 70
     1
102
RTVSPropertyOp4
 70
     1
102
RTVSPropertyOp5
 70
     1
102
RTVSPropertyOp6
 70
     1
102
RTVSPropertyOp7
 70
     1
102
RTVSPropertyOp8
 70
     1
102
RTVSPropertyOp9
 70
     1
102
RTVSPropertyOp10
 70
     1
102
RTVSPropertyOp11
 70
     1
102
RTVSPropertyOp12
 70
     1
102
RTVSPropertyOp13
 70
     1
102
RTVSPropertyOp14
 70
     1
102
RTVSPropertyOp15
 70
     1
102
RTVSPropertyOp16
 70
     1
102
RTVSPropertyOp17
 70
     1
102
RTVSPropertyOp18
 70
     1
102
RTVSPropertyOp19
 70
     1
102
RTVSPropertyOp20
 70
     1
102
RTVSPropertyOp21
 70
     1
102
RTVSPropertyOp22
 70
     1
102
RTVSPropertyOp23
 70
     1
102
RTVSPropertyOp24
 70
     1
102
RTVSPropertyOp25
 70
     1
102
RTVSPropertyOp26
 70
     1
102
RTVSPropertyOp27
 70
     1
102
RTVSPropertyOp28
 70
     1
102
RTVSPropertyOp29
 70
     1
102
RTVSPropertyOp30
 70
     1
102
RTVSPropertyOp31
 70
     1
102
RTVSPropertyOp32
 70
     1
102
RTVSPropertyOp33
 70
     1
102
RTVSPropertyOp34
 70
     1
102
RTVSPropertyOp35
 70
     1
102
RTVSPropertyOp36
 70
     1
102
RTVSPropertyOp37
 70
     1
102
RTVSPropertyOp38
 70
     1
102
RTVSPropertyOp39
 70
     1
102
RTVSPropertyOp40
 70
     1
102
RTVSPropertyOp41
 70
     1
102
RTVSPropertyOp42
 70
     1
102
RTVSPropertyOp43
 70
     1
102
RTVSPropertyOp44
 70
     1
102
RTVSPropertyOp45
 70
     1
102
RTVSPropertyOp46
 70
     1
102
RTVSPropertyOp47
 70
     1
102
RTVSPropertyOp48
 70
     1
102
RTVSPropertyOp49
 70
     1
102
RTVSPropertyOp50
 70
     1
102
RTVSPropertyOp51
 70
     0
102
RTVSPropertyOp52
 70
     0
102
RTVSPropertyOp53
 70
     1
102
RTVSPropertyOp54
 70
     1
102
RTVSPropertyOp55
 70
     1
102
RTVSPropertyOp56
 70
     1
102
RTVSPropertyOp57
 70
     1
102
RTVSPost2010Prop28
280
     0
102
RTVSPost2010PropOp28
 70
     1
102
RTVSPost2010Prop29
280
     1
102
RTVSPost2010PropOp29
 70
     1
102
RTVSPost2010Prop30
280
     1
102
RTVSPost2010PropOp30
 70
     1
102
RTVSPost2010Prop31
280
     0
102
RTVSPost2010PropOp31
 70
     1
102
RTVSPost2010Prop32
280
     0
102
RTVSPost2010PropOp32
 70
     1
102
RTVSPost2010Prop33
280
     0
102
RTVSPost2010PropOp33
 70
     1
102
RTVSPost2010Prop34
280
     0
102
RTVSPost2010PropOp34
 70
     1
102
RTVSPost2010Prop35
280
     0
102
RTVSPost2010PropOp35
 70
     1
102
RTVSPost2010Prop36
280
     0
102
RTVSPost2010PropOp36
 70
     1
102
RTVSPost2010Prop37
 90
       50
102
RTVSPost2010PropOp37
 70
     1
102
RTVSPost2010Prop38
140
0.0
102
RTVSPost2010PropOp38
 70
     1
102
RTVSPost2010Prop39
140
1.0
102
RTVSPost2010PropOp39
 70
     1
102
RTVSPost2010Prop40
 90
        0
102
RTVSPost2010PropOp40
 70
     1
102
RTVSPost2010Prop41ColorIndex
 90
       18
102
RTVSPost2010Prop41ColorRGB
 90
        0
102
RTVSPost2010PropOp41
 70
     1
102
RTVSPost2010Prop42
 90
       50
102
RTVSPost2010PropOp42
 70
     1
102
RTVSPost2010Prop43
 90
        3
102
RTVSPost2010PropOp43
 70
     1
102
RTVSPost2010Prop44ColorIndex
 90
        5
102
RTVSPost2010Prop44ColorRGB
 90
      255
102
RTVSPost2010PropOp44
 70
     1
102
RTVSPost2010Prop45
280
     0
102
RTVSPost2010PropOp45
 70
     1
102
RTVSPost2010Prop46
 90
       50
102
RTVSPost2010PropOp46
 70
     1
102
RTVSPost2010Prop47
 90
       50
102
RTVSPost2010PropOp47
 70
     1
102
RTVSPost2010Prop48
 90
       50
102
RTVSPost2010PropOp48
 70
     1
102
RTVSPost2010Prop49
280
     0
102
RTVSPost2010PropOp49
 70
     1
102
RTVSPost2010Prop50
 90
       50
102
RTVSPost2010PropOp50
 70
     1
102
RTVSPost2010Prop51ColorIndex
 90
      256
102
RTVSPost2010Prop51ColorRGB
 90
-16777216
102
RTVSPost2010PropOp51
 70
     0
102
RTVSPost2010Prop52
140
1.0
102
RTVSPost2010PropOp52
 70
     0
102
RTVSPost2010Prop53
 90
        2
102
RTVSPost2010PropOp53
 70
     1
102
RTVSPost2010Prop54
  1
strokes_ogs.tif
102
RTVSPost2010PropOp54
 70
     1
102
RTVSPost2010Prop55
280
     0
102
RTVSPost2010PropOp55
 70
     1
102
RTVSPost2010Prop56
140
1.0
102
RTVSPost2010PropOp56
 70
     1
102
RTVSPost2010Prop57
140
1.0
102
RTVSPost2010PropOp57
 70
     1
  0
XRECORD
  5
392
102
{ACAD_REACTORS
330
391
102
}
330
391
100
AcDbXrecord
280
     1
102
RTVSPropertyOp0
 70
     1
102
RTVSPropertyOp1
 70
     1
102
RTVSPropertyOp2
 70
     1
102
RTVSPropertyOp3
 70
     1
102
RTVSPropertyOp4
 70
     1
102
RTVSPropertyOp5
 70
     1
102
RTVSPropertyOp6
 70
     1
102
RTVSPropertyOp7
 70
     1
102
RTVSPropertyOp8
 70
     1
102
RTVSPropertyOp9
 70
     1
102
RTVSPropertyOp10
 70
     1
102
RTVSPropertyOp11
 70
     1
102
RTVSPropertyOp12
 70
     1
102
RTVSPropertyOp13
 70
     1
102
RTVSPropertyOp14
 70
     1
102
RTVSPropertyOp15
 70
     1
102
RTVSPropertyOp16
 70
     1
102
RTVSPropertyOp17
 70
     1
102
RTVSPropertyOp18
 70
     1
102
RTVSPropertyOp19
 70
     1
102
RTVSPropertyOp20
 70
     1
102
RTVSPropertyOp21
 70
     1
102
RTVSPropertyOp22
 70
     1
102
RTVSPropertyOp23
 70
     1
102
RTVSPropertyOp24
 70
     1
102
RTVSPropertyOp25
 70
     1
102
RTVSPropertyOp26
 70
     1
102
RTVSPropertyOp27
 70
     1
102
RTVSPropertyOp28
 70
     1
102
RTVSPropertyOp29
 70
     1
102
RTVSPropertyOp30
 70
     1
102
RTVSPropertyOp31
 70
     1
102
RTVSPropertyOp32
 70
     1
102
RTVSPropertyOp33
 70
     1
102
RTVSPropertyOp34
 70
     1
102
RTVSPropertyOp35
 70
     1
102
RTVSPropertyOp36
 70
     1
102
RTVSPropertyOp37
 70
     1
102
RTVSPropertyOp38
 70
     1
102
RTVSPropertyOp39
 70
     1
102
RTVSPropertyOp40
 70
     1
102
RTVSPropertyOp41
 70
     1
102
RTVSPropertyOp42
 70
     1
102
RTVSPropertyOp43
 70
     1
102
RTVSPropertyOp44
 70
     1
102
RTVSPropertyOp45
 70
     1
102
RTVSPropertyOp46
 70
     1
102
RTVSPropertyOp47
 70
     1
102
RTVSPropertyOp48
 70
     1
102
RTVSPropertyOp49
 70
     1
102
RTVSPropertyOp50
 70
     1
102
RTVSPropertyOp51
 70
     0
102
RTVSPropertyOp52
 70
     0
102
RTVSPropertyOp53
 70
     1
102
RTVSPropertyOp54
 70
     1
102
RTVSPropertyOp55
 70
     1
102
RTVSPropertyOp56
 70
     1
102
RTVSPropertyOp57
 70
     1
102
RTVSPost2010Prop28
280
     0
102
RTVSPost2010PropOp28
 70
     1
102
RTVSPost2010Prop29
280
     1
102
RTVSPost2010PropOp29
 70
     1
102
RTVSPost2010Prop30
280
     1
102
RTVSPost2010PropOp30
 70
     1
102
RTVSPost2010Prop31
280
     0
102
RTVSPost2010PropOp31
 70
     1
102
RTVSPost2010Prop32
280
     0
102
RTVSPost2010PropOp32
 70
     1
102
RTVSPost2010Prop33
280
     0
102
RTVSPost2010PropOp33
 70
     1
102
RTVSPost2010Prop34
280
     0
102
RTVSPost2010PropOp34
 70
     1
102
RTVSPost2010Prop35
280
     0
102
RTVSPost2010PropOp35
 70
     1
102
RTVSPost2010Prop36
280
     0
102
RTVSPost2010PropOp36
 70
     1
102
RTVSPost2010Prop37
 90
       50
102
RTVSPost2010PropOp37
 70
     1
102
RTVSPost2010Prop38
140
0.0
102
RTVSPost2010PropOp38
 70
     1
102
RTVSPost2010Prop39
140
1.0
102
RTVSPost2010PropOp39
 70
     1
102
RTVSPost2010Prop40
 90
        0
102
RTVSPost2010PropOp40
 70
     1
102
RTVSPost2010Prop41ColorIndex
 90
       18
102
RTVSPost2010Prop41ColorRGB
 90
        0
102
RTVSPost2010PropOp41
 70
     1
102
RTVSPost2010Prop42
 90
       50
102
RTVSPost2010PropOp42
 70
     1
102
RTVSPost2010Prop43
 90
        3
102
RTVSPost2010PropOp43
 70
     1
102
RTVSPost2010Prop44ColorIndex
 90
        5
102
RTVSPost2010Prop44ColorRGB
 90
      255
102
RTVSPost2010PropOp44
 70
     1
102
RTVSPost2010Prop45
280
     0
102
RTVSPost2010PropOp45
 70
     1
102
RTVSPost2010Prop46
 90
       50
102
RTVSPost2010PropOp46
 70
     1
102
RTVSPost2010Prop47
 90
       50
102
RTVSPost2010PropOp47
 70
     1
102
RTVSPost2010Prop48
 90
       50
102
RTVSPost2010PropOp48
 70
     1
102
RTVSPost2010Prop49
280
     0
102
RTVSPost2010PropOp49
 70
     1
102
RTVSPost2010Prop50
 90
       50
102
RTVSPost2010PropOp50
 70
     1
102
RTVSPost2010Prop51ColorIndex
 90
      256
102
RTVSPost2010Prop51ColorRGB
 90
-16777216
102
RTVSPost2010PropOp51
 70
     0
102
RTVSPost2010Prop52
140
1.0
102
RTVSPost2010PropOp52
 70
     0
102
RTVSPost2010Prop53
 90
        2
102
RTVSPost2010PropOp53
 70
     1
102
RTVSPost2010Prop54
  1
strokes_ogs.tif
102
RTVSPost2010PropOp54
 70
     1
102
RTVSPost2010Prop55
280
     0
102
RTVSPost2010PropOp55
 70
     1
102
RTVSPost2010Prop56
140
1.0
102
RTVSPost2010PropOp56
 70
     1
102
RTVSPost2010Prop57
140
1.0
102
RTVSPost2010PropOp57
 70
     1
  0
XRECORD
  5
3A2
102
{ACAD_REACTORS
330
3A1
102
}
330
3A1
100
AcDbXrecord
280
     1
102
RTVSPropertyOp0
 70
     0
102
RTVSPropertyOp1
 70
     0
102
RTVSPropertyOp2
 70
     0
102
RTVSPropertyOp3
 70
     0
102
RTVSPropertyOp4
 70
     0
102
RTVSPropertyOp5
 70
     0
102
RTVSPropertyOp6
 70
     0
102
RTVSPropertyOp7
 70
     0
102
RTVSPropertyOp8
 70
     0
102
RTVSPropertyOp9
 70
     0
102
RTVSPropertyOp10
 70
     0
102
RTVSPropertyOp11
 70
     0
102
RTVSPropertyOp12
 70
     0
102
RTVSPropertyOp13
 70
     0
102
RTVSPropertyOp14
 70
     2
102
RTVSPropertyOp15
 70
     0
102
RTVSPropertyOp16
 70
     0
102
RTVSPropertyOp17
 70
     0
102
RTVSPropertyOp18
 70
     0
102
RTVSPropertyOp19
 70
     0
102
RTVSPropertyOp20
 70
     0
102
RTVSPropertyOp21
 70
     0
102
RTVSPropertyOp22
 70
     0
102
RTVSPropertyOp23
 70
     0
102
RTVSPropertyOp24
 70
     0
102
RTVSPropertyOp25
 70
     0
102
RTVSPropertyOp26
 70
     0
102
RTVSPropertyOp27
 70
     0
102
RTVSPropertyOp28
 70
     0
102
RTVSPropertyOp29
 70
     0
102
RTVSPropertyOp30
 70
     0
102
RTVSPropertyOp31
 70
     0
102
RTVSPropertyOp32
 70
     0
102
RTVSPropertyOp33
 70
     0
102
RTVSPropertyOp34
 70
     0
102
RTVSPropertyOp35
 70
     0
102
RTVSPropertyOp36
 70
     0
102
RTVSPropertyOp37
 70
     0
102
RTVSPropertyOp38
 70
     0
102
RTVSPropertyOp39
 70
     0
102
RTVSPropertyOp40
 70
     0
102
RTVSPropertyOp41
 70
     0
102
RTVSPropertyOp42
 70
     0
102
RTVSPropertyOp43
 70
     0
102
RTVSPropertyOp44
 70
     0
102
RTVSPropertyOp45
 70
     0
102
RTVSPropertyOp46
 70
     0
102
RTVSPropertyOp47
 70
     0
102
RTVSPropertyOp48
 70
     0
102
RTVSPropertyOp49
 70
     0
102
RTVSPropertyOp50
 70
     0
102
RTVSPropertyOp51
 70
     0
102
RTVSPropertyOp52
 70
     0
102
RTVSPropertyOp53
 70
     0
102
RTVSPropertyOp54
 70
     0
102
RTVSPropertyOp55
 70
     0
102
RTVSPropertyOp56
 70
     0
102
RTVSPropertyOp57
 70
     0
102
RTVSPost2010Prop28
280
     0
102
RTVSPost2010PropOp28
 70
     0
102
RTVSPost2010Prop29
280
     1
102
RTVSPost2010PropOp29
 70
     0
102
RTVSPost2010Prop30
280
     1
102
RTVSPost2010PropOp30
 70
     0
102
RTVSPost2010Prop31
280
     0
102
RTVSPost2010PropOp31
 70
     0
102
RTVSPost2010Prop32
280
     0
102
RTVSPost2010PropOp32
 70
     0
102
RTVSPost2010Prop33
280
     0
102
RTVSPost2010PropOp33
 70
     0
102
RTVSPost2010Prop34
280
     0
102
RTVSPost2010PropOp34
 70
     0
102
RTVSPost2010Prop35
280
     0
102
RTVSPost2010PropOp35
 70
     0
102
RTVSPost2010Prop36
280
     0
102
RTVSPost2010PropOp36
 70
     0
102
RTVSPost2010Prop37
 90
       50
102
RTVSPost2010PropOp37
 70
     0
102
RTVSPost2010Prop38
140
0.0
102
RTVSPost2010PropOp38
 70
     0
102
RTVSPost2010Prop39
140
1.0
102
RTVSPost2010PropOp39
 70
     0
102
RTVSPost2010Prop40
 90
        0
102
RTVSPost2010PropOp40
 70
     0
102
RTVSPost2010Prop41ColorIndex
 90
       18
102
RTVSPost2010Prop41ColorRGB
 90
        0
102
RTVSPost2010PropOp41
 70
     0
102
RTVSPost2010Prop42
 90
       50
102
RTVSPost2010PropOp42
 70
     0
102
RTVSPost2010Prop43
 90
        3
102
RTVSPost2010PropOp43
 70
     0
102
RTVSPost2010Prop44ColorIndex
 90
        5
102
RTVSPost2010Prop44ColorRGB
 90
      255
102
RTVSPost2010PropOp44
 70
     0
102
RTVSPost2010Prop45
280
     0
102
RTVSPost2010PropOp45
 70
     0
102
RTVSPost2010Prop46
 90
       50
102
RTVSPost2010PropOp46
 70
     0
102
RTVSPost2010Prop47
 90
       50
102
RTVSPost2010PropOp47
 70
     0
102
RTVSPost2010Prop48
 90
       50
102
RTVSPost2010PropOp48
 70
     0
102
RTVSPost2010Prop49
280
     0
102
RTVSPost2010PropOp49
 70
     0
102
RTVSPost2010Prop50
 90
       50
102
RTVSPost2010PropOp50
 70
     0
102
RTVSPost2010Prop51ColorIndex
 90
      256
102
RTVSPost2010Prop51ColorRGB
 90
-16777216
102
RTVSPost2010PropOp51
 70
     0
102
RTVSPost2010Prop52
140
1.0
102
RTVSPost2010PropOp52
 70
     0
102
RTVSPost2010Prop53
 90
        2
102
RTVSPost2010PropOp53
 70
     0
102
RTVSPost2010Prop54
  1
strokes_ogs.tif
102
RTVSPost2010PropOp54
 70
     0
102
RTVSPost2010Prop55
280
     0
102
RTVSPost2010PropOp55
 70
     0
102
RTVSPost2010Prop56
140
1.0
102
RTVSPost2010PropOp56
 70
     0
102
RTVSPost2010Prop57
140
1.0
102
RTVSPost2010PropOp57
 70
     0
  0
XRECORD
  5
39A
102
{ACAD_REACTORS
330
399
102
}
330
399
100
AcDbXrecord
280
     1
102
RTVSPropertyOp0
 70
     1
102
RTVSPropertyOp1
 70
     1
102
RTVSPropertyOp2
 70
     1
102
RTVSPropertyOp3
 70
     1
102
RTVSPropertyOp4
 70
     1
102
RTVSPropertyOp5
 70
     1
102
RTVSPropertyOp6
 70
     1
102
RTVSPropertyOp7
 70
     1
102
RTVSPropertyOp8
 70
     1
102
RTVSPropertyOp9
 70
     1
102
RTVSPropertyOp10
 70
     1
102
RTVSPropertyOp11
 70
     1
102
RTVSPropertyOp12
 70
     1
102
RTVSPropertyOp13
 70
     1
102
RTVSPropertyOp14
 70
     1
102
RTVSPropertyOp15
 70
     1
102
RTVSPropertyOp16
 70
     1
102
RTVSPropertyOp17
 70
     1
102
RTVSPropertyOp18
 70
     1
102
RTVSPropertyOp19
 70
     1
102
RTVSPropertyOp20
 70
     1
102
RTVSPropertyOp21
 70
     1
102
RTVSPropertyOp22
 70
     1
102
RTVSPropertyOp23
 70
     1
102
RTVSPropertyOp24
 70
     1
102
RTVSPropertyOp25
 70
     1
102
RTVSPropertyOp26
 70
     1
102
RTVSPropertyOp27
 70
     1
102
RTVSPropertyOp28
 70
     1
102
RTVSPropertyOp29
 70
     1
102
RTVSPropertyOp30
 70
     1
102
RTVSPropertyOp31
 70
     1
102
RTVSPropertyOp32
 70
     1
102
RTVSPropertyOp33
 70
     1
102
RTVSPropertyOp34
 70
     1
102
RTVSPropertyOp35
 70
     1
102
RTVSPropertyOp36
 70
     1
102
RTVSPropertyOp37
 70
     1
102
RTVSPropertyOp38
 70
     1
102
RTVSPropertyOp39
 70
     1
102
RTVSPropertyOp40
 70
     1
102
RTVSPropertyOp41
 70
     1
102
RTVSPropertyOp42
 70
     1
102
RTVSPropertyOp43
 70
     1
102
RTVSPropertyOp44
 70
     1
102
RTVSPropertyOp45
 70
     1
102
RTVSPropertyOp46
 70
     1
102
RTVSPropertyOp47
 70
     1
102
RTVSPropertyOp48
 70
     1
102
RTVSPropertyOp49
 70
     1
102
RTVSPropertyOp50
 70
     1
102
RTVSPropertyOp51
 70
     0
102
RTVSPropertyOp52
 70
     0
102
RTVSPropertyOp53
 70
     1
102
RTVSPropertyOp54
 70
     1
102
RTVSPropertyOp55
 70
     1
102
RTVSPropertyOp56
 70
     1
102
RTVSPropertyOp57
 70
     1
102
RTVSPost2010Prop28
280
     0
102
RTVSPost2010PropOp28
 70
     1
102
RTVSPost2010Prop29
280
     1
102
RTVSPost2010PropOp29
 70
     1
102
RTVSPost2010Prop30
280
     1
102
RTVSPost2010PropOp30
 70
     1
102
RTVSPost2010Prop31
280
     0
102
RTVSPost2010PropOp31
 70
     1
102
RTVSPost2010Prop32
280
     0
102
RTVSPost2010PropOp32
 70
     1
102
RTVSPost2010Prop33
280
     0
102
RTVSPost2010PropOp33
 70
     1
102
RTVSPost2010Prop34
280
     0
102
RTVSPost2010PropOp34
 70
     1
102
RTVSPost2010Prop35
280
     0
102
RTVSPost2010PropOp35
 70
     1
102
RTVSPost2010Prop36
280
     0
102
RTVSPost2010PropOp36
 70
     1
102
RTVSPost2010Prop37
 90
       50
102
RTVSPost2010PropOp37
 70
     1
102
RTVSPost2010Prop38
140
0.0
102
RTVSPost2010PropOp38
 70
     1
102
RTVSPost2010Prop39
140
1.0
102
RTVSPost2010PropOp39
 70
     1
102
RTVSPost2010Prop40
 90
        0
102
RTVSPost2010PropOp40
 70
     1
102
RTVSPost2010Prop41ColorIndex
 90
       18
102
RTVSPost2010Prop41ColorRGB
 90
        0
102
RTVSPost2010PropOp41
 70
     1
102
RTVSPost2010Prop42
 90
       50
102
RTVSPost2010PropOp42
 70
     1
102
RTVSPost2010Prop43
 90
        3
102
RTVSPost2010PropOp43
 70
     1
102
RTVSPost2010Prop44ColorIndex
 90
        5
102
RTVSPost2010Prop44ColorRGB
 90
      255
102
RTVSPost2010PropOp44
 70
     1
102
RTVSPost2010Prop45
280
     0
102
RTVSPost2010PropOp45
 70
     1
102
RTVSPost2010Prop46
 90
       50
102
RTVSPost2010PropOp46
 70
     1
102
RTVSPost2010Prop47
 90
       50
102
RTVSPost2010PropOp47
 70
     1
102
RTVSPost2010Prop48
 90
       50
102
RTVSPost2010PropOp48
 70
     1
102
RTVSPost2010Prop49
280
     0
102
RTVSPost2010PropOp49
 70
     1
102
RTVSPost2010Prop50
 90
       50
102
RTVSPost2010PropOp50
 70
     1
102
RTVSPost2010Prop51ColorIndex
 90
      256
102
RTVSPost2010Prop51ColorRGB
 90
-16777216
102
RTVSPost2010PropOp51
 70
     0
102
RTVSPost2010Prop52
140
1.0
102
RTVSPost2010PropOp52
 70
     0
102
RTVSPost2010Prop53
 90
        2
102
RTVSPost2010PropOp53
 70
     1
102
RTVSPost2010Prop54
  1
strokes_ogs.tif
102
RTVSPost2010PropOp54
 70
     1
102
RTVSPost2010Prop55
280
     0
102
RTVSPost2010PropOp55
 70
     1
102
RTVSPost2010Prop56
140
1.0
102
RTVSPost2010PropOp56
 70
     1
102
RTVSPost2010Prop57
140
1.0
102
RTVSPost2010PropOp57
 70
     1
  0
XRECORD
  5
37E
102
{ACAD_REACTORS
330
37D
102
}
330
37D
100
AcDbXrecord
280
     1
102
RTVSPropertyOp0
 70
     1
102
RTVSPropertyOp1
 70
     1
102
RTVSPropertyOp2
 70
     1
102
RTVSPropertyOp3
 70
     1
102
RTVSPropertyOp4
 70
     1
102
RTVSPropertyOp5
 70
     1
102
RTVSPropertyOp6
 70
     1
102
RTVSPropertyOp7
 70
     1
102
RTVSPropertyOp8
 70
     1
102
RTVSPropertyOp9
 70
     1
102
RTVSPropertyOp10
 70
     1
102
RTVSPropertyOp11
 70
     1
102
RTVSPropertyOp12
 70
     1
102
RTVSPropertyOp13
 70
     1
102
RTVSPropertyOp14
 70
     1
102
RTVSPropertyOp15
 70
     1
102
RTVSPropertyOp16
 70
     1
102
RTVSPropertyOp17
 70
     1
102
RTVSPropertyOp18
 70
     1
102
RTVSPropertyOp19
 70
     1
102
RTVSPropertyOp20
 70
     1
102
RTVSPropertyOp21
 70
     1
102
RTVSPropertyOp22
 70
     1
102
RTVSPropertyOp23
 70
     1
102
RTVSPropertyOp24
 70
     1
102
RTVSPropertyOp25
 70
     1
102
RTVSPropertyOp26
 70
     1
102
RTVSPropertyOp27
 70
     1
102
RTVSPropertyOp28
 70
     1
102
RTVSPropertyOp29
 70
     1
102
RTVSPropertyOp30
 70
     1
102
RTVSPropertyOp31
 70
     1
102
RTVSPropertyOp32
 70
     1
102
RTVSPropertyOp33
 70
     1
102
RTVSPropertyOp34
 70
     1
102
RTVSPropertyOp35
 70
     1
102
RTVSPropertyOp36
 70
     1
102
RTVSPropertyOp37
 70
     1
102
RTVSPropertyOp38
 70
     1
102
RTVSPropertyOp39
 70
     1
102
RTVSPropertyOp40
 70
     1
102
RTVSPropertyOp41
 70
     1
102
RTVSPropertyOp42
 70
     1
102
RTVSPropertyOp43
 70
     1
102
RTVSPropertyOp44
 70
     1
102
RTVSPropertyOp45
 70
     1
102
RTVSPropertyOp46
 70
     1
102
RTVSPropertyOp47
 70
     1
102
RTVSPropertyOp48
 70
     1
102
RTVSPropertyOp49
 70
     1
102
RTVSPropertyOp50
 70
     1
102
RTVSPropertyOp51
 70
     0
102
RTVSPropertyOp52
 70
     0
102
RTVSPropertyOp53
 70
     1
102
RTVSPropertyOp54
 70
     1
102
RTVSPropertyOp55
 70
     1
102
RTVSPropertyOp56
 70
     1
102
RTVSPropertyOp57
 70
     1
102
RTVSPost2010Prop28
280
     0
102
RTVSPost2010PropOp28
 70
     1
102
RTVSPost2010Prop29
280
     1
102
RTVSPost2010PropOp29
 70
     1
102
RTVSPost2010Prop30
280
     1
102
RTVSPost2010PropOp30
 70
     1
102
RTVSPost2010Prop31
280
     0
102
RTVSPost2010PropOp31
 70
     1
102
RTVSPost2010Prop32
280
     0
102
RTVSPost2010PropOp32
 70
     1
102
RTVSPost2010Prop33
280
     0
102
RTVSPost2010PropOp33
 70
     1
102
RTVSPost2010Prop34
280
     0
102
RTVSPost2010PropOp34
 70
     1
102
RTVSPost2010Prop35
280
     0
102
RTVSPost2010PropOp35
 70
     1
102
RTVSPost2010Prop36
280
     0
102
RTVSPost2010PropOp36
 70
     1
102
RTVSPost2010Prop37
 90
       50
102
RTVSPost2010PropOp37
 70
     1
102
RTVSPost2010Prop38
140
0.0
102
RTVSPost2010PropOp38
 70
     1
102
RTVSPost2010Prop39
140
1.0
102
RTVSPost2010PropOp39
 70
     1
102
RTVSPost2010Prop40
 90
        0
102
RTVSPost2010PropOp40
 70
     1
102
RTVSPost2010Prop41ColorIndex
 90
       18
102
RTVSPost2010Prop41ColorRGB
 90
        0
102
RTVSPost2010PropOp41
 70
     1
102
RTVSPost2010Prop42
 90
       50
102
RTVSPost2010PropOp42
 70
     1
102
RTVSPost2010Prop43
 90
        3
102
RTVSPost2010PropOp43
 70
     1
102
RTVSPost2010Prop44ColorIndex
 90
        5
102
RTVSPost2010Prop44ColorRGB
 90
      255
102
RTVSPost2010PropOp44
 70
     1
102
RTVSPost2010Prop45
280
     0
102
RTVSPost2010PropOp45
 70
     1
102
RTVSPost2010Prop46
 90
       50
102
RTVSPost2010PropOp46
 70
     1
102
RTVSPost2010Prop47
 90
       50
102
RTVSPost2010PropOp47
 70
     1
102
RTVSPost2010Prop48
 90
       50
102
RTVSPost2010PropOp48
 70
     1
102
RTVSPost2010Prop49
280
     0
102
RTVSPost2010PropOp49
 70
     1
102
RTVSPost2010Prop50
 90
       50
102
RTVSPost2010PropOp50
 70
     1
102
RTVSPost2010Prop51ColorIndex
 90
      256
102
RTVSPost2010Prop51ColorRGB
 90
-16777216
102
RTVSPost2010PropOp51
 70
     0
102
RTVSPost2010Prop52
140
1.0
102
RTVSPost2010PropOp52
 70
     0
102
RTVSPost2010Prop53
 90
        2
102
RTVSPost2010PropOp53
 70
     1
102
RTVSPost2010Prop54
  1
strokes_ogs.tif
102
RTVSPost2010PropOp54
 70
     1
102
RTVSPost2010Prop55
280
     0
102
RTVSPost2010PropOp55
 70
     1
102
RTVSPost2010Prop56
140
1.0
102
RTVSPost2010PropOp56
 70
     1
102
RTVSPost2010Prop57
140
1.0
102
RTVSPost2010PropOp57
 70
     1
  0
XRECORD
  5
380
102
{ACAD_REACTORS
330
37F
102
}
330
37F
100
AcDbXrecord
280
     1
102
RTVSPropertyOp0
 70
     1
102
RTVSPropertyOp1
 70
     1
102
RTVSPropertyOp2
 70
     1
102
RTVSPropertyOp3
 70
     1
102
RTVSPropertyOp4
 70
     1
102
RTVSPropertyOp5
 70
     1
102
RTVSPropertyOp6
 70
     1
102
RTVSPropertyOp7
 70
     1
102
RTVSPropertyOp8
 70
     1
102
RTVSPropertyOp9
 70
     1
102
RTVSPropertyOp10
 70
     1
102
RTVSPropertyOp11
 70
     1
102
RTVSPropertyOp12
 70
     1
102
RTVSPropertyOp13
 70
     1
102
RTVSPropertyOp14
 70
     1
102
RTVSPropertyOp15
 70
     1
102
RTVSPropertyOp16
 70
     1
102
RTVSPropertyOp17
 70
     1
102
RTVSPropertyOp18
 70
     1
102
RTVSPropertyOp19
 70
     1
102
RTVSPropertyOp20
 70
     1
102
RTVSPropertyOp21
 70
     1
102
RTVSPropertyOp22
 70
     1
102
RTVSPropertyOp23
 70
     1
102
RTVSPropertyOp24
 70
     1
102
RTVSPropertyOp25
 70
     1
102
RTVSPropertyOp26
 70
     1
102
RTVSPropertyOp27
 70
     1
102
RTVSPropertyOp28
 70
     1
102
RTVSPropertyOp29
 70
     1
102
RTVSPropertyOp30
 70
     1
102
RTVSPropertyOp31
 70
     1
102
RTVSPropertyOp32
 70
     1
102
RTVSPropertyOp33
 70
     1
102
RTVSPropertyOp34
 70
     1
102
RTVSPropertyOp35
 70
     1
102
RTVSPropertyOp36
 70
     1
102
RTVSPropertyOp37
 70
     1
102
RTVSPropertyOp38
 70
     1
102
RTVSPropertyOp39
 70
     1
102
RTVSPropertyOp40
 70
     1
102
RTVSPropertyOp41
 70
     1
102
RTVSPropertyOp42
 70
     1
102
RTVSPropertyOp43
 70
     1
102
RTVSPropertyOp44
 70
     1
102
RTVSPropertyOp45
 70
     1
102
RTVSPropertyOp46
 70
     1
102
RTVSPropertyOp47
 70
     1
102
RTVSPropertyOp48
 70
     1
102
RTVSPropertyOp49
 70
     1
102
RTVSPropertyOp50
 70
     1
102
RTVSPropertyOp51
 70
     0
102
RTVSPropertyOp52
 70
     0
102
RTVSPropertyOp53
 70
     1
102
RTVSPropertyOp54
 70
     1
102
RTVSPropertyOp55
 70
     1
102
RTVSPropertyOp56
 70
     1
102
RTVSPropertyOp57
 70
     1
102
RTVSPost2010Prop28
280
     0
102
RTVSPost2010PropOp28
 70
     1
102
RTVSPost2010Prop29
280
     1
102
RTVSPost2010PropOp29
 70
     1
102
RTVSPost2010Prop30
280
     1
102
RTVSPost2010PropOp30
 70
     1
102
RTVSPost2010Prop31
280
     0
102
RTVSPost2010PropOp31
 70
     1
102
RTVSPost2010Prop32
280
     0
102
RTVSPost2010PropOp32
 70
     1
102
RTVSPost2010Prop33
280
     0
102
RTVSPost2010PropOp33
 70
     1
102
RTVSPost2010Prop34
280
     0
102
RTVSPost2010PropOp34
 70
     1
102
RTVSPost2010Prop35
280
     0
102
RTVSPost2010PropOp35
 70
     1
102
RTVSPost2010Prop36
280
     0
102
RTVSPost2010PropOp36
 70
     1
102
RTVSPost2010Prop37
 90
       50
102
RTVSPost2010PropOp37
 70
     1
102
RTVSPost2010Prop38
140
0.0
102
RTVSPost2010PropOp38
 70
     1
102
RTVSPost2010Prop39
140
1.0
102
RTVSPost2010PropOp39
 70
     1
102
RTVSPost2010Prop40
 90
        0
102
RTVSPost2010PropOp40
 70
     1
102
RTVSPost2010Prop41ColorIndex
 90
       18
102
RTVSPost2010Prop41ColorRGB
 90
        0
102
RTVSPost2010PropOp41
 70
     1
102
RTVSPost2010Prop42
 90
       50
102
RTVSPost2010PropOp42
 70
     1
102
RTVSPost2010Prop43
 90
        3
102
RTVSPost2010PropOp43
 70
     1
102
RTVSPost2010Prop44ColorIndex
 90
        5
102
RTVSPost2010Prop44ColorRGB
 90
      255
102
RTVSPost2010PropOp44
 70
     1
102
RTVSPost2010Prop45
280
     0
102
RTVSPost2010PropOp45
 70
     1
102
RTVSPost2010Prop46
 90
       50
102
RTVSPost2010PropOp46
 70
     1
102
RTVSPost2010Prop47
 90
       50
102
RTVSPost2010PropOp47
 70
     1
102
RTVSPost2010Prop48
 90
       50
102
RTVSPost2010PropOp48
 70
     1
102
RTVSPost2010Prop49
280
     0
102
RTVSPost2010PropOp49
 70
     1
102
RTVSPost2010Prop50
 90
       50
102
RTVSPost2010PropOp50
 70
     1
102
RTVSPost2010Prop51ColorIndex
 90
      256
102
RTVSPost2010Prop51ColorRGB
 90
-16777216
102
RTVSPost2010PropOp51
 70
     0
102
RTVSPost2010Prop52
140
1.0
102
RTVSPost2010PropOp52
 70
     0
102
RTVSPost2010Prop53
 90
        2
102
RTVSPost2010PropOp53
 70
     1
102
RTVSPost2010Prop54
  1
strokes_ogs.tif
102
RTVSPost2010PropOp54
 70
     1
102
RTVSPost2010Prop55
280
     0
102
RTVSPost2010PropOp55
 70
     1
102
RTVSPost2010Prop56
140
1.0
102
RTVSPost2010PropOp56
 70
     1
102
RTVSPost2010Prop57
140
1.0
102
RTVSPost2010PropOp57
 70
     1
  0
XRECORD
  5
382
102
{ACAD_REACTORS
330
381
102
}
330
381
100
AcDbXrecord
280
     1
102
RTVSPropertyOp0
 70
     1
102
RTVSPropertyOp1
 70
     1
102
RTVSPropertyOp2
 70
     1
102
RTVSPropertyOp3
 70
     1
102
RTVSPropertyOp4
 70
     1
102
RTVSPropertyOp5
 70
     1
102
RTVSPropertyOp6
 70
     1
102
RTVSPropertyOp7
 70
     1
102
RTVSPropertyOp8
 70
     1
102
RTVSPropertyOp9
 70
     1
102
RTVSPropertyOp10
 70
     1
102
RTVSPropertyOp11
 70
     1
102
RTVSPropertyOp12
 70
     1
102
RTVSPropertyOp13
 70
     1
102
RTVSPropertyOp14
 70
     1
102
RTVSPropertyOp15
 70
     1
102
RTVSPropertyOp16
 70
     1
102
RTVSPropertyOp17
 70
     1
102
RTVSPropertyOp18
 70
     1
102
RTVSPropertyOp19
 70
     1
102
RTVSPropertyOp20
 70
     1
102
RTVSPropertyOp21
 70
     1
102
RTVSPropertyOp22
 70
     1
102
RTVSPropertyOp23
 70
     1
102
RTVSPropertyOp24
 70
     1
102
RTVSPropertyOp25
 70
     1
102
RTVSPropertyOp26
 70
     1
102
RTVSPropertyOp27
 70
     1
102
RTVSPropertyOp28
 70
     1
102
RTVSPropertyOp29
 70
     1
102
RTVSPropertyOp30
 70
     1
102
RTVSPropertyOp31
 70
     1
102
RTVSPropertyOp32
 70
     1
102
RTVSPropertyOp33
 70
     1
102
RTVSPropertyOp34
 70
     1
102
RTVSPropertyOp35
 70
     1
102
RTVSPropertyOp36
 70
     1
102
RTVSPropertyOp37
 70
     1
102
RTVSPropertyOp38
 70
     1
102
RTVSPropertyOp39
 70
     1
102
RTVSPropertyOp40
 70
     1
102
RTVSPropertyOp41
 70
     1
102
RTVSPropertyOp42
 70
     1
102
RTVSPropertyOp43
 70
     1
102
RTVSPropertyOp44
 70
     1
102
RTVSPropertyOp45
 70
     1
102
RTVSPropertyOp46
 70
     1
102
RTVSPropertyOp47
 70
     1
102
RTVSPropertyOp48
 70
     1
102
RTVSPropertyOp49
 70
     1
102
RTVSPropertyOp50
 70
     1
102
RTVSPropertyOp51
 70
     0
102
RTVSPropertyOp52
 70
     0
102
RTVSPropertyOp53
 70
     1
102
RTVSPropertyOp54
 70
     1
102
RTVSPropertyOp55
 70
     1
102
RTVSPropertyOp56
 70
     1
102
RTVSPropertyOp57
 70
     1
102
RTVSPost2010Prop28
280
     0
102
RTVSPost2010PropOp28
 70
     1
102
RTVSPost2010Prop29
280
     1
102
RTVSPost2010PropOp29
 70
     1
102
RTVSPost2010Prop30
280
     1
102
RTVSPost2010PropOp30
 70
     1
102
RTVSPost2010Prop31
280
     0
102
RTVSPost2010PropOp31
 70
     1
102
RTVSPost2010Prop32
280
     0
102
RTVSPost2010PropOp32
 70
     1
102
RTVSPost2010Prop33
280
     0
102
RTVSPost2010PropOp33
 70
     1
102
RTVSPost2010Prop34
280
     0
102
RTVSPost2010PropOp34
 70
     1
102
RTVSPost2010Prop35
280
     0
102
RTVSPost2010PropOp35
 70
     1
102
RTVSPost2010Prop36
280
     0
102
RTVSPost2010PropOp36
 70
     1
102
RTVSPost2010Prop37
 90
       50
102
RTVSPost2010PropOp37
 70
     1
102
RTVSPost2010Prop38
140
0.0
102
RTVSPost2010PropOp38
 70
     1
102
RTVSPost2010Prop39
140
1.0
102
RTVSPost2010PropOp39
 70
     1
102
RTVSPost2010Prop40
 90
        0
102
RTVSPost2010PropOp40
 70
     1
102
RTVSPost2010Prop41ColorIndex
 90
       18
102
RTVSPost2010Prop41ColorRGB
 90
        0
102
RTVSPost2010PropOp41
 70
     1
102
RTVSPost2010Prop42
 90
       50
102
RTVSPost2010PropOp42
 70
     1
102
RTVSPost2010Prop43
 90
        3
102
RTVSPost2010PropOp43
 70
     1
102
RTVSPost2010Prop44ColorIndex
 90
        5
102
RTVSPost2010Prop44ColorRGB
 90
      255
102
RTVSPost2010PropOp44
 70
     1
102
RTVSPost2010Prop45
280
     0
102
RTVSPost2010PropOp45
 70
     1
102
RTVSPost2010Prop46
 90
       50
102
RTVSPost2010PropOp46
 70
     1
102
RTVSPost2010Prop47
 90
       50
102
RTVSPost2010PropOp47
 70
     1
102
RTVSPost2010Prop48
 90
       50
102
RTVSPost2010PropOp48
 70
     1
102
RTVSPost2010Prop49
280
     0
102
RTVSPost2010PropOp49
 70
     1
102
RTVSPost2010Prop50
 90
       50
102
RTVSPost2010PropOp50
 70
     1
102
RTVSPost2010Prop51ColorIndex
 90
      256
102
RTVSPost2010Prop51ColorRGB
 90
-16777216
102
RTVSPost2010PropOp51
 70
     0
102
RTVSPost2010Prop52
140
1.0
102
RTVSPost2010PropOp52
 70
     0
102
RTVSPost2010Prop53
 90
        2
102
RTVSPost2010PropOp53
 70
     1
102
RTVSPost2010Prop54
  1
strokes_ogs.tif
102
RTVSPost2010PropOp54
 70
     1
102
RTVSPost2010Prop55
280
     0
102
RTVSPost2010PropOp55
 70
     1
102
RTVSPost2010Prop56
140
1.0
102
RTVSPost2010PropOp56
 70
     1
102
RTVSPost2010Prop57
140
1.0
102
RTVSPost2010PropOp57
 70
     1
  0
XRECORD
  5
384
102
{ACAD_REACTORS
330
383
102
}
330
383
100
AcDbXrecord
280
     1
102
RTVSPropertyOp0
 70
     1
102
RTVSPropertyOp1
 70
     1
102
RTVSPropertyOp2
 70
     1
102
RTVSPropertyOp3
 70
     1
102
RTVSPropertyOp4
 70
     1
102
RTVSPropertyOp5
 70
     1
102
RTVSPropertyOp6
 70
     1
102
RTVSPropertyOp7
 70
     1
102
RTVSPropertyOp8
 70
     1
102
RTVSPropertyOp9
 70
     1
102
RTVSPropertyOp10
 70
     1
102
RTVSPropertyOp11
 70
     1
102
RTVSPropertyOp12
 70
     1
102
RTVSPropertyOp13
 70
     1
102
RTVSPropertyOp14
 70
     1
102
RTVSPropertyOp15
 70
     1
102
RTVSPropertyOp16
 70
     1
102
RTVSPropertyOp17
 70
     1
102
RTVSPropertyOp18
 70
     1
102
RTVSPropertyOp19
 70
     1
102
RTVSPropertyOp20
 70
     1
102
RTVSPropertyOp21
 70
     1
102
RTVSPropertyOp22
 70
     1
102
RTVSPropertyOp23
 70
     1
102
RTVSPropertyOp24
 70
     1
102
RTVSPropertyOp25
 70
     1
102
RTVSPropertyOp26
 70
     1
102
RTVSPropertyOp27
 70
     1
102
RTVSPropertyOp28
 70
     1
102
RTVSPropertyOp29
 70
     1
102
RTVSPropertyOp30
 70
     1
102
RTVSPropertyOp31
 70
     1
102
RTVSPropertyOp32
 70
     1
102
RTVSPropertyOp33
 70
     1
102
RTVSPropertyOp34
 70
     1
102
RTVSPropertyOp35
 70
     1
102
RTVSPropertyOp36
 70
     1
102
RTVSPropertyOp37
 70
     1
102
RTVSPropertyOp38
 70
     1
102
RTVSPropertyOp39
 70
     1
102
RTVSPropertyOp40
 70
     1
102
RTVSPropertyOp41
 70
     1
102
RTVSPropertyOp42
 70
     1
102
RTVSPropertyOp43
 70
     1
102
RTVSPropertyOp44
 70
     1
102
RTVSPropertyOp45
 70
     1
102
RTVSPropertyOp46
 70
     1
102
RTVSPropertyOp47
 70
     1
102
RTVSPropertyOp48
 70
     1
102
RTVSPropertyOp49
 70
     1
102
RTVSPropertyOp50
 70
     1
102
RTVSPropertyOp51
 70
     0
102
RTVSPropertyOp52
 70
     0
102
RTVSPropertyOp53
 70
     1
102
RTVSPropertyOp54
 70
     1
102
RTVSPropertyOp55
 70
     1
102
RTVSPropertyOp56
 70
     1
102
RTVSPropertyOp57
 70
     1
102
RTVSPost2010Prop28
280
     0
102
RTVSPost2010PropOp28
 70
     1
102
RTVSPost2010Prop29
280
     1
102
RTVSPost2010PropOp29
 70
     1
102
RTVSPost2010Prop30
280
     1
102
RTVSPost2010PropOp30
 70
     1
102
RTVSPost2010Prop31
280
     0
102
RTVSPost2010PropOp31
 70
     1
102
RTVSPost2010Prop32
280
     0
102
RTVSPost2010PropOp32
 70
     1
102
RTVSPost2010Prop33
280
     0
102
RTVSPost2010PropOp33
 70
     1
102
RTVSPost2010Prop34
280
     0
102
RTVSPost2010PropOp34
 70
     1
102
RTVSPost2010Prop35
280
     0
102
RTVSPost2010PropOp35
 70
     1
102
RTVSPost2010Prop36
280
     0
102
RTVSPost2010PropOp36
 70
     1
102
RTVSPost2010Prop37
 90
       50
102
RTVSPost2010PropOp37
 70
     1
102
RTVSPost2010Prop38
140
0.0
102
RTVSPost2010PropOp38
 70
     1
102
RTVSPost2010Prop39
140
1.0
102
RTVSPost2010PropOp39
 70
     1
102
RTVSPost2010Prop40
 90
        0
102
RTVSPost2010PropOp40
 70
     1
102
RTVSPost2010Prop41ColorIndex
 90
       18
102
RTVSPost2010Prop41ColorRGB
 90
        0
102
RTVSPost2010PropOp41
 70
     1
102
RTVSPost2010Prop42
 90
       50
102
RTVSPost2010PropOp42
 70
     1
102
RTVSPost2010Prop43
 90
        3
102
RTVSPost2010PropOp43
 70
     1
102
RTVSPost2010Prop44ColorIndex
 90
        5
102
RTVSPost2010Prop44ColorRGB
 90
      255
102
RTVSPost2010PropOp44
 70
     1
102
RTVSPost2010Prop45
280
     0
102
RTVSPost2010PropOp45
 70
     1
102
RTVSPost2010Prop46
 90
       50
102
RTVSPost2010PropOp46
 70
     1
102
RTVSPost2010Prop47
 90
       50
102
RTVSPost2010PropOp47
 70
     1
102
RTVSPost2010Prop48
 90
       50
102
RTVSPost2010PropOp48
 70
     1
102
RTVSPost2010Prop49
280
     0
102
RTVSPost2010PropOp49
 70
     1
102
RTVSPost2010Prop50
 90
       50
102
RTVSPost2010PropOp50
 70
     1
102
RTVSPost2010Prop51ColorIndex
 90
      256
102
RTVSPost2010Prop51ColorRGB
 90
-16777216
102
RTVSPost2010PropOp51
 70
     0
102
RTVSPost2010Prop52
140
1.0
102
RTVSPost2010PropOp52
 70
     0
102
RTVSPost2010Prop53
 90
        2
102
RTVSPost2010PropOp53
 70
     1
102
RTVSPost2010Prop54
  1
strokes_ogs.tif
102
RTVSPost2010PropOp54
 70
     1
102
RTVSPost2010Prop55
280
     0
102
RTVSPost2010PropOp55
 70
     1
102
RTVSPost2010Prop56
140
1.0
102
RTVSPost2010PropOp56
 70
     1
102
RTVSPost2010Prop57
140
1.0
102
RTVSPost2010PropOp57
 70
     1
  0
XRECORD
  5
38A
102
{ACAD_REACTORS
330
389
102
}
330
389
100
AcDbXrecord
280
     1
102
RTVSPropertyOp0
 70
     1
102
RTVSPropertyOp1
 70
     1
102
RTVSPropertyOp2
 70
     1
102
RTVSPropertyOp3
 70
     1
102
RTVSPropertyOp4
 70
     1
102
RTVSPropertyOp5
 70
     1
102
RTVSPropertyOp6
 70
     1
102
RTVSPropertyOp7
 70
     1
102
RTVSPropertyOp8
 70
     1
102
RTVSPropertyOp9
 70
     1
102
RTVSPropertyOp10
 70
     1
102
RTVSPropertyOp11
 70
     1
102
RTVSPropertyOp12
 70
     1
102
RTVSPropertyOp13
 70
     1
102
RTVSPropertyOp14
 70
     1
102
RTVSPropertyOp15
 70
     1
102
RTVSPropertyOp16
 70
     1
102
RTVSPropertyOp17
 70
     1
102
RTVSPropertyOp18
 70
     1
102
RTVSPropertyOp19
 70
     1
102
RTVSPropertyOp20
 70
     1
102
RTVSPropertyOp21
 70
     1
102
RTVSPropertyOp22
 70
     1
102
RTVSPropertyOp23
 70
     1
102
RTVSPropertyOp24
 70
     1
102
RTVSPropertyOp25
 70
     1
102
RTVSPropertyOp26
 70
     1
102
RTVSPropertyOp27
 70
     1
102
RTVSPropertyOp28
 70
     1
102
RTVSPropertyOp29
 70
     1
102
RTVSPropertyOp30
 70
     1
102
RTVSPropertyOp31
 70
     1
102
RTVSPropertyOp32
 70
     1
102
RTVSPropertyOp33
 70
     1
102
RTVSPropertyOp34
 70
     1
102
RTVSPropertyOp35
 70
     1
102
RTVSPropertyOp36
 70
     1
102
RTVSPropertyOp37
 70
     1
102
RTVSPropertyOp38
 70
     1
102
RTVSPropertyOp39
 70
     1
102
RTVSPropertyOp40
 70
     1
102
RTVSPropertyOp41
 70
     1
102
RTVSPropertyOp42
 70
     1
102
RTVSPropertyOp43
 70
     1
102
RTVSPropertyOp44
 70
     1
102
RTVSPropertyOp45
 70
     1
102
RTVSPropertyOp46
 70
     1
102
RTVSPropertyOp47
 70
     1
102
RTVSPropertyOp48
 70
     1
102
RTVSPropertyOp49
 70
     1
102
RTVSPropertyOp50
 70
     1
102
RTVSPropertyOp51
 70
     0
102
RTVSPropertyOp52
 70
     0
102
RTVSPropertyOp53
 70
     1
102
RTVSPropertyOp54
 70
     1
102
RTVSPropertyOp55
 70
     1
102
RTVSPropertyOp56
 70
     1
102
RTVSPropertyOp57
 70
     1
102
RTVSPost2010Prop28
280
     0
102
RTVSPost2010PropOp28
 70
     1
102
RTVSPost2010Prop29
280
     1
102
RTVSPost2010PropOp29
 70
     1
102
RTVSPost2010Prop30
280
     1
102
RTVSPost2010PropOp30
 70
     1
102
RTVSPost2010Prop31
280
     0
102
RTVSPost2010PropOp31
 70
     1
102
RTVSPost2010Prop32
280
     0
102
RTVSPost2010PropOp32
 70
     1
102
RTVSPost2010Prop33
280
     0
102
RTVSPost2010PropOp33
 70
     1
102
RTVSPost2010Prop34
280
     0
102
RTVSPost2010PropOp34
 70
     1
102
RTVSPost2010Prop35
280
     0
102
RTVSPost2010PropOp35
 70
     1
102
RTVSPost2010Prop36
280
     0
102
RTVSPost2010PropOp36
 70
     1
102
RTVSPost2010Prop37
 90
       50
102
RTVSPost2010PropOp37
 70
     1
102
RTVSPost2010Prop38
140
0.0
102
RTVSPost2010PropOp38
 70
     1
102
RTVSPost2010Prop39
140
1.0
102
RTVSPost2010PropOp39
 70
     1
102
RTVSPost2010Prop40
 90
        0
102
RTVSPost2010PropOp40
 70
     1
102
RTVSPost2010Prop41ColorIndex
 90
       18
102
RTVSPost2010Prop41ColorRGB
 90
        0
102
RTVSPost2010PropOp41
 70
     1
102
RTVSPost2010Prop42
 90
       50
102
RTVSPost2010PropOp42
 70
     1
102
RTVSPost2010Prop43
 90
        3
102
RTVSPost2010PropOp43
 70
     1
102
RTVSPost2010Prop44ColorIndex
 90
        5
102
RTVSPost2010Prop44ColorRGB
 90
      255
102
RTVSPost2010PropOp44
 70
     1
102
RTVSPost2010Prop45
280
     0
102
RTVSPost2010PropOp45
 70
     1
102
RTVSPost2010Prop46
 90
       50
102
RTVSPost2010PropOp46
 70
     1
102
RTVSPost2010Prop47
 90
       50
102
RTVSPost2010PropOp47
 70
     1
102
RTVSPost2010Prop48
 90
       50
102
RTVSPost2010PropOp48
 70
     1
102
RTVSPost2010Prop49
280
     0
102
RTVSPost2010PropOp49
 70
     1
102
RTVSPost2010Prop50
 90
       50
102
RTVSPost2010PropOp50
 70
     1
102
RTVSPost2010Prop51ColorIndex
 90
      256
102
RTVSPost2010Prop51ColorRGB
 90
-16777216
102
RTVSPost2010PropOp51
 70
     0
102
RTVSPost2010Prop52
140
1.0
102
RTVSPost2010PropOp52
 70
     0
102
RTVSPost2010Prop53
 90
        2
102
RTVSPost2010PropOp53
 70
     1
102
RTVSPost2010Prop54
  1
strokes_ogs.tif
102
RTVSPost2010PropOp54
 70
     1
102
RTVSPost2010Prop55
280
     0
102
RTVSPost2010PropOp55
 70
     1
102
RTVSPost2010Prop56
140
1.0
102
RTVSPost2010PropOp56
 70
     1
102
RTVSPost2010Prop57
140
1.0
102
RTVSPost2010PropOp57
 70
     1
  0
XRECORD
  5
39E
102
{ACAD_REACTORS
330
39D
102
}
330
39D
100
AcDbXrecord
280
     1
102
RTVSPropertyOp0
 70
     0
102
RTVSPropertyOp1
 70
     0
102
RTVSPropertyOp2
 70
     0
102
RTVSPropertyOp3
 70
     0
102
RTVSPropertyOp4
 70
     0
102
RTVSPropertyOp5
 70
     0
102
RTVSPropertyOp6
 70
     0
102
RTVSPropertyOp7
 70
     0
102
RTVSPropertyOp8
 70
     0
102
RTVSPropertyOp9
 70
     0
102
RTVSPropertyOp10
 70
     0
102
RTVSPropertyOp11
 70
     0
102
RTVSPropertyOp12
 70
     0
102
RTVSPropertyOp13
 70
     0
102
RTVSPropertyOp14
 70
     2
102
RTVSPropertyOp15
 70
     0
102
RTVSPropertyOp16
 70
     0
102
RTVSPropertyOp17
 70
     0
102
RTVSPropertyOp18
 70
     0
102
RTVSPropertyOp19
 70
     0
102
RTVSPropertyOp20
 70
     0
102
RTVSPropertyOp21
 70
     0
102
RTVSPropertyOp22
 70
     0
102
RTVSPropertyOp23
 70
     0
102
RTVSPropertyOp24
 70
     0
102
RTVSPropertyOp25
 70
     0
102
RTVSPropertyOp26
 70
     0
102
RTVSPropertyOp27
 70
     0
102
RTVSPropertyOp28
 70
     0
102
RTVSPropertyOp29
 70
     0
102
RTVSPropertyOp30
 70
     0
102
RTVSPropertyOp31
 70
     0
102
RTVSPropertyOp32
 70
     0
102
RTVSPropertyOp33
 70
     0
102
RTVSPropertyOp34
 70
     0
102
RTVSPropertyOp35
 70
     0
102
RTVSPropertyOp36
 70
     0
102
RTVSPropertyOp37
 70
     0
102
RTVSPropertyOp38
 70
     0
102
RTVSPropertyOp39
 70
     0
102
RTVSPropertyOp40
 70
     0
102
RTVSPropertyOp41
 70
     0
102
RTVSPropertyOp42
 70
     0
102
RTVSPropertyOp43
 70
     0
102
RTVSPropertyOp44
 70
     0
102
RTVSPropertyOp45
 70
     0
102
RTVSPropertyOp46
 70
     0
102
RTVSPropertyOp47
 70
     0
102
RTVSPropertyOp48
 70
     0
102
RTVSPropertyOp49
 70
     0
102
RTVSPropertyOp50
 70
     0
102
RTVSPropertyOp51
 70
     0
102
RTVSPropertyOp52
 70
     0
102
RTVSPropertyOp53
 70
     0
102
RTVSPropertyOp54
 70
     0
102
RTVSPropertyOp55
 70
     0
102
RTVSPropertyOp56
 70
     0
102
RTVSPropertyOp57
 70
     0
102
RTVSPost2010Prop28
280
     0
102
RTVSPost2010PropOp28
 70
     0
102
RTVSPost2010Prop29
280
     1
102
RTVSPost2010PropOp29
 70
     0
102
RTVSPost2010Prop30
280
     1
102
RTVSPost2010PropOp30
 70
     0
102
RTVSPost2010Prop31
280
     0
102
RTVSPost2010PropOp31
 70
     0
102
RTVSPost2010Prop32
280
     0
102
RTVSPost2010PropOp32
 70
     0
102
RTVSPost2010Prop33
280
     0
102
RTVSPost2010PropOp33
 70
     0
102
RTVSPost2010Prop34
280
     0
102
RTVSPost2010PropOp34
 70
     0
102
RTVSPost2010Prop35
280
     0
102
RTVSPost2010PropOp35
 70
     0
102
RTVSPost2010Prop36
280
     0
102
RTVSPost2010PropOp36
 70
     0
102
RTVSPost2010Prop37
 90
       50
102
RTVSPost2010PropOp37
 70
     0
102
RTVSPost2010Prop38
140
0.0
102
RTVSPost2010PropOp38
 70
     0
102
RTVSPost2010Prop39
140
1.0
102
RTVSPost2010PropOp39
 70
     0
102
RTVSPost2010Prop40
 90
        0
102
RTVSPost2010PropOp40
 70
     0
102
RTVSPost2010Prop41ColorIndex
 90
       18
102
RTVSPost2010Prop41ColorRGB
 90
        0
102
RTVSPost2010PropOp41
 70
     0
102
RTVSPost2010Prop42
 90
       50
102
RTVSPost2010PropOp42
 70
     0
102
RTVSPost2010Prop43
 90
        3
102
RTVSPost2010PropOp43
 70
     0
102
RTVSPost2010Prop44ColorIndex
 90
        5
102
RTVSPost2010Prop44ColorRGB
 90
      255
102
RTVSPost2010PropOp44
 70
     0
102
RTVSPost2010Prop45
280
     0
102
RTVSPost2010PropOp45
 70
     0
102
RTVSPost2010Prop46
 90
       50
102
RTVSPost2010PropOp46
 70
     0
102
RTVSPost2010Prop47
 90
       50
102
RTVSPost2010PropOp47
 70
     0
102
RTVSPost2010Prop48
 90
       50
102
RTVSPost2010PropOp48
 70
     0
102
RTVSPost2010Prop49
280
     0
102
RTVSPost2010PropOp49
 70
     0
102
RTVSPost2010Prop50
 90
       50
102
RTVSPost2010PropOp50
 70
     0
102
RTVSPost2010Prop51ColorIndex
 90
      256
102
RTVSPost2010Prop51ColorRGB
 90
-16777216
102
RTVSPost2010PropOp51
 70
     0
102
RTVSPost2010Prop52
140
1.0
102
RTVSPost2010PropOp52
 70
     0
102
RTVSPost2010Prop53
 90
        2
102
RTVSPost2010PropOp53
 70
     0
102
RTVSPost2010Prop54
  1
strokes_ogs.tif
102
RTVSPost2010PropOp54
 70
     0
102
RTVSPost2010Prop55
280
     0
102
RTVSPost2010PropOp55
 70
     0
102
RTVSPost2010Prop56
140
1.0
102
RTVSPost2010PropOp56
 70
     0
102
RTVSPost2010Prop57
140
1.0
102
RTVSPost2010PropOp57
 70
     0
  0
XRECORD
  5
398
102
{ACAD_REACTORS
330
397
102
}
330
397
100
AcDbXrecord
280
     1
102
RTVSPropertyOp0
 70
     1
102
RTVSPropertyOp1
 70
     1
102
RTVSPropertyOp2
 70
     1
102
RTVSPropertyOp3
 70
     1
102
RTVSPropertyOp4
 70
     1
102
RTVSPropertyOp5
 70
     1
102
RTVSPropertyOp6
 70
     1
102
RTVSPropertyOp7
 70
     1
102
RTVSPropertyOp8
 70
     1
102
RTVSPropertyOp9
 70
     1
102
RTVSPropertyOp10
 70
     1
102
RTVSPropertyOp11
 70
     1
102
RTVSPropertyOp12
 70
     1
102
RTVSPropertyOp13
 70
     1
102
RTVSPropertyOp14
 70
     1
102
RTVSPropertyOp15
 70
     1
102
RTVSPropertyOp16
 70
     1
102
RTVSPropertyOp17
 70
     1
102
RTVSPropertyOp18
 70
     1
102
RTVSPropertyOp19
 70
     1
102
RTVSPropertyOp20
 70
     1
102
RTVSPropertyOp21
 70
     1
102
RTVSPropertyOp22
 70
     1
102
RTVSPropertyOp23
 70
     1
102
RTVSPropertyOp24
 70
     1
102
RTVSPropertyOp25
 70
     1
102
RTVSPropertyOp26
 70
     1
102
RTVSPropertyOp27
 70
     1
102
RTVSPropertyOp28
 70
     1
102
RTVSPropertyOp29
 70
     1
102
RTVSPropertyOp30
 70
     1
102
RTVSPropertyOp31
 70
     1
102
RTVSPropertyOp32
 70
     1
102
RTVSPropertyOp33
 70
     1
102
RTVSPropertyOp34
 70
     1
102
RTVSPropertyOp35
 70
     1
102
RTVSPropertyOp36
 70
     1
102
RTVSPropertyOp37
 70
     1
102
RTVSPropertyOp38
 70
     1
102
RTVSPropertyOp39
 70
     1
102
RTVSPropertyOp40
 70
     1
102
RTVSPropertyOp41
 70
     1
102
RTVSPropertyOp42
 70
     1
102
RTVSPropertyOp43
 70
     1
102
RTVSPropertyOp44
 70
     1
102
RTVSPropertyOp45
 70
     1
102
RTVSPropertyOp46
 70
     1
102
RTVSPropertyOp47
 70
     1
102
RTVSPropertyOp48
 70
     1
102
RTVSPropertyOp49
 70
     1
102
RTVSPropertyOp50
 70
     1
102
RTVSPropertyOp51
 70
     0
102
RTVSPropertyOp52
 70
     0
102
RTVSPropertyOp53
 70
     1
102
RTVSPropertyOp54
 70
     1
102
RTVSPropertyOp55
 70
     1
102
RTVSPropertyOp56
 70
     1
102
RTVSPropertyOp57
 70
     1
102
RTVSPost2010Prop28
280
     0
102
RTVSPost2010PropOp28
 70
     1
102
RTVSPost2010Prop29
280
     1
102
RTVSPost2010PropOp29
 70
     1
102
RTVSPost2010Prop30
280
     1
102
RTVSPost2010PropOp30
 70
     1
102
RTVSPost2010Prop31
280
     0
102
RTVSPost2010PropOp31
 70
     1
102
RTVSPost2010Prop32
280
     0
102
RTVSPost2010PropOp32
 70
     1
102
RTVSPost2010Prop33
280
     0
102
RTVSPost2010PropOp33
 70
     1
102
RTVSPost2010Prop34
280
     0
102
RTVSPost2010PropOp34
 70
     1
102
RTVSPost2010Prop35
280
     0
102
RTVSPost2010PropOp35
 70
     1
102
RTVSPost2010Prop36
280
     0
102
RTVSPost2010PropOp36
 70
     1
102
RTVSPost2010Prop37
 90
       50
102
RTVSPost2010PropOp37
 70
     1
102
RTVSPost2010Prop38
140
0.0
102
RTVSPost2010PropOp38
 70
     1
102
RTVSPost2010Prop39
140
1.0
102
RTVSPost2010PropOp39
 70
     1
102
RTVSPost2010Prop40
 90
        0
102
RTVSPost2010PropOp40
 70
     1
102
RTVSPost2010Prop41ColorIndex
 90
       18
102
RTVSPost2010Prop41ColorRGB
 90
        0
102
RTVSPost2010PropOp41
 70
     1
102
RTVSPost2010Prop42
 90
       50
102
RTVSPost2010PropOp42
 70
     1
102
RTVSPost2010Prop43
 90
        3
102
RTVSPost2010PropOp43
 70
     1
102
RTVSPost2010Prop44ColorIndex
 90
        5
102
RTVSPost2010Prop44ColorRGB
 90
      255
102
RTVSPost2010PropOp44
 70
     1
102
RTVSPost2010Prop45
280
     0
102
RTVSPost2010PropOp45
 70
     1
102
RTVSPost2010Prop46
 90
       50
102
RTVSPost2010PropOp46
 70
     1
102
RTVSPost2010Prop47
 90
       50
102
RTVSPost2010PropOp47
 70
     1
102
RTVSPost2010Prop48
 90
       50
102
RTVSPost2010PropOp48
 70
     1
102
RTVSPost2010Prop49
280
     0
102
RTVSPost2010PropOp49
 70
     1
102
RTVSPost2010Prop50
 90
       50
102
RTVSPost2010PropOp50
 70
     1
102
RTVSPost2010Prop51ColorIndex
 90
      256
102
RTVSPost2010Prop51ColorRGB
 90
-16777216
102
RTVSPost2010PropOp51
 70
     0
102
RTVSPost2010Prop52
140
1.0
102
RTVSPost2010PropOp52
 70
     0
102
RTVSPost2010Prop53
 90
        2
102
RTVSPost2010PropOp53
 70
     1
102
RTVSPost2010Prop54
  1
strokes_ogs.tif
102
RTVSPost2010PropOp54
 70
     1
102
RTVSPost2010Prop55
280
     0
102
RTVSPost2010PropOp55
 70
     1
102
RTVSPost2010Prop56
140
1.0
102
RTVSPost2010PropOp56
 70
     1
102
RTVSPost2010Prop57
140
1.0
102
RTVSPost2010PropOp57
 70
     1
  0
XRECORD
  5
3A0
102
{ACAD_REACTORS
330
39F
102
}
330
39F
100
AcDbXrecord
280
     1
102
RTVSPropertyOp0
 70
     0
102
RTVSPropertyOp1
 70
     0
102
RTVSPropertyOp2
 70
     0
102
RTVSPropertyOp3
 70
     0
102
RTVSPropertyOp4
 70
     0
102
RTVSPropertyOp5
 70
     0
102
RTVSPropertyOp6
 70
     0
102
RTVSPropertyOp7
 70
     0
102
RTVSPropertyOp8
 70
     0
102
RTVSPropertyOp9
 70
     0
102
RTVSPropertyOp10
 70
     0
102
RTVSPropertyOp11
 70
     0
102
RTVSPropertyOp12
 70
     0
102
RTVSPropertyOp13
 70
     0
102
RTVSPropertyOp14
 70
     2
102
RTVSPropertyOp15
 70
     0
102
RTVSPropertyOp16
 70
     0
102
RTVSPropertyOp17
 70
     0
102
RTVSPropertyOp18
 70
     0
102
RTVSPropertyOp19
 70
     0
102
RTVSPropertyOp20
 70
     0
102
RTVSPropertyOp21
 70
     0
102
RTVSPropertyOp22
 70
     0
102
RTVSPropertyOp23
 70
     0
102
RTVSPropertyOp24
 70
     0
102
RTVSPropertyOp25
 70
     0
102
RTVSPropertyOp26
 70
     0
102
RTVSPropertyOp27
 70
     0
102
RTVSPropertyOp28
 70
     0
102
RTVSPropertyOp29
 70
     0
102
RTVSPropertyOp30
 70
     0
102
RTVSPropertyOp31
 70
     0
102
RTVSPropertyOp32
 70
     0
102
RTVSPropertyOp33
 70
     0
102
RTVSPropertyOp34
 70
     0
102
RTVSPropertyOp35
 70
     0
102
RTVSPropertyOp36
 70
     0
102
RTVSPropertyOp37
 70
     0
102
RTVSPropertyOp38
 70
     0
102
RTVSPropertyOp39
 70
     0
102
RTVSPropertyOp40
 70
     0
102
RTVSPropertyOp41
 70
     0
102
RTVSPropertyOp42
 70
     0
102
RTVSPropertyOp43
 70
     0
102
RTVSPropertyOp44
 70
     0
102
RTVSPropertyOp45
 70
     0
102
RTVSPropertyOp46
 70
     0
102
RTVSPropertyOp47
 70
     0
102
RTVSPropertyOp48
 70
     0
102
RTVSPropertyOp49
 70
     0
102
RTVSPropertyOp50
 70
     0
102
RTVSPropertyOp51
 70
     0
102
RTVSPropertyOp52
 70
     0
102
RTVSPropertyOp53
 70
     0
102
RTVSPropertyOp54
 70
     0
102
RTVSPropertyOp55
 70
     0
102
RTVSPropertyOp56
 70
     0
102
RTVSPropertyOp57
 70
     0
102
RTVSPost2010Prop28
280
     0
102
RTVSPost2010PropOp28
 70
     0
102
RTVSPost2010Prop29
280
     1
102
RTVSPost2010PropOp29
 70
     0
102
RTVSPost2010Prop30
280
     1
102
RTVSPost2010PropOp30
 70
     0
102
RTVSPost2010Prop31
280
     0
102
RTVSPost2010PropOp31
 70
     0
102
RTVSPost2010Prop32
280
     0
102
RTVSPost2010PropOp32
 70
     0
102
RTVSPost2010Prop33
280
     0
102
RTVSPost2010PropOp33
 70
     0
102
RTVSPost2010Prop34
280
     0
102
RTVSPost2010PropOp34
 70
     0
102
RTVSPost2010Prop35
280
     0
102
RTVSPost2010PropOp35
 70
     0
102
RTVSPost2010Prop36
280
     0
102
RTVSPost2010PropOp36
 70
     0
102
RTVSPost2010Prop37
 90
       50
102
RTVSPost2010PropOp37
 70
     0
102
RTVSPost2010Prop38
140
0.0
102
RTVSPost2010PropOp38
 70
     0
102
RTVSPost2010Prop39
140
1.0
102
RTVSPost2010PropOp39
 70
     0
102
RTVSPost2010Prop40
 90
        0
102
RTVSPost2010PropOp40
 70
     0
102
RTVSPost2010Prop41ColorIndex
 90
       18
102
RTVSPost2010Prop41ColorRGB
 90
        0
102
RTVSPost2010PropOp41
 70
     0
102
RTVSPost2010Prop42
 90
       50
102
RTVSPost2010PropOp42
 70
     0
102
RTVSPost2010Prop43
 90
        3
102
RTVSPost2010PropOp43
 70
     0
102
RTVSPost2010Prop44ColorIndex
 90
        5
102
RTVSPost2010Prop44ColorRGB
 90
      255
102
RTVSPost2010PropOp44
 70
     0
102
RTVSPost2010Prop45
280
     0
102
RTVSPost2010PropOp45
 70
     0
102
RTVSPost2010Prop46
 90
       50
102
RTVSPost2010PropOp46
 70
     0
102
RTVSPost2010Prop47
 90
       50
102
RTVSPost2010PropOp47
 70
     0
102
RTVSPost2010Prop48
 90
       50
102
RTVSPost2010PropOp48
 70
     0
102
RTVSPost2010Prop49
280
     0
102
RTVSPost2010PropOp49
 70
     0
102
RTVSPost2010Prop50
 90
       50
102
RTVSPost2010PropOp50
 70
     0
102
RTVSPost2010Prop51ColorIndex
 90
      256
102
RTVSPost2010Prop51ColorRGB
 90
-16777216
102
RTVSPost2010PropOp51
 70
     0
102
RTVSPost2010Prop52
140
1.0
102
RTVSPost2010PropOp52
 70
     0
102
RTVSPost2010Prop53
 90
        2
102
RTVSPost2010PropOp53
 70
     0
102
RTVSPost2010Prop54
  1
strokes_ogs.tif
102
RTVSPost2010PropOp54
 70
     0
102
RTVSPost2010Prop55
280
     0
102
RTVSPost2010PropOp55
 70
     0
102
RTVSPost2010Prop56
140
1.0
102
RTVSPost2010PropOp56
 70
     0
102
RTVSPost2010Prop57
140
1.0
102
RTVSPost2010PropOp57
 70
     0
  0
XRECORD
  5
38E
102
{ACAD_REACTORS
330
38D
102
}
330
38D
100
AcDbXrecord
280
     1
102
RTVSPropertyOp0
 70
     1
102
RTVSPropertyOp1
 70
     1
102
RTVSPropertyOp2
 70
     1
102
RTVSPropertyOp3
 70
     1
102
RTVSPropertyOp4
 70
     1
102
RTVSPropertyOp5
 70
     1
102
RTVSPropertyOp6
 70
     1
102
RTVSPropertyOp7
 70
     1
102
RTVSPropertyOp8
 70
     1
102
RTVSPropertyOp9
 70
     1
102
RTVSPropertyOp10
 70
     1
102
RTVSPropertyOp11
 70
     1
102
RTVSPropertyOp12
 70
     1
102
RTVSPropertyOp13
 70
     1
102
RTVSPropertyOp14
 70
     1
102
RTVSPropertyOp15
 70
     1
102
RTVSPropertyOp16
 70
     1
102
RTVSPropertyOp17
 70
     1
102
RTVSPropertyOp18
 70
     1
102
RTVSPropertyOp19
 70
     1
102
RTVSPropertyOp20
 70
     1
102
RTVSPropertyOp21
 70
     1
102
RTVSPropertyOp22
 70
     1
102
RTVSPropertyOp23
 70
     1
102
RTVSPropertyOp24
 70
     1
102
RTVSPropertyOp25
 70
     1
102
RTVSPropertyOp26
 70
     1
102
RTVSPropertyOp27
 70
     1
102
RTVSPropertyOp28
 70
     1
102
RTVSPropertyOp29
 70
     1
102
RTVSPropertyOp30
 70
     1
102
RTVSPropertyOp31
 70
     1
102
RTVSPropertyOp32
 70
     1
102
RTVSPropertyOp33
 70
     1
102
RTVSPropertyOp34
 70
     1
102
RTVSPropertyOp35
 70
     1
102
RTVSPropertyOp36
 70
     1
102
RTVSPropertyOp37
 70
     1
102
RTVSPropertyOp38
 70
     1
102
RTVSPropertyOp39
 70
     1
102
RTVSPropertyOp40
 70
     1
102
RTVSPropertyOp41
 70
     1
102
RTVSPropertyOp42
 70
     1
102
RTVSPropertyOp43
 70
     1
102
RTVSPropertyOp44
 70
     1
102
RTVSPropertyOp45
 70
     1
102
RTVSPropertyOp46
 70
     1
102
RTVSPropertyOp47
 70
     1
102
RTVSPropertyOp48
 70
     1
102
RTVSPropertyOp49
 70
     1
102
RTVSPropertyOp50
 70
     1
102
RTVSPropertyOp51
 70
     0
102
RTVSPropertyOp52
 70
     0
102
RTVSPropertyOp53
 70
     1
102
RTVSPropertyOp54
 70
     1
102
RTVSPropertyOp55
 70
     1
102
RTVSPropertyOp56
 70
     1
102
RTVSPropertyOp57
 70
     1
102
RTVSPost2010Prop28
280
     0
102
RTVSPost2010PropOp28
 70
     1
102
RTVSPost2010Prop29
280
     1
102
RTVSPost2010PropOp29
 70
     1
102
RTVSPost2010Prop30
280
     1
102
RTVSPost2010PropOp30
 70
     1
102
RTVSPost2010Prop31
280
     0
102
RTVSPost2010PropOp31
 70
     1
102
RTVSPost2010Prop32
280
     0
102
RTVSPost2010PropOp32
 70
     1
102
RTVSPost2010Prop33
280
     0
102
RTVSPost2010PropOp33
 70
     1
102
RTVSPost2010Prop34
280
     0
102
RTVSPost2010PropOp34
 70
     1
102
RTVSPost2010Prop35
280
     0
102
RTVSPost2010PropOp35
 70
     1
102
RTVSPost2010Prop36
280
     0
102
RTVSPost2010PropOp36
 70
     1
102
RTVSPost2010Prop37
 90
       50
102
RTVSPost2010PropOp37
 70
     1
102
RTVSPost2010Prop38
140
0.0
102
RTVSPost2010PropOp38
 70
     1
102
RTVSPost2010Prop39
140
1.0
102
RTVSPost2010PropOp39
 70
     1
102
RTVSPost2010Prop40
 90
        0
102
RTVSPost2010PropOp40
 70
     1
102
RTVSPost2010Prop41ColorIndex
 90
       18
102
RTVSPost2010Prop41ColorRGB
 90
        0
102
RTVSPost2010PropOp41
 70
     1
102
RTVSPost2010Prop42
 90
       50
102
RTVSPost2010PropOp42
 70
     1
102
RTVSPost2010Prop43
 90
        3
102
RTVSPost2010PropOp43
 70
     1
102
RTVSPost2010Prop44ColorIndex
 90
        5
102
RTVSPost2010Prop44ColorRGB
 90
      255
102
RTVSPost2010PropOp44
 70
     1
102
RTVSPost2010Prop45
280
     0
102
RTVSPost2010PropOp45
 70
     1
102
RTVSPost2010Prop46
 90
       50
102
RTVSPost2010PropOp46
 70
     1
102
RTVSPost2010Prop47
 90
       50
102
RTVSPost2010PropOp47
 70
     1
102
RTVSPost2010Prop48
 90
       50
102
RTVSPost2010PropOp48
 70
     1
102
RTVSPost2010Prop49
280
     0
102
RTVSPost2010PropOp49
 70
     1
102
RTVSPost2010Prop50
 90
       50
102
RTVSPost2010PropOp50
 70
     1
102
RTVSPost2010Prop51ColorIndex
 90
      256
102
RTVSPost2010Prop51ColorRGB
 90
-16777216
102
RTVSPost2010PropOp51
 70
     0
102
RTVSPost2010Prop52
140
1.0
102
RTVSPost2010PropOp52
 70
     0
102
RTVSPost2010Prop53
 90
        2
102
RTVSPost2010PropOp53
 70
     1
102
RTVSPost2010Prop54
  1
strokes_ogs.tif
102
RTVSPost2010PropOp54
 70
     1
102
RTVSPost2010Prop55
280
     0
102
RTVSPost2010PropOp55
 70
     1
102
RTVSPost2010Prop56
140
1.0
102
RTVSPost2010PropOp56
 70
     1
102
RTVSPost2010Prop57
140
1.0
102
RTVSPost2010PropOp57
 70
     1
  0
XRECORD
  5
3AC
102
{ACAD_REACTORS
330
3AB
102
}
330
3AB
100
AcDbXrecord
280
     1
102
RTVSPropertyOp0
 70
     1
102
RTVSPropertyOp1
 70
     1
102
RTVSPropertyOp2
 70
     1
102
RTVSPropertyOp3
 70
     1
102
RTVSPropertyOp4
 70
     1
102
RTVSPropertyOp5
 70
     1
102
RTVSPropertyOp6
 70
     1
102
RTVSPropertyOp7
 70
     1
102
RTVSPropertyOp8
 70
     1
102
RTVSPropertyOp9
 70
     1
102
RTVSPropertyOp10
 70
     1
102
RTVSPropertyOp11
 70
     1
102
RTVSPropertyOp12
 70
     1
102
RTVSPropertyOp13
 70
     1
102
RTVSPropertyOp14
 70
     1
102
RTVSPropertyOp15
 70
     1
102
RTVSPropertyOp16
 70
     1
102
RTVSPropertyOp17
 70
     1
102
RTVSPropertyOp18
 70
     1
102
RTVSPropertyOp19
 70
     1
102
RTVSPropertyOp20
 70
     1
102
RTVSPropertyOp21
 70
     1
102
RTVSPropertyOp22
 70
     1
102
RTVSPropertyOp23
 70
     1
102
RTVSPropertyOp24
 70
     1
102
RTVSPropertyOp25
 70
     1
102
RTVSPropertyOp26
 70
     1
102
RTVSPropertyOp27
 70
     1
102
RTVSPropertyOp28
 70
     1
102
RTVSPropertyOp29
 70
     1
102
RTVSPropertyOp30
 70
     1
102
RTVSPropertyOp31
 70
     1
102
RTVSPropertyOp32
 70
     1
102
RTVSPropertyOp33
 70
     1
102
RTVSPropertyOp34
 70
     1
102
RTVSPropertyOp35
 70
     1
102
RTVSPropertyOp36
 70
     1
102
RTVSPropertyOp37
 70
     1
102
RTVSPropertyOp38
 70
     1
102
RTVSPropertyOp39
 70
     1
102
RTVSPropertyOp40
 70
     1
102
RTVSPropertyOp41
 70
     1
102
RTVSPropertyOp42
 70
     1
102
RTVSPropertyOp43
 70
     1
102
RTVSPropertyOp44
 70
     1
102
RTVSPropertyOp45
 70
     1
102
RTVSPropertyOp46
 70
     1
102
RTVSPropertyOp47
 70
     1
102
RTVSPropertyOp48
 70
     1
102
RTVSPropertyOp49
 70
     1
102
RTVSPropertyOp50
 70
     1
102
RTVSPropertyOp51
 70
     0
102
RTVSPropertyOp52
 70
     0
102
RTVSPropertyOp53
 70
     1
102
RTVSPropertyOp54
 70
     1
102
RTVSPropertyOp55
 70
     1
102
RTVSPropertyOp56
 70
     1
102
RTVSPropertyOp57
 70
     1
102
RTVSPost2010Prop28
280
     0
102
RTVSPost2010PropOp28
 70
     1
102
RTVSPost2010Prop29
280
     1
102
RTVSPost2010PropOp29
 70
     1
102
RTVSPost2010Prop30
280
     1
102
RTVSPost2010PropOp30
 70
     1
102
RTVSPost2010Prop31
280
     0
102
RTVSPost2010PropOp31
 70
     1
102
RTVSPost2010Prop32
280
     0
102
RTVSPost2010PropOp32
 70
     1
102
RTVSPost2010Prop33
280
     0
102
RTVSPost2010PropOp33
 70
     1
102
RTVSPost2010Prop34
280
     0
102
RTVSPost2010PropOp34
 70
     1
102
RTVSPost2010Prop35
280
     0
102
RTVSPost2010PropOp35
 70
     1
102
RTVSPost2010Prop36
280
     0
102
RTVSPost2010PropOp36
 70
     1
102
RTVSPost2010Prop37
 90
       50
102
RTVSPost2010PropOp37
 70
     1
102
RTVSPost2010Prop38
140
0.0
102
RTVSPost2010PropOp38
 70
     1
102
RTVSPost2010Prop39
140
1.0
102
RTVSPost2010PropOp39
 70
     1
102
RTVSPost2010Prop40
 90
        0
102
RTVSPost2010PropOp40
 70
     1
102
RTVSPost2010Prop41ColorIndex
 90
       18
102
RTVSPost2010Prop41ColorRGB
 90
        0
102
RTVSPost2010PropOp41
 70
     1
102
RTVSPost2010Prop42
 90
       50
102
RTVSPost2010PropOp42
 70
     1
102
RTVSPost2010Prop43
 90
        3
102
RTVSPost2010PropOp43
 70
     1
102
RTVSPost2010Prop44ColorIndex
 90
        5
102
RTVSPost2010Prop44ColorRGB
 90
      255
102
RTVSPost2010PropOp44
 70
     1
102
RTVSPost2010Prop45
280
     0
102
RTVSPost2010PropOp45
 70
     1
102
RTVSPost2010Prop46
 90
       50
102
RTVSPost2010PropOp46
 70
     1
102
RTVSPost2010Prop47
 90
       50
102
RTVSPost2010PropOp47
 70
     1
102
RTVSPost2010Prop48
 90
       50
102
RTVSPost2010PropOp48
 70
     1
102
RTVSPost2010Prop49
280
     0
102
RTVSPost2010PropOp49
 70
     1
102
RTVSPost2010Prop50
 90
       50
102
RTVSPost2010PropOp50
 70
     1
102
RTVSPost2010Prop51ColorIndex
 90
      256
102
RTVSPost2010Prop51ColorRGB
 90
-16777216
102
RTVSPost2010PropOp51
 70
     0
102
RTVSPost2010Prop52
140
1.0
102
RTVSPost2010PropOp52
 70
     0
102
RTVSPost2010Prop53
 90
        2
102
RTVSPost2010PropOp53
 70
     1
102
RTVSPost2010Prop54
  1
strokes_ogs.tif
102
RTVSPost2010PropOp54
 70
     1
102
RTVSPost2010Prop55
280
     0
102
RTVSPost2010PropOp55
 70
     1
102
RTVSPost2010Prop56
140
1.0
102
RTVSPost2010PropOp56
 70
     1
102
RTVSPost2010Prop57
140
1.0
102
RTVSPost2010PropOp57
 70
     1
  0
XRECORD
  5
3AA
102
{ACAD_REACTORS
330
3A9
102
}
330
3A9
100
AcDbXrecord
280
     1
102
RTVSPropertyOp0
 70
     1
102
RTVSPropertyOp1
 70
     1
102
RTVSPropertyOp2
 70
     1
102
RTVSPropertyOp3
 70
     1
102
RTVSPropertyOp4
 70
     1
102
RTVSPropertyOp5
 70
     1
102
RTVSPropertyOp6
 70
     1
102
RTVSPropertyOp7
 70
     1
102
RTVSPropertyOp8
 70
     1
102
RTVSPropertyOp9
 70
     1
102
RTVSPropertyOp10
 70
     1
102
RTVSPropertyOp11
 70
     1
102
RTVSPropertyOp12
 70
     1
102
RTVSPropertyOp13
 70
     1
102
RTVSPropertyOp14
 70
     1
102
RTVSPropertyOp15
 70
     1
102
RTVSPropertyOp16
 70
     1
102
RTVSPropertyOp17
 70
     1
102
RTVSPropertyOp18
 70
     1
102
RTVSPropertyOp19
 70
     1
102
RTVSPropertyOp20
 70
     1
102
RTVSPropertyOp21
 70
     1
102
RTVSPropertyOp22
 70
     1
102
RTVSPropertyOp23
 70
     1
102
RTVSPropertyOp24
 70
     1
102
RTVSPropertyOp25
 70
     1
102
RTVSPropertyOp26
 70
     1
102
RTVSPropertyOp27
 70
     1
102
RTVSPropertyOp28
 70
     1
102
RTVSPropertyOp29
 70
     1
102
RTVSPropertyOp30
 70
     1
102
RTVSPropertyOp31
 70
     1
102
RTVSPropertyOp32
 70
     1
102
RTVSPropertyOp33
 70
     1
102
RTVSPropertyOp34
 70
     1
102
RTVSPropertyOp35
 70
     1
102
RTVSPropertyOp36
 70
     1
102
RTVSPropertyOp37
 70
     1
102
RTVSPropertyOp38
 70
     1
102
RTVSPropertyOp39
 70
     1
102
RTVSPropertyOp40
 70
     1
102
RTVSPropertyOp41
 70
     1
102
RTVSPropertyOp42
 70
     1
102
RTVSPropertyOp43
 70
     1
102
RTVSPropertyOp44
 70
     1
102
RTVSPropertyOp45
 70
     1
102
RTVSPropertyOp46
 70
     1
102
RTVSPropertyOp47
 70
     1
102
RTVSPropertyOp48
 70
     1
102
RTVSPropertyOp49
 70
     1
102
RTVSPropertyOp50
 70
     1
102
RTVSPropertyOp51
 70
     0
102
RTVSPropertyOp52
 70
     0
102
RTVSPropertyOp53
 70
     1
102
RTVSPropertyOp54
 70
     1
102
RTVSPropertyOp55
 70
     1
102
RTVSPropertyOp56
 70
     1
102
RTVSPropertyOp57
 70
     1
102
RTVSPost2010Prop28
280
     0
102
RTVSPost2010PropOp28
 70
     1
102
RTVSPost2010Prop29
280
     1
102
RTVSPost2010PropOp29
 70
     1
102
RTVSPost2010Prop30
280
     1
102
RTVSPost2010PropOp30
 70
     1
102
RTVSPost2010Prop31
280
     0
102
RTVSPost2010PropOp31
 70
     1
102
RTVSPost2010Prop32
280
     0
102
RTVSPost2010PropOp32
 70
     1
102
RTVSPost2010Prop33
280
     0
102
RTVSPost2010PropOp33
 70
     1
102
RTVSPost2010Prop34
280
     0
102
RTVSPost2010PropOp34
 70
     1
102
RTVSPost2010Prop35
280
     0
102
RTVSPost2010PropOp35
 70
     1
102
RTVSPost2010Prop36
280
     0
102
RTVSPost2010PropOp36
 70
     1
102
RTVSPost2010Prop37
 90
       50
102
RTVSPost2010PropOp37
 70
     1
102
RTVSPost2010Prop38
140
0.0
102
RTVSPost2010PropOp38
 70
     1
102
RTVSPost2010Prop39
140
1.0
102
RTVSPost2010PropOp39
 70
     1
102
RTVSPost2010Prop40
 90
        0
102
RTVSPost2010PropOp40
 70
     1
102
RTVSPost2010Prop41ColorIndex
 90
       18
102
RTVSPost2010Prop41ColorRGB
 90
        0
102
RTVSPost2010PropOp41
 70
     1
102
RTVSPost2010Prop42
 90
       50
102
RTVSPost2010PropOp42
 70
     1
102
RTVSPost2010Prop43
 90
        3
102
RTVSPost2010PropOp43
 70
     1
102
RTVSPost2010Prop44ColorIndex
 90
        5
102
RTVSPost2010Prop44ColorRGB
 90
      255
102
RTVSPost2010PropOp44
 70
     1
102
RTVSPost2010Prop45
280
     0
102
RTVSPost2010PropOp45
 70
     1
102
RTVSPost2010Prop46
 90
       50
102
RTVSPost2010PropOp46
 70
     1
102
RTVSPost2010Prop47
 90
       50
102
RTVSPost2010PropOp47
 70
     1
102
RTVSPost2010Prop48
 90
       50
102
RTVSPost2010PropOp48
 70
     1
102
RTVSPost2010Prop49
280
     0
102
RTVSPost2010PropOp49
 70
     1
102
RTVSPost2010Prop50
 90
       50
102
RTVSPost2010PropOp50
 70
     1
102
RTVSPost2010Prop51ColorIndex
 90
      256
102
RTVSPost2010Prop51ColorRGB
 90
-16777216
102
RTVSPost2010PropOp51
 70
     0
102
RTVSPost2010Prop52
140
1.0
102
RTVSPost2010PropOp52
 70
     0
102
RTVSPost2010Prop53
 90
        2
102
RTVSPost2010PropOp53
 70
     1
102
RTVSPost2010Prop54
  1
strokes_ogs.tif
102
RTVSPost2010PropOp54
 70
     1
102
RTVSPost2010Prop55
280
     0
102
RTVSPost2010PropOp55
 70
     1
102
RTVSPost2010Prop56
140
1.0
102
RTVSPost2010PropOp56
 70
     1
102
RTVSPost2010Prop57
140
1.0
102
RTVSPost2010PropOp57
 70
     1
  0
XRECORD
  5
3A4
102
{ACAD_REACTORS
330
3A3
102
}
330
3A3
100
AcDbXrecord
280
     1
102
RTVSPropertyOp0
 70
     1
102
RTVSPropertyOp1
 70
     1
102
RTVSPropertyOp2
 70
     1
102
RTVSPropertyOp3
 70
     1
102
RTVSPropertyOp4
 70
     1
102
RTVSPropertyOp5
 70
     1
102
RTVSPropertyOp6
 70
     1
102
RTVSPropertyOp7
 70
     1
102
RTVSPropertyOp8
 70
     1
102
RTVSPropertyOp9
 70
     1
102
RTVSPropertyOp10
 70
     1
102
RTVSPropertyOp11
 70
     1
102
RTVSPropertyOp12
 70
     1
102
RTVSPropertyOp13
 70
     1
102
RTVSPropertyOp14
 70
     1
102
RTVSPropertyOp15
 70
     1
102
RTVSPropertyOp16
 70
     1
102
RTVSPropertyOp17
 70
     1
102
RTVSPropertyOp18
 70
     1
102
RTVSPropertyOp19
 70
     1
102
RTVSPropertyOp20
 70
     1
102
RTVSPropertyOp21
 70
     1
102
RTVSPropertyOp22
 70
     1
102
RTVSPropertyOp23
 70
     1
102
RTVSPropertyOp24
 70
     1
102
RTVSPropertyOp25
 70
     1
102
RTVSPropertyOp26
 70
     1
102
RTVSPropertyOp27
 70
     1
102
RTVSPropertyOp28
 70
     1
102
RTVSPropertyOp29
 70
     1
102
RTVSPropertyOp30
 70
     1
102
RTVSPropertyOp31
 70
     1
102
RTVSPropertyOp32
 70
     1
102
RTVSPropertyOp33
 70
     1
102
RTVSPropertyOp34
 70
     1
102
RTVSPropertyOp35
 70
     1
102
RTVSPropertyOp36
 70
     1
102
RTVSPropertyOp37
 70
     1
102
RTVSPropertyOp38
 70
     1
102
RTVSPropertyOp39
 70
     1
102
RTVSPropertyOp40
 70
     1
102
RTVSPropertyOp41
 70
     1
102
RTVSPropertyOp42
 70
     1
102
RTVSPropertyOp43
 70
     1
102
RTVSPropertyOp44
 70
     1
102
RTVSPropertyOp45
 70
     1
102
RTVSPropertyOp46
 70
     1
102
RTVSPropertyOp47
 70
     1
102
RTVSPropertyOp48
 70
     1
102
RTVSPropertyOp49
 70
     1
102
RTVSPropertyOp50
 70
     1
102
RTVSPropertyOp51
 70
     0
102
RTVSPropertyOp52
 70
     0
102
RTVSPropertyOp53
 70
     1
102
RTVSPropertyOp54
 70
     1
102
RTVSPropertyOp55
 70
     1
102
RTVSPropertyOp56
 70
     1
102
RTVSPropertyOp57
 70
     1
102
RTVSPost2010Prop28
280
     0
102
RTVSPost2010PropOp28
 70
     1
102
RTVSPost2010Prop29
280
     1
102
RTVSPost2010PropOp29
 70
     1
102
RTVSPost2010Prop30
280
     1
102
RTVSPost2010PropOp30
 70
     1
102
RTVSPost2010Prop31
280
     0
102
RTVSPost2010PropOp31
 70
     1
102
RTVSPost2010Prop32
280
     0
102
RTVSPost2010PropOp32
 70
     1
102
RTVSPost2010Prop33
280
     0
102
RTVSPost2010PropOp33
 70
     1
102
RTVSPost2010Prop34
280
     0
102
RTVSPost2010PropOp34
 70
     1
102
RTVSPost2010Prop35
280
     0
102
RTVSPost2010PropOp35
 70
     1
102
RTVSPost2010Prop36
280
     0
102
RTVSPost2010PropOp36
 70
     1
102
RTVSPost2010Prop37
 90
       50
102
RTVSPost2010PropOp37
 70
     1
102
RTVSPost2010Prop38
140
0.0
102
RTVSPost2010PropOp38
 70
     1
102
RTVSPost2010Prop39
140
1.0
102
RTVSPost2010PropOp39
 70
     1
102
RTVSPost2010Prop40
 90
        0
102
RTVSPost2010PropOp40
 70
     1
102
RTVSPost2010Prop41ColorIndex
 90
       18
102
RTVSPost2010Prop41ColorRGB
 90
        0
102
RTVSPost2010PropOp41
 70
     1
102
RTVSPost2010Prop42
 90
       50
102
RTVSPost2010PropOp42
 70
     1
102
RTVSPost2010Prop43
 90
        3
102
RTVSPost2010PropOp43
 70
     1
102
RTVSPost2010Prop44ColorIndex
 90
        5
102
RTVSPost2010Prop44ColorRGB
 90
      255
102
RTVSPost2010PropOp44
 70
     1
102
RTVSPost2010Prop45
280
     0
102
RTVSPost2010PropOp45
 70
     1
102
RTVSPost2010Prop46
 90
       50
102
RTVSPost2010PropOp46
 70
     1
102
RTVSPost2010Prop47
 90
       50
102
RTVSPost2010PropOp47
 70
     1
102
RTVSPost2010Prop48
 90
       50
102
RTVSPost2010PropOp48
 70
     1
102
RTVSPost2010Prop49
280
     0
102
RTVSPost2010PropOp49
 70
     1
102
RTVSPost2010Prop50
 90
       50
102
RTVSPost2010PropOp50
 70
     1
102
RTVSPost2010Prop51ColorIndex
 90
      256
102
RTVSPost2010Prop51ColorRGB
 90
-16777216
102
RTVSPost2010PropOp51
 70
     0
102
RTVSPost2010Prop52
140
1.0
102
RTVSPost2010PropOp52
 70
     0
102
RTVSPost2010Prop53
 90
        2
102
RTVSPost2010PropOp53
 70
     1
102
RTVSPost2010Prop54
  1
strokes_ogs.tif
102
RTVSPost2010PropOp54
 70
     1
102
RTVSPost2010Prop55
280
     0
102
RTVSPost2010PropOp55
 70
     1
102
RTVSPost2010Prop56
140
1.0
102
RTVSPost2010PropOp56
 70
     1
102
RTVSPost2010Prop57
140
1.0
102
RTVSPost2010PropOp57
 70
     1
  0
XRECORD
  5
3A6
102
{ACAD_REACTORS
330
3A5
102
}
330
3A5
100
AcDbXrecord
280
     1
102
RTVSPropertyOp0
 70
     1
102
RTVSPropertyOp1
 70
     1
102
RTVSPropertyOp2
 70
     1
102
RTVSPropertyOp3
 70
     1
102
RTVSPropertyOp4
 70
     1
102
RTVSPropertyOp5
 70
     1
102
RTVSPropertyOp6
 70
     1
102
RTVSPropertyOp7
 70
     1
102
RTVSPropertyOp8
 70
     1
102
RTVSPropertyOp9
 70
     1
102
RTVSPropertyOp10
 70
     1
102
RTVSPropertyOp11
 70
     1
102
RTVSPropertyOp12
 70
     1
102
RTVSPropertyOp13
 70
     1
102
RTVSPropertyOp14
 70
     1
102
RTVSPropertyOp15
 70
     1
102
RTVSPropertyOp16
 70
     1
102
RTVSPropertyOp17
 70
     1
102
RTVSPropertyOp18
 70
     1
102
RTVSPropertyOp19
 70
     1
102
RTVSPropertyOp20
 70
     1
102
RTVSPropertyOp21
 70
     1
102
RTVSPropertyOp22
 70
     1
102
RTVSPropertyOp23
 70
     1
102
RTVSPropertyOp24
 70
     1
102
RTVSPropertyOp25
 70
     1
102
RTVSPropertyOp26
 70
     1
102
RTVSPropertyOp27
 70
     1
102
RTVSPropertyOp28
 70
     1
102
RTVSPropertyOp29
 70
     1
102
RTVSPropertyOp30
 70
     1
102
RTVSPropertyOp31
 70
     1
102
RTVSPropertyOp32
 70
     1
102
RTVSPropertyOp33
 70
     1
102
RTVSPropertyOp34
 70
     1
102
RTVSPropertyOp35
 70
     1
102
RTVSPropertyOp36
 70
     1
102
RTVSPropertyOp37
 70
     1
102
RTVSPropertyOp38
 70
     1
102
RTVSPropertyOp39
 70
     1
102
RTVSPropertyOp40
 70
     1
102
RTVSPropertyOp41
 70
     1
102
RTVSPropertyOp42
 70
     1
102
RTVSPropertyOp43
 70
     1
102
RTVSPropertyOp44
 70
     1
102
RTVSPropertyOp45
 70
     1
102
RTVSPropertyOp46
 70
     1
102
RTVSPropertyOp47
 70
     1
102
RTVSPropertyOp48
 70
     1
102
RTVSPropertyOp49
 70
     1
102
RTVSPropertyOp50
 70
     1
102
RTVSPropertyOp51
 70
     0
102
RTVSPropertyOp52
 70
     0
102
RTVSPropertyOp53
 70
     1
102
RTVSPropertyOp54
 70
     1
102
RTVSPropertyOp55
 70
     1
102
RTVSPropertyOp56
 70
     1
102
RTVSPropertyOp57
 70
     1
102
RTVSPost2010Prop28
280
     0
102
RTVSPost2010PropOp28
 70
     1
102
RTVSPost2010Prop29
280
     1
102
RTVSPost2010PropOp29
 70
     1
102
RTVSPost2010Prop30
280
     1
102
RTVSPost2010PropOp30
 70
     1
102
RTVSPost2010Prop31
280
     0
102
RTVSPost2010PropOp31
 70
     1
102
RTVSPost2010Prop32
280
     0
102
RTVSPost2010PropOp32
 70
     1
102
RTVSPost2010Prop33
280
     0
102
RTVSPost2010PropOp33
 70
     1
102
RTVSPost2010Prop34
280
     0
102
RTVSPost2010PropOp34
 70
     1
102
RTVSPost2010Prop35
280
     0
102
RTVSPost2010PropOp35
 70
     1
102
RTVSPost2010Prop36
280
     0
102
RTVSPost2010PropOp36
 70
     1
102
RTVSPost2010Prop37
 90
       50
102
RTVSPost2010PropOp37
 70
     1
102
RTVSPost2010Prop38
140
0.0
102
RTVSPost2010PropOp38
 70
     1
102
RTVSPost2010Prop39
140
1.0
102
RTVSPost2010PropOp39
 70
     1
102
RTVSPost2010Prop40
 90
        0
102
RTVSPost2010PropOp40
 70
     1
102
RTVSPost2010Prop41ColorIndex
 90
       18
102
RTVSPost2010Prop41ColorRGB
 90
        0
102
RTVSPost2010PropOp41
 70
     1
102
RTVSPost2010Prop42
 90
       50
102
RTVSPost2010PropOp42
 70
     1
102
RTVSPost2010Prop43
 90
        3
102
RTVSPost2010PropOp43
 70
     1
102
RTVSPost2010Prop44ColorIndex
 90
        5
102
RTVSPost2010Prop44ColorRGB
 90
      255
102
RTVSPost2010PropOp44
 70
     1
102
RTVSPost2010Prop45
280
     0
102
RTVSPost2010PropOp45
 70
     1
102
RTVSPost2010Prop46
 90
       50
102
RTVSPost2010PropOp46
 70
     1
102
RTVSPost2010Prop47
 90
       50
102
RTVSPost2010PropOp47
 70
     1
102
RTVSPost2010Prop48
 90
       50
102
RTVSPost2010PropOp48
 70
     1
102
RTVSPost2010Prop49
280
     0
102
RTVSPost2010PropOp49
 70
     1
102
RTVSPost2010Prop50
 90
       50
102
RTVSPost2010PropOp50
 70
     1
102
RTVSPost2010Prop51ColorIndex
 90
      256
102
RTVSPost2010Prop51ColorRGB
 90
-16777216
102
RTVSPost2010PropOp51
 70
     0
102
RTVSPost2010Prop52
140
1.0
102
RTVSPost2010PropOp52
 70
     0
102
RTVSPost2010Prop53
 90
        2
102
RTVSPost2010PropOp53
 70
     1
102
RTVSPost2010Prop54
  1
strokes_ogs.tif
102
RTVSPost2010PropOp54
 70
     1
102
RTVSPost2010Prop55
280
     0
102
RTVSPost2010PropOp55
 70
     1
102
RTVSPost2010Prop56
140
1.0
102
RTVSPost2010PropOp56
 70
     1
102
RTVSPost2010Prop57
140
1.0
102
RTVSPost2010PropOp57
 70
     1
  0
XRECORD
  5
396
102
{ACAD_REACTORS
330
395
102
}
330
395
100
AcDbXrecord
280
     1
102
RTVSPropertyOp0
 70
     1
102
RTVSPropertyOp1
 70
     1
102
RTVSPropertyOp2
 70
     1
102
RTVSPropertyOp3
 70
     1
102
RTVSPropertyOp4
 70
     1
102
RTVSPropertyOp5
 70
     1
102
RTVSPropertyOp6
 70
     1
102
RTVSPropertyOp7
 70
     1
102
RTVSPropertyOp8
 70
     1
102
RTVSPropertyOp9
 70
     1
102
RTVSPropertyOp10
 70
     1
102
RTVSPropertyOp11
 70
     1
102
RTVSPropertyOp12
 70
     1
102
RTVSPropertyOp13
 70
     1
102
RTVSPropertyOp14
 70
     1
102
RTVSPropertyOp15
 70
     1
102
RTVSPropertyOp16
 70
     1
102
RTVSPropertyOp17
 70
     1
102
RTVSPropertyOp18
 70
     1
102
RTVSPropertyOp19
 70
     1
102
RTVSPropertyOp20
 70
     1
102
RTVSPropertyOp21
 70
     1
102
RTVSPropertyOp22
 70
     1
102
RTVSPropertyOp23
 70
     1
102
RTVSPropertyOp24
 70
     1
102
RTVSPropertyOp25
 70
     1
102
RTVSPropertyOp26
 70
     1
102
RTVSPropertyOp27
 70
     1
102
RTVSPropertyOp28
 70
     1
102
RTVSPropertyOp29
 70
     1
102
RTVSPropertyOp30
 70
     1
102
RTVSPropertyOp31
 70
     1
102
RTVSPropertyOp32
 70
     1
102
RTVSPropertyOp33
 70
     1
102
RTVSPropertyOp34
 70
     1
102
RTVSPropertyOp35
 70
     1
102
RTVSPropertyOp36
 70
     1
102
RTVSPropertyOp37
 70
     1
102
RTVSPropertyOp38
 70
     1
102
RTVSPropertyOp39
 70
     1
102
RTVSPropertyOp40
 70
     1
102
RTVSPropertyOp41
 70
     1
102
RTVSPropertyOp42
 70
     1
102
RTVSPropertyOp43
 70
     1
102
RTVSPropertyOp44
 70
     1
102
RTVSPropertyOp45
 70
     1
102
RTVSPropertyOp46
 70
     1
102
RTVSPropertyOp47
 70
     1
102
RTVSPropertyOp48
 70
     1
102
RTVSPropertyOp49
 70
     1
102
RTVSPropertyOp50
 70
     1
102
RTVSPropertyOp51
 70
     0
102
RTVSPropertyOp52
 70
     0
102
RTVSPropertyOp53
 70
     1
102
RTVSPropertyOp54
 70
     1
102
RTVSPropertyOp55
 70
     1
102
RTVSPropertyOp56
 70
     1
102
RTVSPropertyOp57
 70
     1
102
RTVSPost2010Prop28
280
     0
102
RTVSPost2010PropOp28
 70
     1
102
RTVSPost2010Prop29
280
     1
102
RTVSPost2010PropOp29
 70
     1
102
RTVSPost2010Prop30
280
     1
102
RTVSPost2010PropOp30
 70
     1
102
RTVSPost2010Prop31
280
     0
102
RTVSPost2010PropOp31
 70
     1
102
RTVSPost2010Prop32
280
     0
102
RTVSPost2010PropOp32
 70
     1
102
RTVSPost2010Prop33
280
     0
102
RTVSPost2010PropOp33
 70
     1
102
RTVSPost2010Prop34
280
     0
102
RTVSPost2010PropOp34
 70
     1
102
RTVSPost2010Prop35
280
     0
102
RTVSPost2010PropOp35
 70
     1
102
RTVSPost2010Prop36
280
     0
102
RTVSPost2010PropOp36
 70
     1
102
RTVSPost2010Prop37
 90
       50
102
RTVSPost2010PropOp37
 70
     1
102
RTVSPost2010Prop38
140
0.0
102
RTVSPost2010PropOp38
 70
     1
102
RTVSPost2010Prop39
140
1.0
102
RTVSPost2010PropOp39
 70
     1
102
RTVSPost2010Prop40
 90
        0
102
RTVSPost2010PropOp40
 70
     1
102
RTVSPost2010Prop41ColorIndex
 90
       18
102
RTVSPost2010Prop41ColorRGB
 90
        0
102
RTVSPost2010PropOp41
 70
     1
102
RTVSPost2010Prop42
 90
       50
102
RTVSPost2010PropOp42
 70
     1
102
RTVSPost2010Prop43
 90
        3
102
RTVSPost2010PropOp43
 70
     1
102
RTVSPost2010Prop44ColorIndex
 90
        5
102
RTVSPost2010Prop44ColorRGB
 90
      255
102
RTVSPost2010PropOp44
 70
     1
102
RTVSPost2010Prop45
280
     0
102
RTVSPost2010PropOp45
 70
     1
102
RTVSPost2010Prop46
 90
       50
102
RTVSPost2010PropOp46
 70
     1
102
RTVSPost2010Prop47
 90
       50
102
RTVSPost2010PropOp47
 70
     1
102
RTVSPost2010Prop48
 90
       50
102
RTVSPost2010PropOp48
 70
     1
102
RTVSPost2010Prop49
280
     0
102
RTVSPost2010PropOp49
 70
     1
102
RTVSPost2010Prop50
 90
       50
102
RTVSPost2010PropOp50
 70
     1
102
RTVSPost2010Prop51ColorIndex
 90
      256
102
RTVSPost2010Prop51ColorRGB
 90
-16777216
102
RTVSPost2010PropOp51
 70
     0
102
RTVSPost2010Prop52
140
1.0
102
RTVSPost2010PropOp52
 70
     0
102
RTVSPost2010Prop53
 90
        2
102
RTVSPost2010PropOp53
 70
     1
102
RTVSPost2010Prop54
  1
strokes_ogs.tif
102
RTVSPost2010PropOp54
 70
     1
102
RTVSPost2010Prop55
280
     0
102
RTVSPost2010PropOp55
 70
     1
102
RTVSPost2010Prop56
140
1.0
102
RTVSPost2010PropOp56
 70
     1
102
RTVSPost2010Prop57
140
1.0
102
RTVSPost2010PropOp57
 70
     1
  0
XRECORD
  5
388
102
{ACAD_REACTORS
330
387
102
}
330
387
100
AcDbXrecord
280
     1
102
RTVSPropertyOp0
 70
     1
102
RTVSPropertyOp1
 70
     1
102
RTVSPropertyOp2
 70
     1
102
RTVSPropertyOp3
 70
     1
102
RTVSPropertyOp4
 70
     1
102
RTVSPropertyOp5
 70
     1
102
RTVSPropertyOp6
 70
     1
102
RTVSPropertyOp7
 70
     1
102
RTVSPropertyOp8
 70
     1
102
RTVSPropertyOp9
 70
     1
102
RTVSPropertyOp10
 70
     1
102
RTVSPropertyOp11
 70
     1
102
RTVSPropertyOp12
 70
     1
102
RTVSPropertyOp13
 70
     1
102
RTVSPropertyOp14
 70
     1
102
RTVSPropertyOp15
 70
     1
102
RTVSPropertyOp16
 70
     1
102
RTVSPropertyOp17
 70
     1
102
RTVSPropertyOp18
 70
     1
102
RTVSPropertyOp19
 70
     1
102
RTVSPropertyOp20
 70
     1
102
RTVSPropertyOp21
 70
     1
102
RTVSPropertyOp22
 70
     1
102
RTVSPropertyOp23
 70
     1
102
RTVSPropertyOp24
 70
     1
102
RTVSPropertyOp25
 70
     1
102
RTVSPropertyOp26
 70
     1
102
RTVSPropertyOp27
 70
     1
102
RTVSPropertyOp28
 70
     1
102
RTVSPropertyOp29
 70
     1
102
RTVSPropertyOp30
 70
     1
102
RTVSPropertyOp31
 70
     1
102
RTVSPropertyOp32
 70
     1
102
RTVSPropertyOp33
 70
     1
102
RTVSPropertyOp34
 70
     1
102
RTVSPropertyOp35
 70
     1
102
RTVSPropertyOp36
 70
     1
102
RTVSPropertyOp37
 70
     1
102
RTVSPropertyOp38
 70
     1
102
RTVSPropertyOp39
 70
     1
102
RTVSPropertyOp40
 70
     1
102
RTVSPropertyOp41
 70
     1
102
RTVSPropertyOp42
 70
     1
102
RTVSPropertyOp43
 70
     1
102
RTVSPropertyOp44
 70
     1
102
RTVSPropertyOp45
 70
     1
102
RTVSPropertyOp46
 70
     1
102
RTVSPropertyOp47
 70
     1
102
RTVSPropertyOp48
 70
     1
102
RTVSPropertyOp49
 70
     1
102
RTVSPropertyOp50
 70
     1
102
RTVSPropertyOp51
 70
     0
102
RTVSPropertyOp52
 70
     0
102
RTVSPropertyOp53
 70
     1
102
RTVSPropertyOp54
 70
     1
102
RTVSPropertyOp55
 70
     1
102
RTVSPropertyOp56
 70
     1
102
RTVSPropertyOp57
 70
     1
102
RTVSPost2010Prop28
280
     0
102
RTVSPost2010PropOp28
 70
     1
102
RTVSPost2010Prop29
280
     1
102
RTVSPost2010PropOp29
 70
     1
102
RTVSPost2010Prop30
280
     1
102
RTVSPost2010PropOp30
 70
     1
102
RTVSPost2010Prop31
280
     0
102
RTVSPost2010PropOp31
 70
     1
102
RTVSPost2010Prop32
280
     0
102
RTVSPost2010PropOp32
 70
     1
102
RTVSPost2010Prop33
280
     0
102
RTVSPost2010PropOp33
 70
     1
102
RTVSPost2010Prop34
280
     0
102
RTVSPost2010PropOp34
 70
     1
102
RTVSPost2010Prop35
280
     0
102
RTVSPost2010PropOp35
 70
     1
102
RTVSPost2010Prop36
280
     0
102
RTVSPost2010PropOp36
 70
     1
102
RTVSPost2010Prop37
 90
       50
102
RTVSPost2010PropOp37
 70
     1
102
RTVSPost2010Prop38
140
0.0
102
RTVSPost2010PropOp38
 70
     1
102
RTVSPost2010Prop39
140
1.0
102
RTVSPost2010PropOp39
 70
     1
102
RTVSPost2010Prop40
 90
        0
102
RTVSPost2010PropOp40
 70
     1
102
RTVSPost2010Prop41ColorIndex
 90
       18
102
RTVSPost2010Prop41ColorRGB
 90
        0
102
RTVSPost2010PropOp41
 70
     1
102
RTVSPost2010Prop42
 90
       50
102
RTVSPost2010PropOp42
 70
     1
102
RTVSPost2010Prop43
 90
        3
102
RTVSPost2010PropOp43
 70
     1
102
RTVSPost2010Prop44ColorIndex
 90
        5
102
RTVSPost2010Prop44ColorRGB
 90
      255
102
RTVSPost2010PropOp44
 70
     1
102
RTVSPost2010Prop45
280
     0
102
RTVSPost2010PropOp45
 70
     1
102
RTVSPost2010Prop46
 90
       50
102
RTVSPost2010PropOp46
 70
     1
102
RTVSPost2010Prop47
 90
       50
102
RTVSPost2010PropOp47
 70
     1
102
RTVSPost2010Prop48
 90
       50
102
RTVSPost2010PropOp48
 70
     1
102
RTVSPost2010Prop49
280
     0
102
RTVSPost2010PropOp49
 70
     1
102
RTVSPost2010Prop50
 90
       50
102
RTVSPost2010PropOp50
 70
     1
102
RTVSPost2010Prop51ColorIndex
 90
      256
102
RTVSPost2010Prop51ColorRGB
 90
-16777216
102
RTVSPost2010PropOp51
 70
     0
102
RTVSPost2010Prop52
140
1.0
102
RTVSPost2010PropOp52
 70
     0
102
RTVSPost2010Prop53
 90
        2
102
RTVSPost2010PropOp53
 70
     1
102
RTVSPost2010Prop54
  1
strokes_ogs.tif
102
RTVSPost2010PropOp54
 70
     1
102
RTVSPost2010Prop55
280
     0
102
RTVSPost2010PropOp55
 70
     1
102
RTVSPost2010Prop56
140
1.0
102
RTVSPost2010PropOp56
 70
     1
102
RTVSPost2010Prop57
140
1.0
102
RTVSPost2010PropOp57
 70
     1
  0
XRECORD
  5
3A8
102
{ACAD_REACTORS
330
3A7
102
}
330
3A7
100
AcDbXrecord
280
     1
102
RTVSPropertyOp0
 70
     1
102
RTVSPropertyOp1
 70
     1
102
RTVSPropertyOp2
 70
     1
102
RTVSPropertyOp3
 70
     1
102
RTVSPropertyOp4
 70
     1
102
RTVSPropertyOp5
 70
     1
102
RTVSPropertyOp6
 70
     1
102
RTVSPropertyOp7
 70
     1
102
RTVSPropertyOp8
 70
     1
102
RTVSPropertyOp9
 70
     1
102
RTVSPropertyOp10
 70
     1
102
RTVSPropertyOp11
 70
     1
102
RTVSPropertyOp12
 70
     1
102
RTVSPropertyOp13
 70
     1
102
RTVSPropertyOp14
 70
     1
102
RTVSPropertyOp15
 70
     1
102
RTVSPropertyOp16
 70
     1
102
RTVSPropertyOp17
 70
     1
102
RTVSPropertyOp18
 70
     1
102
RTVSPropertyOp19
 70
     1
102
RTVSPropertyOp20
 70
     1
102
RTVSPropertyOp21
 70
     1
102
RTVSPropertyOp22
 70
     1
102
RTVSPropertyOp23
 70
     1
102
RTVSPropertyOp24
 70
     1
102
RTVSPropertyOp25
 70
     1
102
RTVSPropertyOp26
 70
     1
102
RTVSPropertyOp27
 70
     1
102
RTVSPropertyOp28
 70
     1
102
RTVSPropertyOp29
 70
     1
102
RTVSPropertyOp30
 70
     1
102
RTVSPropertyOp31
 70
     1
102
RTVSPropertyOp32
 70
     1
102
RTVSPropertyOp33
 70
     1
102
RTVSPropertyOp34
 70
     1
102
RTVSPropertyOp35
 70
     1
102
RTVSPropertyOp36
 70
     1
102
RTVSPropertyOp37
 70
     1
102
RTVSPropertyOp38
 70
     1
102
RTVSPropertyOp39
 70
     1
102
RTVSPropertyOp40
 70
     1
102
RTVSPropertyOp41
 70
     1
102
RTVSPropertyOp42
 70
     1
102
RTVSPropertyOp43
 70
     1
102
RTVSPropertyOp44
 70
     1
102
RTVSPropertyOp45
 70
     1
102
RTVSPropertyOp46
 70
     1
102
RTVSPropertyOp47
 70
     1
102
RTVSPropertyOp48
 70
     1
102
RTVSPropertyOp49
 70
     1
102
RTVSPropertyOp50
 70
     1
102
RTVSPropertyOp51
 70
     0
102
RTVSPropertyOp52
 70
     0
102
RTVSPropertyOp53
 70
     1
102
RTVSPropertyOp54
 70
     1
102
RTVSPropertyOp55
 70
     1
102
RTVSPropertyOp56
 70
     1
102
RTVSPropertyOp57
 70
     1
102
RTVSPost2010Prop28
280
     0
102
RTVSPost2010PropOp28
 70
     1
102
RTVSPost2010Prop29
280
     1
102
RTVSPost2010PropOp29
 70
     1
102
RTVSPost2010Prop30
280
     1
102
RTVSPost2010PropOp30
 70
     1
102
RTVSPost2010Prop31
280
     0
102
RTVSPost2010PropOp31
 70
     1
102
RTVSPost2010Prop32
280
     0
102
RTVSPost2010PropOp32
 70
     1
102
RTVSPost2010Prop33
280
     0
102
RTVSPost2010PropOp33
 70
     1
102
RTVSPost2010Prop34
280
     0
102
RTVSPost2010PropOp34
 70
     1
102
RTVSPost2010Prop35
280
     0
102
RTVSPost2010PropOp35
 70
     1
102
RTVSPost2010Prop36
280
     0
102
RTVSPost2010PropOp36
 70
     1
102
RTVSPost2010Prop37
 90
       50
102
RTVSPost2010PropOp37
 70
     1
102
RTVSPost2010Prop38
140
0.0
102
RTVSPost2010PropOp38
 70
     1
102
RTVSPost2010Prop39
140
1.0
102
RTVSPost2010PropOp39
 70
     1
102
RTVSPost2010Prop40
 90
        0
102
RTVSPost2010PropOp40
 70
     1
102
RTVSPost2010Prop41ColorIndex
 90
       18
102
RTVSPost2010Prop41ColorRGB
 90
        0
102
RTVSPost2010PropOp41
 70
     1
102
RTVSPost2010Prop42
 90
       50
102
RTVSPost2010PropOp42
 70
     1
102
RTVSPost2010Prop43
 90
        3
102
RTVSPost2010PropOp43
 70
     1
102
RTVSPost2010Prop44ColorIndex
 90
        5
102
RTVSPost2010Prop44ColorRGB
 90
      255
102
RTVSPost2010PropOp44
 70
     1
102
RTVSPost2010Prop45
280
     0
102
RTVSPost2010PropOp45
 70
     1
102
RTVSPost2010Prop46
 90
       50
102
RTVSPost2010PropOp46
 70
     1
102
RTVSPost2010Prop47
 90
       50
102
RTVSPost2010PropOp47
 70
     1
102
RTVSPost2010Prop48
 90
       50
102
RTVSPost2010PropOp48
 70
     1
102
RTVSPost2010Prop49
280
     0
102
RTVSPost2010PropOp49
 70
     1
102
RTVSPost2010Prop50
 90
       50
102
RTVSPost2010PropOp50
 70
     1
102
RTVSPost2010Prop51ColorIndex
 90
      256
102
RTVSPost2010Prop51ColorRGB
 90
-16777216
102
RTVSPost2010PropOp51
 70
     0
102
RTVSPost2010Prop52
140
1.0
102
RTVSPost2010PropOp52
 70
     0
102
RTVSPost2010Prop53
 90
        2
102
RTVSPost2010PropOp53
 70
     1
102
RTVSPost2010Prop54
  1
strokes_ogs.tif
102
RTVSPost2010PropOp54
 70
     1
102
RTVSPost2010Prop55
280
     0
102
RTVSPost2010PropOp55
 70
     1
102
RTVSPost2010Prop56
140
1.0
102
RTVSPost2010PropOp56
 70
     1
102
RTVSPost2010Prop57
140
1.0
102
RTVSPost2010PropOp57
 70
     1
  0
ENDSEC
  0
EOF
